  0
SECTION
  2
HEADER
  9
$ACADVER
  1
AC1015
  9
$ACADMAINTVER
 70
    20
  9
$DWGCODEPAGE
  3
ANSI_932
  9
$INSBASE
 10
0.0
 20
0.0
 30
0.0
  9
$EXTMIN
 10
6628.864902956357
 20
-6410.862021888585
 30
-0.0000000000000076
  9
$EXTMAX
 10
6771.922439551872
 20
-6208.771581696233
 30
0.0000000000000076
  9
$LIMMIN
 10
0.0
 20
0.0
  9
$LIMMAX
 10
420.0
 20
297.0
  9
$ORTHOMODE
 70
     0
  9
$REGENMODE
 70
     1
  9
$FILLMODE
 70
     1
  9
$QTEXTMODE
 70
     0
  9
$MIRRTEXT
 70
     1
  9
$LTSCALE
 40
5.0
  9
$ATTMODE
 70
     0
  9
$TEXTSIZE
 40
3.5
  9
$TRACEWID
 40
1.0
  9
$TEXTSTYLE
  7
STANDARD
  9
$CLAYER
  8
0
  9
$CELTYPE
  6
BYLAYER
  9
$CECOLOR
 62
   256
  9
$CELTSCALE
 40
1.0
  9
$DISPSILH
 70
     0
  9
$DIMSCALE
 40
1.0
  9
$DIMASZ
 40
1.5
  9
$DIMEXO
 40
1.5
  9
$DIMDLI
 40
0.38
  9
$DIMRND
 40
0.0
  9
$DIMDLE
 40
0.0
  9
$DIMEXE
 40
1.0
  9
$DIMTP
 40
0.0
  9
$DIMTM
 40
0.0
  9
$DIMTXT
 40
2.500000000000002
  9
$DIMCEN
 40
0.0
  9
$DIMTSZ
 40
0.0
  9
$DIMTOL
 70
     0
  9
$DIMLIM
 70
     0
  9
$DIMTIH
 70
     0
  9
$DIMTOH
 70
     0
  9
$DIMSE1
 70
     0
  9
$DIMSE2
 70
     0
  9
$DIMTAD
 70
     3
  9
$DIMZIN
 70
     8
  9
$DIMBLK
  1

  9
$DIMASO
 70
     1
  9
$DIMSHO
 70
     0
  9
$DIMPOST
  1

  9
$DIMAPOST
  1

  9
$DIMALT
 70
     0
  9
$DIMALTD
 70
     0
  9
$DIMALTF
 40
25.4
  9
$DIMLFAC
 40
1.0
  9
$DIMTOFL
 70
     0
  9
$DIMTVP
 40
0.0
  9
$DIMTIX
 70
     0
  9
$DIMSOXD
 70
     0
  9
$DIMSAH
 70
     1
  9
$DIMBLK1
  1
OPEN
  9
$DIMBLK2
  1
OPEN
  9
$DIMSTYLE
  2
STANDARD
  9
$DIMCLRD
 70
     8
  9
$DIMCLRE
 70
     8
  9
$DIMCLRT
 70
     7
  9
$DIMTFAC
 40
1.0
  9
$DIMGAP
 40
1.0
  9
$DIMJUST
 70
     0
  9
$DIMSD1
 70
     0
  9
$DIMSD2
 70
     0
  9
$DIMTOLJ
 70
     1
  9
$DIMTZIN
 70
     0
  9
$DIMALTZ
 70
     0
  9
$DIMALTTZ
 70
     0
  9
$DIMUPT
 70
     0
  9
$DIMDEC
 70
     2
  9
$DIMTDEC
 70
     2
  9
$DIMALTU
 70
     2
  9
$DIMALTTD
 70
     0
  9
$DIMTXSTY
  7
STANDARD
  9
$DIMAUNIT
 70
     0
  9
$DIMADEC
 70
     2
  9
$DIMALTRND
 40
0.0
  9
$DIMAZIN
 70
     2
  9
$DIMDSEP
 70
    46
  9
$DIMATFIT
 70
     3
  9
$DIMFRAC
 70
     0
  9
$DIMLDRBLK
  1

  9
$DIMLUNIT
 70
     2
  9
$DIMLWD
 70
    -2
  9
$DIMLWE
 70
    -2
  9
$DIMTMOVE
 70
     0
  9
$LUNITS
 70
     2
  9
$LUPREC
 70
     2
  9
$SKETCHINC
 40
0.1
  9
$FILLETRAD
 40
1.0
  9
$AUNITS
 70
     0
  9
$AUPREC
 70
     1
  9
$MENU
  1
FM
  9
$ELEVATION
 40
0.0
  9
$PELEVATION
 40
0.0
  9
$THICKNESS
 40
0.0
  9
$LIMCHECK
 70
     0
  9
$CHAMFERA
 40
0.0
  9
$CHAMFERB
 40
0.0
  9
$CHAMFERC
 40
0.0
  9
$CHAMFERD
 40
0.0
  9
$SKPOLY
 70
     0
  9
$TDCREATE
 40
2448636.619629630
  9
$TDUCREATE
 40
2448636.244629629
  9
$TDUPDATE
 40
2457378.621385104
  9
$TDUUPDATE
 40
2457378.246385104
  9
$TDINDWG
 40
60.4428685764
  9
$TDUSRTIMER
 40
60.4428685764
  9
$USRTIMER
 70
     1
  9
$ANGBASE
 50
0.0
  9
$ANGDIR
 70
     0
  9
$PDMODE
 70
     3
  9
$PDSIZE
 40
0.0
  9
$PLINEWID
 40
0.0
  9
$SPLFRAME
 70
     0
  9
$SPLINETYPE
 70
     6
  9
$SPLINESEGS
 70
     8
  9
$HANDSEED
  5
1CED86
  9
$SURFTAB1
 70
     6
  9
$SURFTAB2
 70
     6
  9
$SURFTYPE
 70
     6
  9
$SURFU
 70
     6
  9
$SURFV
 70
     6
  9
$UCSBASE
  2

  9
$UCSNAME
  2

  9
$UCSORG
 10
0.0
 20
0.0
 30
0.0
  9
$UCSXDIR
 10
1.0
 20
0.0
 30
0.0
  9
$UCSYDIR
 10
0.0
 20
1.0
 30
0.0
  9
$UCSORTHOREF
  2

  9
$UCSORTHOVIEW
 70
     0
  9
$UCSORGTOP
 10
0.0
 20
0.0
 30
0.0
  9
$UCSORGBOTTOM
 10
0.0
 20
0.0
 30
0.0
  9
$UCSORGLEFT
 10
0.0
 20
0.0
 30
0.0
  9
$UCSORGRIGHT
 10
0.0
 20
0.0
 30
0.0
  9
$UCSORGFRONT
 10
0.0
 20
0.0
 30
0.0
  9
$UCSORGBACK
 10
0.0
 20
0.0
 30
0.0
  9
$PUCSBASE
  2

  9
$PUCSNAME
  2

  9
$PUCSORG
 10
0.0
 20
0.0
 30
0.0
  9
$PUCSXDIR
 10
1.0
 20
0.0
 30
0.0
  9
$PUCSYDIR
 10
0.0
 20
1.0
 30
0.0
  9
$PUCSORTHOREF
  2

  9
$PUCSORTHOVIEW
 70
     0
  9
$PUCSORGTOP
 10
0.0
 20
0.0
 30
0.0
  9
$PUCSORGBOTTOM
 10
0.0
 20
0.0
 30
0.0
  9
$PUCSORGLEFT
 10
0.0
 20
0.0
 30
0.0
  9
$PUCSORGRIGHT
 10
0.0
 20
0.0
 30
0.0
  9
$PUCSORGFRONT
 10
0.0
 20
0.0
 30
0.0
  9
$PUCSORGBACK
 10
0.0
 20
0.0
 30
0.0
  9
$USERI1
 70
     0
  9
$USERI2
 70
     0
  9
$USERI3
 70
     0
  9
$USERI4
 70
     0
  9
$USERI5
 70
     0
  9
$USERR1
 40
0.0
  9
$USERR2
 40
0.0
  9
$USERR3
 40
0.0
  9
$USERR4
 40
0.0
  9
$USERR5
 40
0.0
  9
$WORLDVIEW
 70
     0
  9
$SHADEDGE
 70
     3
  9
$SHADEDIF
 70
    70
  9
$TILEMODE
 70
     1
  9
$MAXACTVP
 70
    16
  9
$PINSBASE
 10
0.0
 20
0.0
 30
0.0
  9
$PLIMCHECK
 70
     0
  9
$PEXTMIN
 10
1.000000000000000E+20
 20
1.000000000000000E+20
 30
1.000000000000000E+20
  9
$PEXTMAX
 10
-1.000000000000000E+20
 20
-1.000000000000000E+20
 30
-1.000000000000000E+20
  9
$PLIMMIN
 10
0.0
 20
0.0
  9
$PLIMMAX
 10
12.0
 20
9.0
  9
$UNITMODE
 70
     0
  9
$VISRETAIN
 70
     0
  9
$PLINEGEN
 70
     0
  9
$PSLTSCALE
 70
     0
  9
$TREEDEPTH
 70
  3020
  9
$CMLSTYLE
  2
STANDARD
  9
$CMLJUST
 70
     0
  9
$CMLSCALE
 40
1.0
  9
$PROXYGRAPHICS
 70
     1
  9
$MEASUREMENT
 70
     0
  9
$CELWEIGHT
370
    -1
  9
$ENDCAPS
280
     0
  9
$JOINSTYLE
280
     0
  9
$LWDISPLAY
290
     0
  9
$INSUNITS
 70
     0
  9
$HYPERLINKBASE
  1

  9
$STYLESHEET
  1
spax form.ctb
  9
$XEDIT
290
     1
  9
$CEPSNTYPE
380
     0
  9
$PSTYLEMODE
290
     1
  9
$FINGERPRINTGUID
  2
{BBAEEBA6-8B94-11D3-9160-00E0294F7E09}
  9
$VERSIONGUID
  2
{4612A6E7-57B5-4314-8411-01494FB308C3}
  9
$EXTNAMES
290
     1
  9
$PSVPSCALE
 40
0.0
  9
$OLESTARTUP
290
     0
  0
ENDSEC
  0
SECTION
  2
CLASSES
  0
CLASS
  1
ACDBDICTIONARYWDFLT
  2
AcDbDictionaryWithDefault
  3
ObjectDBX Classes
 90
        0
280
     0
281
     0
  0
CLASS
  1
ACDBPLACEHOLDER
  2
AcDbPlaceHolder
  3
ObjectDBX Classes
 90
        0
280
     0
281
     0
  0
CLASS
  1
LAYOUT
  2
AcDbLayout
  3
ObjectDBX Classes
 90
        0
280
     0
281
     0
  0
CLASS
  1
DICTIONARYVAR
  2
AcDbDictionaryVar
  3
ObjectDBX Classes
 90
        0
280
     0
281
     0
  0
CLASS
  1
MATERIAL
  2
AcDbMaterial
  3
ObjectDBX Classes
 90
     1153
280
     0
281
     0
  0
CLASS
  1
VISUALSTYLE
  2
AcDbVisualStyle
  3
ObjectDBX Classes
 90
     4095
280
     0
281
     0
  0
CLASS
  1
TABLESTYLE
  2
AcDbTableStyle
  3
ObjectDBX Classes
 90
     4095
280
     0
281
     0
  0
CLASS
  1
SCALE
  2
AcDbScale
  3
ObjectDBX Classes
 90
     1153
280
     0
281
     0
  0
CLASS
  1
MLEADERSTYLE
  2
AcDbMLeaderStyle
  3
ACDB_MLEADERSTYLE_CLASS
 90
     4095
280
     0
281
     0
  0
CLASS
  1
CELLSTYLEMAP
  2
AcDbCellStyleMap
  3
ObjectDBX Classes
 90
     1152
280
     0
281
     0
  0
CLASS
  1
SORTENTSTABLE
  2
AcDbSortentsTable
  3
ObjectDBX Classes
 90
        0
280
     0
281
     0
  0
CLASS
  1
DIMASSOC
  2
AcDbDimAssoc
  3
"AcDbDimAssoc|Product Desc:     AcDim ARX App For Dimension|Company:          Autodesk, Inc.|WEB Address:      www.autodesk.com"
 90
    32768
280
     0
281
     0
  0
CLASS
  1
ACDB_RADIMOBJECTCONTEXTDATA_CLASS
  2
AcDbRadialDimensionObjectContextData
  3
ObjectDBX Classes
 90
    33921
280
     0
281
     0
  0
CLASS
  1
ACDB_DMDIMOBJECTCONTEXTDATA_CLASS
  2
AcDbDiametricDimensionObjectContextData
  3
ObjectDBX Classes
 90
    33921
280
     0
281
     0
  0
CLASS
  1
MULTILEADER
  2
AcDbMLeader
  3
ACDB_MLEADER_CLASS
 90
    33793
280
     0
281
     1
  0
CLASS
  1
LARGE_RADIAL_DIMENSION
  2
AcDbRadialDimensionLarge
  3
ObjectDBX Classes
 90
    33793
280
     0
281
     1
  0
ENDSEC
  0
SECTION
  2
TABLES
  0
TABLE
  2
VPORT
  5
8
102
{ACAD_XDICTIONARY
360
66C93
102
}
330
0
100
AcDbSymbolTable
 70
     1
  0
VPORT
  5
163677
330
8
100
AcDbSymbolTableRecord
100
AcDbViewportTableRecord
  2
*Active
 70
     0
 10
0.0
 20
0.0
 11
1.0
 21
1.0
 12
6700.393671254115
 22
-6309.816801792409
 13
0.0
 23
0.0
 14
1.0
 24
1.0
 15
20.0
 25
20.0
 16
0.0
 26
0.0
 36
1.0
 17
0.0
 27
0.0
 37
0.0
 40
203.7202018068056
 41
1.842530282637954
 42
50.0
 43
0.0
 44
0.0
 50
0.0
 51
0.0
 71
     0
 72
   100
 73
     1
 74
     0
 75
     0
 76
     0
 77
     0
 78
     0
281
     0
 65
     1
110
0.0
120
0.0
130
0.0
111
1.0
121
0.0
131
0.0
112
0.0
122
1.0
132
0.0
 79
     0
146
0.0
  0
ENDTAB
  0
TABLE
  2
LTYPE
  5
5
330
0
100
AcDbSymbolTable
 70
     6
  0
LTYPE
  5
12
330
5
100
AcDbSymbolTableRecord
100
AcDbLinetypeTableRecord
  2
BYBLOCK
 70
     0
  3

 72
    65
 73
     0
 40
0.0
  0
LTYPE
  5
13
330
5
100
AcDbSymbolTableRecord
100
AcDbLinetypeTableRecord
  2
BYLAYER
 70
     0
  3

 72
    65
 73
     0
 40
0.0
  0
LTYPE
  5
14
330
5
100
AcDbSymbolTableRecord
100
AcDbLinetypeTableRecord
  2
CONTINUOUS
 70
     0
  3
Solid line
 72
    65
 73
     0
 40
0.0
  0
ENDTAB
  0
TABLE
  2
LAYER
  5
2
102
{ACAD_XDICTIONARY
360
67DE7
102
}
330
0
100
AcDbSymbolTable
 70
    12
  0
LAYER
  5
F
102
{ACAD_XDICTIONARY
360
66C5B
102
}
330
2
100
AcDbSymbolTableRecord
100
AcDbLayerTableRecord
  2
0
 70
     0
 62
     7
  6
CONTINUOUS
370
    -3
390
616
  0
LAYER
  5
36
330
2
100
AcDbSymbolTableRecord
100
AcDbLayerTableRecord
  2
DEFPOINTS
 70
     0
 62
     7
  6
CONTINUOUS
290
     0
370
    -3
390
616
  0
LAYER
  5
2F4
102
{ACAD_XDICTIONARY
360
66C67
102
}
330
2
100
AcDbSymbolTableRecord
100
AcDbLayerTableRecord
  2
文字
 70
     0
 62
     7
  6
CONTINUOUS
370
    -3
390
616
  0
LAYER
  5
13ADEA
102
{ACAD_XDICTIONARY
360
13ADEB
102
}
330
2
100
AcDbSymbolTableRecord
100
AcDbLayerTableRecord
  2
寸法線
 70
     0
 62
     7
  6
CONTINUOUS
370
    -3
390
616
  0
LAYER
  5
142AB2
102
{ACAD_XDICTIONARY
360
142AB3
102
}
330
2
100
AcDbSymbolTableRecord
100
AcDbLayerTableRecord
  2
姿図
 70
     0
 62
     8
  6
CONTINUOUS
370
    -3
390
616
  0
ENDTAB
  0
TABLE
  2
STYLE
  5
3
330
0
100
AcDbSymbolTable
 70
     2
  0
STYLE
  5
10
330
3
100
AcDbSymbolTableRecord
100
AcDbTextStyleTableRecord
  2
STANDARD
 70
     0
 40
0.0
 41
1.0
 50
0.0
 71
     0
 42
3.5
  3
MONOTXT
  4
BIGFONT
  0
ENDTAB
  0
TABLE
  2
VIEW
  5
6
330
0
100
AcDbSymbolTable
 70
     0
  0
ENDTAB
  0
TABLE
  2
UCS
  5
7
330
0
100
AcDbSymbolTable
 70
     0
  0
ENDTAB
  0
TABLE
  2
APPID
  5
9
330
0
100
AcDbSymbolTable
 70
    21
  0
APPID
  5
11
330
9
100
AcDbSymbolTableRecord
100
AcDbRegAppTableRecord
  2
ACAD
 70
     0
  0
APPID
  5
66C55
330
9
100
AcDbSymbolTableRecord
100
AcDbRegAppTableRecord
  2
ACAD_MLEADERVER
 70
     0
  0
APPID
  5
66CC8
330
9
100
AcDbSymbolTableRecord
100
AcDbRegAppTableRecord
  2
ACAD_PSEXT
 70
     0
  0
APPID
  5
67DE4
330
9
100
AcDbSymbolTableRecord
100
AcDbRegAppTableRecord
  2
ACAD_DSTYLE_DIMJAG
 70
     0
  0
APPID
  5
67DE5
330
9
100
AcDbSymbolTableRecord
100
AcDbRegAppTableRecord
  2
ACAD_DSTYLE_DIMBREAK
 70
     0
  0
APPID
  5
67DE6
330
9
100
AcDbSymbolTableRecord
100
AcDbRegAppTableRecord
  2
ACAD_DSTYLE_DIMTALN
 70
     0
  0
APPID
  5
68101
330
9
100
AcDbSymbolTableRecord
100
AcDbRegAppTableRecord
  2
ACAD_EXEMPT_FROM_CAD_STANDARDS
 70
     0
  0
APPID
  5
74C21
330
9
100
AcDbSymbolTableRecord
100
AcDbRegAppTableRecord
  2
ACAD_DSTYLE_DIMRADIAL_EXTENSION
 70
     0
  0
APPID
  5
86ADD
330
9
100
AcDbSymbolTableRecord
100
AcDbRegAppTableRecord
  2
AcAecLayerStandard
 70
     0
  0
APPID
  5
86ADE
330
9
100
AcDbSymbolTableRecord
100
AcDbRegAppTableRecord
  2
AcadAnnotative
 70
     0
  0
APPID
  5
86ADF
330
9
100
AcDbSymbolTableRecord
100
AcDbRegAppTableRecord
  2
AcadAnnotativeDecomposition
 70
     0
  0
APPID
  5
16E922
330
9
100
AcDbSymbolTableRecord
100
AcDbRegAppTableRecord
  2
ASK_MEN_XD
 70
     0
  0
APPID
  5
1AB09B
330
9
100
AcDbSymbolTableRecord
100
AcDbRegAppTableRecord
  2
ACAD_DSTYLE_DIMARC_LENGTH_SYMBOL
 70
     0
  0
APPID
  5
1B5F59
330
9
100
AcDbSymbolTableRecord
100
AcDbRegAppTableRecord
  2
GENIUS_GENODEF_13
 70
     0
  0
APPID
  5
1B5F5A
330
9
100
AcDbSymbolTableRecord
100
AcDbRegAppTableRecord
  2
GENIUS_GENOREF_13
 70
     0
  0
APPID
  5
1B5F5B
330
9
100
AcDbSymbolTableRecord
100
AcDbRegAppTableRecord
  2
GENIUS_GENOBJ-N-CEN_13
 70
     0
  0
APPID
  5
1B5F5C
330
9
100
AcDbSymbolTableRecord
100
AcDbRegAppTableRecord
  2
GENIUS_GENOBJ-N-HTC_13
 70
     0
  0
APPID
  5
1B5F5D
330
9
100
AcDbSymbolTableRecord
100
AcDbRegAppTableRecord
  2
GENIUS_GENHATCH_13
 70
     0
  0
APPID
  5
1B5F5E
330
9
100
AcDbSymbolTableRecord
100
AcDbRegAppTableRecord
  2
GENIUS_GENOBJ-N-FIL_13
 70
     0
  0
APPID
  5
1C13AD
330
9
100
AcDbSymbolTableRecord
100
AcDbRegAppTableRecord
  2
ACAD_SPLINE_DATA
 70
     0
  0
APPID
  5
1C13AE
330
9
100
AcDbSymbolTableRecord
100
AcDbRegAppTableRecord
  2
ACAD_SPLINE_DATA2
 70
     0
  0
ENDTAB
  0
TABLE
  2
DIMSTYLE
  5
A
330
0
100
AcDbSymbolTable
 70
     3
100
AcDbDimStyleTable
 71
     1
340
1CC
  0
DIMSTYLE
105
1CC
330
A
100
AcDbSymbolTableRecord
100
AcDbDimStyleTableRecord
  2
STANDARD
 70
     0
 41
1.5
 42
1.5
 44
1.0
 73
     0
 74
     0
 77
     3
 78
     8
 79
     2
140
2.500000000000002
141
0.0
147
1.0
171
     0
173
     1
176
     8
177
     8
179
     2
271
     2
272
     2
274
     0
340
10
341
608
343
608
344
608
1001
ACAD_DSTYLE_DIMJAG
1070
   388
1040
1.5
1001
ACAD_DSTYLE_DIMTALN
1070
   392
1070
     0
  0
ENDTAB
  0
TABLE
  2
BLOCK_RECORD
  5
1
330
0
100
AcDbSymbolTable
 70
    11
  0
BLOCK_RECORD
  5
18
102
{ACAD_XDICTIONARY
360
845D5
102
}
330
1
100
AcDbSymbolTableRecord
100
AcDbBlockTableRecord
  2
*MODEL_SPACE
340
619
  0
BLOCK_RECORD
  5
15
330
1
100
AcDbSymbolTableRecord
100
AcDbBlockTableRecord
  2
*PAPER_SPACE
340
61A
  0
BLOCK_RECORD
  5
608
330
1
100
AcDbSymbolTableRecord
100
AcDbBlockTableRecord
  2
_OPEN
340
0
  0
ENDTAB
  0
ENDSEC
  0
SECTION
  2
BLOCKS
  0
BLOCK
  5
39
330
18
100
AcDbEntity
  8
0
100
AcDbBlockBegin
  2
*MODEL_SPACE
 70
     0
 10
0.0
 20
0.0
 30
0.0
  3
*MODEL_SPACE
  1

  0
ENDBLK
  5
3A
330
18
100
AcDbEntity
  8
0
100
AcDbBlockEnd
  0
BLOCK
  5
37
330
15
100
AcDbEntity
 67
     1
  8
0
100
AcDbBlockBegin
  2
*PAPER_SPACE
 70
     0
 10
0.0
 20
0.0
 30
0.0
  3
*PAPER_SPACE
  1

  0
ENDBLK
  5
38
330
15
100
AcDbEntity
 67
     1
  8
0
100
AcDbBlockEnd
  0
BLOCK
  5
609
330
608
100
AcDbEntity
  8
0
100
AcDbBlockBegin
  2
_OPEN
 70
     0
 10
0.0
 20
0.0
 30
0.0
  3
_OPEN
  1

  0
LINE
  5
60A
330
608
100
AcDbEntity
  8
0
  6
ByBlock
 62
     0
100
AcDbLine
 10
-1.0
 20
0.1666666666666666
 30
0.0
 11
0.0
 21
0.0
 31
0.0
  0
LINE
  5
60B
330
608
100
AcDbEntity
  8
0
  6
ByBlock
 62
     0
100
AcDbLine
 10
0.0
 20
0.0
 30
0.0
 11
-1.0
 21
-0.1666666666666666
 31
0.0
  0
LINE
  5
60C
330
608
100
AcDbEntity
  8
0
  6
ByBlock
 62
     0
100
AcDbLine
 10
0.0
 20
0.0
 30
0.0
 11
-1.0
 21
0.0
 31
0.0
  0
ENDBLK
  5
60D
330
608
100
AcDbEntity
  8
0
100
AcDbBlockEnd
  0
ENDSEC
  0
SECTION
  2
ENTITIES
  0
TEXT
  5
11B04
330
18
100
AcDbEntity
  8
文字
100
AcDbText
 10
-1240.183388714458
 20
-1416.837204555437
 30
0.0
 40
6.75
  1

 41
1.022799999999999
100
AcDbText
  0
MTEXT
  5
12B3E
330
18
100
AcDbEntity
  8
0
100
AcDbMText
 10
-974.1891318600247
 20
-2072.131137572738
 30
0.0
 40
2.500000000000002
 41
0.0
 71
     9
 72
     1
  1
\A1;
 73
     1
 44
1.0
1001
ACAD
1000
MTEXTBEGIN
1070
    73
1070
     1
1070
    44
1040
1.0
1070
    74
1070
     0
1000
MTEXTEND
  0
MTEXT
  5
1C0DF9
330
18
100
AcDbEntity
  8
寸法線
 62
     8
100
AcDbMText
 10
-2246.464717580975
 20
-8257.66873364652
 30
0.0
 40
7.5
 41
0.0
 71
     3
 72
     5
  1

 73
     1
 44
1.0
1001
ACAD_MLEADERVER
1070
     2
1001
ACAD
1000
MTEXTBEGIN
1070
    73
1070
     1
1070
    44
1040
1.0
1070
    74
1070
     0
1000
MTEXTEND
  0
TEXT
  5
1C3FD5
330
18
100
AcDbEntity
  8
文字
100
AcDbText
 10
6629.103250061731
 20
-6410.284346741159
 30
0.0
 40
15.0
  1
MCL-SFI/01
100
AcDbText
  0
LINE
  5
1C4330
330
18
100
AcDbEntity
  8
姿図
100
AcDbLine
 10
6688.951664660971
 20
-6210.654607918797
 30
0.0
 11
6682.195092996265
 21
-6241.533125212088
 31
0.0
  0
LINE
  5
1C4333
330
18
100
AcDbEntity
  8
姿図
100
AcDbLine
 10
6711.032705246674
 20
-6210.318945652208
 30
0.0
 11
6718.282262226773
 21
-6241.953171497713
 31
0.0
  0
ELLIPSE
  5
1C4334
330
18
100
AcDbEntity
  8
姿図
100
AcDbEllipse
 10
6700.212153333904
 20
-6241.870458618856
 30
0.0
 11
-18.0701088928713
 21
0.0827128788567811
 31
0.0
210
0.0
220
0.0
230
1.0
 40
0.1862544096985957
 41
6.207389204984965
 42
9.500574062964474
  0
LINE
  5
1C4338
330
18
100
AcDbEntity
  8
姿図
100
AcDbLine
 10
6700.659571133086
 20
-6245.237110457485
 30
0.0
 11
6700.659571133086
 21
-6363.544872338873
 31
0.0
  0
LINE
  5
1C4347
330
18
100
AcDbEntity
  8
姿図
100
AcDbLine
 10
6699.428079468366
 20
-6245.229531036828
 30
0.0
 11
6699.428079468366
 21
-6363.544872338873
 31
0.0
  0
ELLIPSE
  5
1C4349
330
18
100
AcDbEntity
  8
姿図
100
AcDbEllipse
 10
6700.033091137399
 20
-6363.577733188312
 30
0.0
 11
-1.040115107872169
 21
-0.0474258448179958
 31
0.0
210
0.0
220
0.0
230
1.0
 40
0.4368584651128961
 41
5.313120067916126
 42
10.32940554474367
  0
ELLIPSE
  5
1C434A
330
18
100
AcDbEntity
  8
姿図
100
AcDbEllipse
 10
6700.033091137399
 20
-6363.864857489295
 30
0.0
 11
-1.040115107872169
 21
-0.0474258448179957
 31
0.0
210
0.0
220
0.0
230
1.0
 40
0.4368584651128961
 41
6.243351942469388
 42
9.424777960769379
  0
ELLIPSE
  5
1C434B
330
18
100
AcDbEntity
  8
姿図
100
AcDbEllipse
 10
6700.043825300726
 20
-6363.544872338873
 30
0.0
 11
-0.6157458323604078
 21
0.0
 31
0.0
210
0.0
220
0.0
230
1.0
 40
0.2355099523794677
 41
0.0
 42
3.141592653589793
  0
LINE
  5
1C434C
330
18
100
AcDbEntity
  8
姿図
100
AcDbLine
 10
6701.07320624527
 20
-6363.530307343493
 30
0.0
 11
6701.07320624527
 21
-6363.817431644477
 31
0.0
  0
LINE
  5
1C434D
330
18
100
AcDbEntity
  8
姿図
100
AcDbLine
 10
6698.992976029527
 20
-6363.62515903313
 30
0.0
 11
6698.992976029527
 21
-6363.912283334113
 31
0.0
  0
ELLIPSE
  5
1C4355
330
18
100
AcDbEntity
  8
姿図
100
AcDbEllipse
 10
6700.446076975622
 20
-6364.674192705827
 30
0.0
 11
-17.62286969451424
 21
-0.4195146817829993
 31
0.0
210
0.0
220
0.0
230
1.0
 40
0.2392051366141191
 41
4.75789171928141
 42
10.97111119783521
  0
ELLIPSE
  5
1C4357
330
18
100
AcDbEntity
  8
姿図
100
AcDbEllipse
 10
6700.428920203489
 20
-6365.398751115414
 30
0.0
 11
-17.62286969451424
 21
-0.4195146817829993
 31
0.0
210
0.0
220
0.0
230
1.0
 40
0.2392051366141191
 41
6.185866518364165
 42
9.49936805149321
  0
LINE
  5
1C4358
330
18
100
AcDbEntity
  8
姿図
100
AcDbLine
 10
6739.576872105442
 20
-6367.003503931947
 30
0.0
 11
6742.219626449529
 21
-6368.053593182857
 31
0.0
  0
LINE
  5
1C4359
330
18
100
AcDbEntity
  8
姿図
100
AcDbLine
 10
6739.334940325763
 20
-6367.61237242685
 30
0.0
 11
6741.740903305696
 21
-6368.568373452435
 31
0.0
  0
LINE
  5
1C435A
330
18
100
AcDbEntity
  8
姿図
100
AcDbLine
 10
6734.559023157046
 20
-6372.908119578904
 30
0.0
 11
6737.499481705715
 21
-6372.638154168935
 31
0.0
  0
LINE
  5
1C435B
330
18
100
AcDbEntity
  8
姿図
100
AcDbLine
 10
6734.799018108681
 20
-6374.52837460863
 30
0.0
 11
6737.691477667024
 21
-6373.934358192714
 31
0.0
  0
LINE
  5
1C435C
330
18
100
AcDbEntity
  8
姿図
100
AcDbLine
 10
6727.410338950291
 20
-6373.832029788155
 30
0.0
 11
6730.164772500822
 21
-6373.424038370376
 31
0.0
  0
LINE
  5
1C435D
330
18
100
AcDbEntity
  8
姿図
100
AcDbLine
 10
6727.386339455124
 20
-6373.670004285181
 30
0.0
 11
6730.140773005657
 21
-6373.262012867403
 31
0.0
  0
LINE
  5
1C435E
330
18
100
AcDbEntity
  8
姿図
100
AcDbLine
 10
6727.683049951505
 20
-6375.67315756342
 30
0.0
 11
6730.437483502035
 21
-6375.265166145641
 31
0.0
  0
LINE
  5
1C435F
330
18
100
AcDbEntity
  8
姿図
100
AcDbLine
 10
6727.707049446665
 20
-6375.835183066392
 30
0.0
 11
6730.461482997199
 21
-6375.427191648613
 31
0.0
  0
LINE
  5
1C4360
330
18
100
AcDbEntity
  8
姿図
100
AcDbLine
 10
6727.707049446665
 20
-6375.835183066392
 30
0.0
 11
6727.683049951505
 21
-6375.67315756342
 31
0.0
  0
LINE
  5
1C4361
330
18
100
AcDbEntity
  8
姿図
100
AcDbLine
 10
6727.410338950291
 20
-6373.832029788155
 30
0.0
 11
6727.386339455124
 21
-6373.670004285181
 31
0.0
  0
LINE
  5
1C4362
330
18
100
AcDbEntity
  8
姿図
100
AcDbLine
 10
6734.971286763027
 20
-6372.896728491888
 30
0.0
 11
6735.019285753354
 21
-6373.220779497833
 31
0.0
  0
LINE
  5
1C4363
330
18
100
AcDbEntity
  8
姿図
100
AcDbLine
 10
6735.556978523246
 20
-6372.826532859597
 30
0.0
 11
6735.604977513573
 21
-6373.150583865541
 31
0.0
  0
LINE
  5
1C4364
330
18
100
AcDbEntity
  8
姿図
100
AcDbLine
 10
6735.394953020271
 20
-6372.85053235476
 30
0.0
 11
6735.442952010598
 21
-6373.174583360706
 31
0.0
  0
LINE
  5
1C4365
330
18
100
AcDbEntity
  8
姿図
100
AcDbLine
 10
6735.133312265999
 20
-6372.872728996724
 30
0.0
 11
6735.181311256328
 21
-6373.196780002668
 31
0.0
  0
LINE
  5
1C4366
330
18
100
AcDbEntity
  8
姿図
100
AcDbLine
 10
6730.949390761674
 20
-6375.926489754997
 30
0.0
 11
6730.469400858403
 21
-6372.685979695546
 31
0.0
  0
LINE
  5
1C4367
330
18
100
AcDbEntity
  8
姿図
100
AcDbLine
 10
6730.544327004242
 20
-6375.986488492905
 30
0.0
 11
6730.064337100974
 21
-6372.745978433454
 31
0.0
  0
LINE
  5
1C4368
330
18
100
AcDbEntity
  8
姿図
100
AcDbLine
 10
6734.799018108681
 20
-6374.52837460863
 30
0.0
 11
6734.559023157046
 21
-6372.908119578904
 31
0.0
  0
LINE
  5
1C4369
330
18
100
AcDbEntity
  8
姿図
100
AcDbLine
 10
6730.544327004242
 20
-6375.986488492905
 30
0.0
 11
6730.949390761674
 21
-6375.926489754997
 31
0.0
  0
ARC
  5
1C436A
330
18
100
AcDbEntity
  8
姿図
100
AcDbCircle
 10
6731.111416264646
 20
-6375.902490259832
 30
0.0
 40
0.1637932824678276
100
AcDbArc
 50
98.42548696146932
 51
188.4254869614693
  0
ARC
  5
1C436B
330
18
100
AcDbEntity
  8
姿図
100
AcDbCircle
 10
6735.100298504839
 20
-6373.208779750251
 30
0.0
 40
0.0818966412339138
100
AcDbArc
 50
188.4254869614693
 51
278.4254869614693
  0
ARC
  5
1C436C
330
18
100
AcDbEntity
  8
姿図
100
AcDbCircle
 10
6735.229895778722
 20
-6374.083717466302
 30
0.0
 40
0.0818966412339138
100
AcDbArc
 50
98.42548696146932
 51
188.4254869614693
  0
LINE
  5
1C436D
330
18
100
AcDbEntity
  8
姿図
100
AcDbLine
 10
6735.196882017564
 20
-6374.41976821983
 30
0.0
 11
6735.148883027237
 21
-6374.095717213883
 31
0.0
  0
ARC
  5
1C436E
330
18
100
AcDbEntity
  8
姿図
100
AcDbCircle
 10
6736.454709977578
 20
-6373.074394141583
 30
0.0
 40
0.0818966412339138
100
AcDbArc
 50
278.4254869614693
 51
8.425486961469296
  0
ARC
  5
1C436F
330
18
100
AcDbEntity
  8
姿図
100
AcDbCircle
 10
6736.565107655329
 20
-6373.819711455257
 30
0.0
 40
0.0818966412339138
100
AcDbArc
 50
8.425486961469296
 51
98.42548696146932
  0
LINE
  5
1C4370
330
18
100
AcDbEntity
  8
姿図
100
AcDbLine
 10
6736.487723738737
 20
-6372.738343388057
 30
0.0
 11
6736.535722729063
 21
-6373.062394394001
 31
0.0
  0
ARC
  5
1C4371
330
18
100
AcDbEntity
  8
姿図
100
AcDbCircle
 10
6736.454709977578
 20
-6373.074394141583
 30
0.0
 40
0.0818966412339138
100
AcDbArc
 50
188.4254869614693
 51
278.4254869614693
  0
LINE
  5
1C4372
330
18
100
AcDbEntity
  8
姿図
100
AcDbLine
 10
6736.325698235764
 20
-6372.76234288322
 30
0.0
 11
6736.373697226091
 21
-6373.086393889165
 31
0.0
  0
ARC
  5
1C4373
330
18
100
AcDbEntity
  8
姿図
100
AcDbCircle
 10
6736.565107655329
 20
-6373.819711455257
 30
0.0
 40
0.0818966412339138
100
AcDbArc
 50
98.42548696146932
 51
188.4254869614693
  0
LINE
  5
1C4374
330
18
100
AcDbEntity
  8
姿図
100
AcDbLine
 10
6736.694119397142
 20
-6374.13176271362
 30
0.0
 11
6736.646120406816
 21
-6373.807711707676
 31
0.0
  0
LINE
  5
1C4375
330
18
100
AcDbEntity
  8
姿図
100
AcDbLine
 10
6736.532093894171
 20
-6374.155762208784
 30
0.0
 11
6736.484094903842
 21
-6373.831711202838
 31
0.0
  0
ARC
  5
1C4376
330
18
100
AcDbEntity
  8
姿図
100
AcDbCircle
 10
6736.977991486122
 20
-6373.030000857655
 30
0.0
 40
0.0818966412339138
100
AcDbArc
 50
278.4254869614693
 51
8.425486961469296
  0
ARC
  5
1C4377
330
18
100
AcDbEntity
  8
姿図
100
AcDbCircle
 10
6736.977991486122
 20
-6373.030000857655
 30
0.0
 40
0.0818966412339138
100
AcDbArc
 50
188.4254869614693
 51
278.4254869614693
  0
LINE
  5
1C4378
330
18
100
AcDbEntity
  8
姿図
100
AcDbLine
 10
6736.848979744308
 20
-6372.717949599291
 30
0.0
 11
6736.896978734637
 21
-6373.042000605236
 31
0.0
  0
LINE
  5
1C4379
330
18
100
AcDbEntity
  8
姿図
100
AcDbLine
 10
6737.011005247282
 20
-6372.693950104128
 30
0.0
 11
6737.059004237607
 21
-6373.018001110072
 31
0.0
  0
ARC
  5
1C437A
330
18
100
AcDbEntity
  8
姿図
100
AcDbCircle
 10
6737.078789365807
 20
-6373.710507970138
 30
0.0
 40
0.0818966412339138
100
AcDbArc
 50
8.425486961469296
 51
98.42548696146932
  0
ARC
  5
1C437B
330
18
100
AcDbEntity
  8
姿図
100
AcDbCircle
 10
6737.078789365807
 20
-6373.710507970138
 30
0.0
 40
0.0818966412339138
100
AcDbArc
 50
98.42548696146932
 51
188.4254869614693
  0
LINE
  5
1C437C
330
18
100
AcDbEntity
  8
姿図
100
AcDbLine
 10
6737.045775604648
 20
-6374.046558723665
 30
0.0
 11
6736.997776614323
 21
-6373.722507717721
 31
0.0
  0
LINE
  5
1C437D
330
18
100
AcDbEntity
  8
姿図
100
AcDbLine
 10
6737.207801107621
 20
-6374.022559228502
 30
0.0
 11
6737.159802117296
 21
-6373.698508222559
 31
0.0
  0
ARC
  5
1C437E
330
18
100
AcDbEntity
  8
姿図
100
AcDbCircle
 10
6735.100298504839
 20
-6373.208779750251
 30
0.0
 40
0.0818966412339138
100
AcDbArc
 50
278.4254869614693
 51
8.425486961469296
  0
ARC
  5
1C437F
330
18
100
AcDbEntity
  8
姿図
100
AcDbCircle
 10
6735.229895778722
 20
-6374.083717466302
 30
0.0
 40
0.0818966412339138
100
AcDbArc
 50
8.425486961469296
 51
98.42548696146932
  0
ARC
  5
1C4380
330
18
100
AcDbEntity
  8
姿図
100
AcDbCircle
 10
6735.982436069441
 20
-6373.127790127259
 30
0.0
 40
0.0818966412339138
100
AcDbArc
 50
278.4254869614693
 51
8.425486961469296
  0
LINE
  5
1C4381
330
18
100
AcDbEntity
  8
姿図
100
AcDbLine
 10
6736.015449830602
 20
-6372.791739373734
 30
0.0
 11
6736.063448820927
 21
-6373.115790379679
 31
0.0
  0
ARC
  5
1C4382
330
18
100
AcDbEntity
  8
姿図
100
AcDbCircle
 10
6735.982436069441
 20
-6373.127790127259
 30
0.0
 40
0.0818966412339138
100
AcDbArc
 50
188.4254869614693
 51
278.4254869614693
  0
LINE
  5
1C4383
330
18
100
AcDbEntity
  8
姿図
100
AcDbLine
 10
6735.853424327628
 20
-6372.815738868896
 30
0.0
 11
6735.901423317955
 21
-6373.139789874842
 31
0.0
  0
ARC
  5
1C4384
330
18
100
AcDbEntity
  8
姿図
100
AcDbCircle
 10
6735.523964762086
 20
-6373.162583613123
 30
0.0
 40
0.0818966412339138
100
AcDbArc
 50
278.4254869614693
 51
8.425486961469296
  0
ARC
  5
1C4385
330
18
100
AcDbEntity
  8
姿図
100
AcDbCircle
 10
6735.523964762086
 20
-6373.162583613123
 30
0.0
 40
0.0818966412339138
100
AcDbArc
 50
188.4254869614693
 51
278.4254869614693
  0
ARC
  5
1C4386
330
18
100
AcDbEntity
  8
姿図
100
AcDbCircle
 10
6736.097633646226
 20
-6373.905512541529
 30
0.0
 40
0.0818966412339138
100
AcDbArc
 50
8.425486961469296
 51
98.42548696146932
  0
ARC
  5
1C4387
330
18
100
AcDbEntity
  8
姿図
100
AcDbCircle
 10
6736.097633646226
 20
-6373.905512541529
 30
0.0
 40
0.0818966412339138
100
AcDbArc
 50
98.42548696146932
 51
188.4254869614693
  0
LINE
  5
1C4388
330
18
100
AcDbEntity
  8
姿図
100
AcDbLine
 10
6736.226645388038
 20
-6374.217563799891
 30
0.0
 11
6736.178646397712
 21
-6373.893512793947
 31
0.0
  0
LINE
  5
1C4389
330
18
100
AcDbEntity
  8
姿図
100
AcDbLine
 10
6736.064619885067
 20
-6374.241563295055
 30
0.0
 11
6736.016620894739
 21
-6373.917512289111
 31
0.0
  0
ARC
  5
1C438A
330
18
100
AcDbEntity
  8
姿図
100
AcDbCircle
 10
6735.648762136936
 20
-6374.00511622858
 30
0.0
 40
0.0818966412339138
100
AcDbArc
 50
8.425486961469296
 51
98.42548696146932
  0
ARC
  5
1C438B
330
18
100
AcDbEntity
  8
姿図
100
AcDbCircle
 10
6735.648762136936
 20
-6374.00511622858
 30
0.0
 40
0.0818966412339138
100
AcDbArc
 50
98.42548696146932
 51
188.4254869614693
  0
LINE
  5
1C438C
330
18
100
AcDbEntity
  8
姿図
100
AcDbLine
 10
6735.777773878748
 20
-6374.317167486943
 30
0.0
 11
6735.729774888421
 21
-6373.993116480999
 31
0.0
  0
LINE
  5
1C438D
330
18
100
AcDbEntity
  8
姿図
100
AcDbLine
 10
6735.615748375775
 20
-6374.341166982107
 30
0.0
 11
6735.567749385449
 21
-6374.017115976163
 31
0.0
  0
LINE
  5
1C438E
330
18
100
AcDbEntity
  8
姿図
100
AcDbLine
 10
6735.358907520534
 20
-6374.395768724667
 30
0.0
 11
6735.310908530211
 21
-6374.071717718721
 31
0.0
  0
LINE
  5
1C438F
330
18
100
AcDbEntity
  8
姿図
100
AcDbLine
 10
6730.064337100974
 20
-6372.745978433454
 30
0.0
 11
6730.469400858403
 21
-6372.685979695546
 31
0.0
  0
ARC
  5
1C4390
330
18
100
AcDbEntity
  8
姿図
100
AcDbCircle
 10
6730.631426361376
 20
-6372.661980200382
 30
0.0
 40
0.1637932824678276
100
AcDbArc
 50
188.4254869614693
 51
278.4254869614693
  0
LINE
  5
1C4391
330
18
100
AcDbEntity
  8
姿図
100
AcDbLine
 10
6737.691477667024
 20
-6373.934358192714
 30
0.0
 11
6737.497081756199
 21
-6372.621951618637
 31
0.0
  0
SPLINE
  5
1C4392
330
18
100
AcDbEntity
  8
姿図
100
AcDbSpline
210
0.0
220
0.0
230
1.0
 70
     8
 71
     3
 72
    10
 73
     6
 74
     0
 42
0.0000000001
 43
0.0000000001
 40
0.0
 40
0.0
 40
0.0
 40
0.0
 40
2.522395166429207
 40
4.753483689757254
 40
6.925806654842216
 40
6.925806654842216
 40
6.925806654842216
 40
6.925806654842216
 10
6731.706673139232
 20
-6363.821507824212
 30
0.0
 10
6729.810528618457
 20
-6362.707903632843
 30
0.0
 10
6726.237221718378
 20
-6360.609303290213
 30
0.0
 10
6723.170212712901
 20
-6366.624076244059
 30
0.0
 10
6719.419778807832
 20
-6365.268873234828
 30
0.0
 10
6717.925993788842
 20
-6364.242526549511
 30
0.0
  0
SPLINE
  5
1C4393
330
18
100
AcDbEntity
  8
姿図
100
AcDbSpline
210
0.0
220
0.0
230
1.0
 70
     8
 71
     3
 72
    10
 73
     6
 74
     0
 42
0.0000000001
 43
0.0000000001
 40
0.2158087061561264
 40
0.2158087061561264
 40
0.2158087061561264
 40
0.2158087061561264
 40
2.522395166429207
 40
4.753483689757254
 40
6.834529910178967
 40
6.834529910178967
 40
6.834529910178967
 40
6.834529910178967
 10
6731.410909556645
 20
-6364.489256049146
 30
0.0
 10
6729.679761036344
 20
-6363.482664972457
 30
0.0
 10
6726.332316586391
 20
-6361.749204344739
 30
0.0
 10
6723.401296627397
 20
-6367.497286448529
 30
0.0
 10
6719.765151134497
 20
-6366.275311047899
 30
0.0
 10
6717.959045849291
 20
-6365.192282419553
 30
0.0
  0
SPLINE
  5
1C4394
330
18
100
AcDbEntity
  8
姿図
100
AcDbSpline
210
0.0
220
0.0
230
1.0
 70
     8
 71
     3
 72
     9
 73
     5
 74
     0
 42
0.0000000001
 43
0.0000000001
 40
0.0
 40
0.0
 40
0.0
 40
0.0
 40
0.6861542826689156
 40
1.191420641315228
 40
1.191420641315228
 40
1.191420641315228
 40
1.191420641315228
 10
6741.740903305696
 20
-6368.568373452435
 30
0.0
 10
6742.246047505149
 20
-6368.879213919334
 30
0.0
 10
6743.12316689545
 20
-6369.418949307965
 30
0.0
 10
6742.881125382429
 20
-6370.06441316901
 30
0.0
 10
6742.654691992689
 20
-6370.334810201818
 30
0.0
  0
SPLINE
  5
1C4395
330
18
100
AcDbEntity
  8
姿図
100
AcDbSpline
210
0.0
220
0.0
230
1.0
 70
     8
 71
     3
 72
     9
 73
     5
 74
     0
 42
0.0000000001
 43
0.0000000001
 40
0.0
 40
0.0
 40
0.0
 40
0.0
 40
0.958314036486835
 40
1.632594009329342
 40
1.632594009329342
 40
1.632594009329342
 40
1.632594009329342
 10
6742.219626449529
 20
-6368.053593182857
 30
0.0
 10
6742.924747584293
 20
-6368.492079723274
 30
0.0
 10
6744.125999466909
 20
-6369.239090068315
 30
0.0
 10
6743.713419366094
 20
-6370.219700205605
 30
0.0
 10
6743.3882308712
 20
-6370.614351727535
 30
0.0
  0
SPLINE
  5
1C4396
330
18
100
AcDbEntity
  8
姿図
100
AcDbSpline
210
0.0
220
0.0
230
1.0
 70
     8
 71
     3
 72
    10
 73
     6
 74
     4
 42
0.0000000001
 43
0.0000000001
 44
0.0000000001
 40
0.0
 40
0.0
 40
0.0
 40
0.0
 40
0.3748191249278534
 40
0.6340821471594609
 40
1.066564386293975
 40
1.066564386293975
 40
1.066564386293975
 40
1.066564386293975
 10
6742.62564735795
 20
-6370.34255722023
 30
0.0
 10
6742.796181153126
 20
-6370.296963133363
 30
0.0
 10
6743.084673462663
 20
-6370.219831539547
 30
0.0
 10
6742.911490836281
 20
-6370.748535628027
 30
0.0
 10
6743.232347621312
 20
-6370.658260596782
 30
0.0
 10
6743.432948722013
 20
-6370.601820242463
 30
0.0
 11
6742.62564735795
 21
-6370.34255722023
 31
0.0
 11
6743.000466482877
 21
-6370.34255722023
 31
0.0
 11
6743.000466482877
 21
-6370.601820242463
 31
0.0
 11
6743.432948722013
 21
-6370.601820242463
 31
0.0
  0
SPLINE
  5
1C4397
330
18
100
AcDbEntity
  8
姿図
100
AcDbSpline
210
0.0
220
0.0
230
1.0
 70
     8
 71
     3
 72
    10
 73
     6
 74
     4
 42
0.0000000001
 43
0.0000000001
 44
0.0000000001
 40
0.0
 40
0.0
 40
0.0
 40
0.0
 40
0.3748191249260344
 40
0.6340821471567324
 40
1.066564386292156
 40
1.066564386292156
 40
1.066564386292156
 40
1.066564386292156
 10
6741.639113182499
 20
-6371.291510060888
 30
0.0
 10
6741.809646977675
 20
-6371.245915974022
 30
0.0
 10
6742.098139287211
 20
-6371.168784380206
 30
0.0
 10
6741.924956660827
 20
-6371.697488468684
 30
0.0
 10
6742.245813445864
 20
-6371.607213437439
 30
0.0
 10
6742.44641454656
 20
-6371.550773083118
 30
0.0
 11
6741.639113182499
 21
-6371.291510060888
 31
0.0
 11
6742.013932307425
 21
-6371.291510060888
 31
0.0
 11
6742.013932307425
 21
-6371.550773083118
 31
0.0
 11
6742.44641454656
 21
-6371.550773083118
 31
0.0
  0
SPLINE
  5
1C4398
330
18
100
AcDbEntity
  8
姿図
100
AcDbSpline
210
0.0
220
0.0
230
1.0
 70
     8
 71
     3
 72
     9
 73
     5
 74
     0
 42
0.0000000001
 43
0.0000000001
 40
1.79301012679077
 40
1.79301012679077
 40
1.79301012679077
 40
1.79301012679077
 40
2.676118933950087
 40
4.001847794365655
 40
4.001847794365655
 40
4.001847794365655
 40
4.001847794365655
 10
6742.433262779567
 20
-6371.554472143142
 30
0.0
 10
6741.919833142254
 20
-6372.061177655824
 30
0.0
 10
6740.094529668755
 20
-6373.232901420447
 30
0.0
 10
6738.609341971123
 20
-6373.45985360239
 30
0.0
 10
6737.717942742112
 20
-6373.596068708622
 30
0.0
  0
SPLINE
  5
1C4399
330
18
100
AcDbEntity
  8
姿図
100
AcDbSpline
210
0.0
220
0.0
230
1.0
 70
     8
 71
     3
 72
     9
 73
     5
 74
     0
 42
0.0000000001
 43
0.0000000001
 40
1.37201545132377
 40
1.37201545132377
 40
1.37201545132377
 40
1.37201545132377
 40
2.247931167116882
 40
3.23096474985547
 40
3.23096474985547
 40
3.23096474985547
 40
3.23096474985547
 10
6741.669775971342
 20
-6371.283333664685
 30
0.0
 10
6741.140998043656
 20
-6371.743002241498
 30
0.0
 10
6739.405919634165
 20
-6372.646322478711
 30
0.0
 10
6738.188652867741
 20
-6372.871856323421
 30
0.0
 10
6737.544948323732
 20
-6372.99112119179
 30
0.0
  0
SPLINE
  5
1C439A
330
18
100
AcDbEntity
  8
姿図
100
AcDbSpline
210
0.0
220
0.0
230
1.0
 70
     8
 71
     3
 72
    30
 73
    26
 74
    24
 42
0.0000000001
 43
0.0000000001
 44
0.0000000001
 40
0.0
 40
0.0
 40
0.0
 40
0.0
 40
0.784272199014136
 40
1.60827781750323
 40
2.316119098232272
 40
2.693746635450514
 40
2.851408822869858
 40
2.971156890437827
 40
3.0911713753159
 40
3.277319278486028
 40
3.441573784659231
 40
3.520827096828827
 40
3.582603572472058
 40
3.665610268975247
 40
3.739319153508391
 40
3.792385926543972
 40
3.860407344185326
 40
3.902012517476543
 40
3.944534849330936
 40
3.986842301627746
 40
4.027726065624787
 40
4.065928629646153
 40
4.100160340311598
 40
4.140471972852878
 40
4.17094250657825
 40
4.17094250657825
 40
4.17094250657825
 40
4.17094250657825
 10
6730.655425856541
 20
-6372.824005703357
 30
0.0
 10
6730.91588735834
 20
-6372.798967945674
 30
0.0
 10
6731.450006068889
 20
-6372.747623947592
 30
0.0
 10
6732.222833020313
 20
-6372.766013318216
 30
0.0
 10
6732.857831791207
 20
-6372.867823994643
 30
0.0
 10
6733.239455224678
 20
-6373.034127168563
 30
0.0
 10
6733.454992854948
 20
-6373.077679279957
 30
0.0
 10
6733.590534305307
 20
-6373.061146679075
 30
0.0
 10
6733.710344020185
 20
-6372.979043412819
 30
0.0
 10
6733.817980975025
 20
-6372.865706205082
 30
0.0
 10
6733.917734956071
 20
-6372.76192563775
 30
0.0
 10
6734.001530016898
 20
-6372.703573020235
 30
0.0
 10
6734.067836105592
 20
-6372.668714010133
 30
0.0
 10
6734.139485204131
 20
-6372.650358804497
 30
0.0
 10
6734.210274864918
 20
-6372.653304512515
 30
0.0
 10
6734.273094191201
 20
-6372.671130940531
 30
0.0
 10
6734.321583231338
 20
-6372.696181151447
 30
0.0
 10
6734.363740464837
 20
-6372.724400890053
 30
0.0
 10
6734.397293879014
 20
-6372.749946100257
 30
0.0
 10
6734.429384337928
 20
-6372.776912023301
 30
0.0
 10
6734.45934498117
 20
-6372.804121274763
 30
0.0
 10
6734.486535935848
 20
-6372.830350107152
 30
0.0
 10
6734.51280691514
 20
-6372.857223781505
 30
0.0
 10
6734.537019267387
 20
-6372.882521053802
 30
0.0
 10
6734.552401405112
 20
-6372.900416073492
 30
0.0
 10
6734.559023157046
 20
-6372.908119578904
 30
0.0
 11
6730.655425856541
 21
-6372.824005703357
 31
0.0
 11
6731.437409748498
 21
-6372.764138559904
 31
0.0
 11
6732.261096788498
 21
-6372.787049680309
 31
0.0
 11
6732.955843987145
 21
-6372.92256945258
 31
0.0
 11
6733.312858388822
 21
-6373.045627462722
 31
0.0
 11
6733.468543900587
 21
-6373.070514944895
 31
0.0
 11
6733.586870139212
 21
-6373.052116549885
 31
0.0
 11
6733.689271079318
 21
-6372.9895264225
 31
0.0
 11
6733.823322716479
 21
-6372.860370700873
 31
0.0
 11
6733.942157615167
 21
-6372.746978418721
 31
0.0
 11
6734.007283714631
 21
-6372.701815617006
 31
0.0
 11
6734.062395331071
 21
-6372.673904281027
 31
0.0
 11
6734.142952655812
 21
-6372.653888559828
 31
0.0
 11
6734.216599406757
 21
-6372.65691440421
 31
0.0
 11
6734.267702988089
 21
-6372.671214976769
 31
0.0
 11
6734.328571644517
 21
-6372.701578111036
 31
0.0
 11
6734.363245645679
 21
-6372.724571677267
 31
0.0
 11
6734.397135316976
 21
-6372.750255113285
 31
0.0
 11
6734.429565711284
 21
-6372.777424766298
 31
0.0
 11
6734.459861881479
 21
-6372.804876983516
 31
0.0
 11
6734.487348880427
 21
-6372.831408112149
 31
0.0
 11
6734.511351761004
 21
-6372.855814499409
 31
0.0
 11
6734.538984142432
 21
-6372.885165465573
 31
0.0
 11
6734.559023157046
 21
-6372.908119578904
 31
0.0
  0
SPLINE
  5
1C439B
330
18
100
AcDbEntity
  8
姿図
100
AcDbSpline
210
0.0
220
0.0
230
1.0
 70
     8
 71
     3
 72
    30
 73
    26
 74
    24
 42
0.0000000001
 43
0.0000000001
 44
0.0000000001
 40
0.0
 40
0.0
 40
0.0
 40
0.0
 40
0.7842721990155663
 40
1.608277817503694
 40
2.31611909823241
 40
2.693746635451139
 40
2.851408822871937
 40
2.971156890439852
 40
3.091171375315562
 40
3.277319278487385
 40
3.441573784659415
 40
3.520827096828128
 40
3.582603572472782
 40
3.665610268976636
 40
3.739319153507925
 40
3.792385926543416
 40
3.860407344186564
 40
3.902012517478084
 40
3.944534849331033
 40
3.986842301628951
 40
4.027726065626275
 40
4.065928629647244
 40
4.100160340310962
 40
4.140471972852836
 40
4.170942506579746
 40
4.170942506579746
 40
4.170942506579746
 40
4.170942506579746
 10
6731.087416769483
 20
-6375.740464756861
 30
0.0
 10
6731.343952599229
 20
-6375.688923983819
 30
0.0
 10
6731.870021080162
 20
-6375.583231238253
 30
0.0
 10
6732.604333598044
 20
-6375.341601786647
 30
0.0
 10
6733.182553555273
 20
-6375.060087073117
 30
0.0
 10
6733.499582308154
 20
-6374.790298340073
 30
0.0
 10
6733.693240145893
 20
-6374.686135494721
 30
0.0
 10
6733.827754240582
 20
-6374.662667005476
 30
0.0
 10
6733.966219935104
 20
-6374.706514075487
 30
0.0
 10
6734.102089744175
 20
-6374.783782644054
 30
0.0
 10
6734.227644747587
 20
-6374.854190058496
 30
0.0
 10
6734.324757267883
 20
-6374.885746335076
 30
0.0
 10
6734.398321351735
 20
-6374.899887535524
 30
0.0
 10
6734.472214848636
 20
-6374.8966847225
 30
0.0
 10
6734.539111029625
 20
-6374.873344751656
 30
0.0
 10
6734.594065433181
 20
-6374.838073476942
 30
0.0
 10
6734.633210810186
 20
-6374.800042705981
 30
0.0
 10
6734.665377462416
 20
-6374.760813986053
 30
0.0
 10
6734.690085027633
 20
-6374.726639059738
 30
0.0
 10
6734.712980612956
 20
-6374.691528509595
 30
0.0
 10
6734.733767295821
 20
-6374.656802477222
 30
0.0
 10
6734.752187422256
 20
-6374.623817653335
 30
0.0
 10
6734.769540146263
 20
-6374.590482361291
 30
0.0
 10
6734.785379609347
 20
-6374.55925254547
 30
0.0
 10
6734.79491379982
 20
-6374.537666876548
 30
0.0
 10
6734.799018108681
 20
-6374.52837460863
 30
0.0
 11
6731.087416769483
 21
-6375.740464756861
 31
0.0
 11
6731.853178309321
 21
-6375.571077194583
 31
0.0
 11
6732.634856304085
 21
-6375.310376654113
 31
0.0
 11
6733.260487503315
 21
-6374.979280170816
 31
0.0
 11
6733.566499941538
 21
-6374.758013488916
 31
0.0
 11
6733.708286158052
 21
-6374.689063984575
 31
0.0
 11
6733.826865090847
 21
-6374.67237157961
 31
0.0
 11
6733.943012974423
 21
-6374.702589880705
 31
0.0
 11
6734.108748795778
 21
-6374.787340570231
 31
0.0
 11
6734.255351696289
 21
-6374.861415750683
 31
0.0
 11
6734.330773355191
 21
-6374.885760377572
 31
0.0
 11
6734.391609620073
 21
-6374.896497314672
 31
0.0
 11
6734.474510197415
 21
-6374.892301371295
 31
0.0
 11
6734.54411756056
 21
-6374.868056482041
 31
0.0
 11
6734.588881356962
 21
-6374.839555869204
 31
0.0
 11
6734.63833466587
 21
-6374.792851656373
 31
0.0
 11
6734.664854381442
 21
-6374.760793971949
 31
0.0
 11
6734.689843696195
 21
-6374.726389279619
 31
0.0
 11
6734.71300556283
 21
-6374.690985205646
 31
0.0
 11
6734.734042934047
 21
-6374.655929376303
 31
0.0
 11
6734.752658762544
 21
-6374.622569417862
 31
0.0
 11
6734.768556001016
 21
-6374.592252956592
 31
0.0
 11
6734.786493545538
 21
-6374.556152094903
 31
0.0
 11
6734.799018108681
 21
-6374.52837460863
 31
0.0
  0
LINE
  5
1C439C
330
18
100
AcDbEntity
  8
姿図
100
AcDbLine
 10
6731.706673139232
 20
-6363.821507824212
 30
0.0
 11
6739.576872105442
 21
-6367.003503931947
 31
0.0
  0
LINE
  5
1C439D
330
18
100
AcDbEntity
  8
姿図
100
AcDbLine
 10
6731.410909556645
 20
-6364.489256049146
 30
0.0
 11
6739.334940325763
 21
-6367.61237242685
 31
0.0
  0
ELLIPSE
  5
1C43A1
330
18
100
AcDbEntity
  8
姿図
100
AcDbEllipse
 10
6699.987657278995
 20
-6210.54925637809
 30
0.0
 11
-11.03774423825358
 21
-0.0303349426763468
 31
0.0
210
0.0
220
0.0
230
1.0
 40
0.1246032458382314
 41
0.0
 42
6.283185307179586
  0
SPLINE
  5
1C43A4
330
18
100
AcDbEntity
  8
姿図
100
AcDbSpline
210
0.0
220
0.0
230
1.0
 70
     8
 71
     3
 72
    26
 73
    22
 74
     0
 42
0.0000000001
 43
0.0000000001
 40
3.323027689052449
 40
3.323027689052449
 40
3.323027689052449
 40
3.323027689052449
 40
3.470756841179128
 40
3.470756841179128
 40
3.618485993305808
 40
3.618485993305808
 40
3.964439050952664
 40
3.964439050952664
 40
4.310392108599521
 40
4.310392108599521
 40
4.656345166246378
 40
4.656345166246378
 40
5.145552859524488
 40
5.145552859524488
 40
5.634760552802598
 40
5.634760552802598
 40
5.860131005620994
 40
5.860131005620994
 40
6.03454227627001
 40
6.03454227627001
 40
6.10175027171693
 40
6.10175027171693
 40
6.10175027171693
 40
6.10175027171693
 10
6710.675666662435
 20
-6210.519882608871
 30
0.0
 10
6710.609471384412
 20
-6210.475187291742
 30
0.0
 10
6710.490817292671
 20
-6210.416404490114
 30
0.0
 10
6710.168310388905
 20
-6210.299765975038
 30
0.0
 10
6709.964227847125
 20
-6210.240397323851
 30
0.0
 10
6709.156757513155
 20
-6210.048009044826
 30
0.0
 10
6708.383971324213
 20
-6209.922911946737
 30
0.0
 10
6706.532899799753
 20
-6209.714074842
 30
0.0
 10
6705.454203509018
 20
-6209.629890985547
 30
0.0
 10
6703.12124544442
 20
-6209.512731357356
 30
0.0
 10
6701.867433355435
 20
-6209.479748005271
 30
0.0
 10
6698.809873721682
 20
-6209.466777261794
 30
0.0
 10
6696.995334929524
 20
-6209.514944580759
 30
0.0
 10
6693.743214718984
 20
-6209.711312043184
 30
0.0
 10
6692.307872049759
 20
-6209.859654616947
 30
0.0
 10
6690.744230341414
 20
-6210.121202583838
 30
0.0
 10
6690.327528731066
 20
-6210.210207902279
 30
0.0
 10
6689.750552830402
 20
-6210.371593218987
 30
0.0
 10
6689.553109544073
 20
-6210.444033692649
 30
0.0
 10
6689.370555032984
 20
-6210.534248085062
 30
0.0
 10
6689.329650597848
 20
-6210.558131210222
 30
0.0
 10
6689.299647895555
 20
-6210.578630147311
 30
0.0
  0
SPLINE
  5
1C43A5
330
18
100
AcDbEntity
  8
姿図
100
AcDbSpline
210
0.0
220
0.0
230
1.0
 70
     8
 71
     3
 72
    26
 73
    22
 74
     0
 42
0.0000000001
 43
0.0000000001
 40
0.1814350354623973
 40
0.1814350354623973
 40
0.1814350354623973
 40
0.1814350354623973
 40
0.3291641875888636
 40
0.3291641875888636
 40
0.4768933397153299
 40
0.4768933397153299
 40
0.8228463990147506
 40
0.8228463990147506
 40
1.168799458314171
 40
1.168799458314171
 40
1.514752517613592
 40
1.514752517613592
 40
2.003960209171419
 40
2.003960209171419
 40
2.493167900729245
 40
2.493167900729245
 40
2.718538353200824
 40
2.718538353200824
 40
2.892949623557109
 40
2.892949623557109
 40
2.960157618127817
 40
2.960157618127817
 40
2.960157618127817
 40
2.960157618127817
 10
6689.299647895554
 20
-6210.578630147311
 30
0.0
 10
6689.365843173579
 20
-6210.623325464439
 30
0.0
 10
6689.48449726532
 20
-6210.68210826607
 30
0.0
 10
6689.807004169086
 20
-6210.798746781144
 30
0.0
 10
6690.011086710864
 20
-6210.858115432328
 30
0.0
 10
6690.818557047534
 20
-6211.050503711998
 30
0.0
 10
6691.591343241163
 20
-6211.175600810631
 30
0.0
 10
6693.442414777369
 20
-6211.384437915984
 30
0.0
 10
6694.521111075168
 20
-6211.468621772517
 30
0.0
 10
6696.854069154224
 20
-6211.5857814003
 30
0.0
 10
6698.107881250596
 20
-6211.618764751898
 30
0.0
 10
6701.165440884955
 20
-6211.631735493483
 30
0.0
 10
6702.979979668929
 20
-6211.583568173774
 30
0.0
 10
6706.232099863093
 20
-6211.387200710746
 30
0.0
 10
6707.667442524186
 20
-6211.238858137121
 30
0.0
 10
6709.231084224741
 20
-6210.977310170722
 30
0.0
 10
6709.647785833441
 20
-6210.888304852361
 30
0.0
 10
6710.224761731494
 20
-6210.726919535883
 30
0.0
 10
6710.422205016794
 20
-6210.654479062348
 30
0.0
 10
6710.604759526074
 20
-6210.564264670498
 30
0.0
 10
6710.645663960535
 20
-6210.54038154569
 30
0.0
 10
6710.675666662436
 20
-6210.519882608869
 30
0.0
  0
ENDSEC
  0
SECTION
  2
OBJECTS
  0
DICTIONARY
  5
C
330
0
100
AcDbDictionary
281
     1
  3
ACAD_COLOR
350
6D0
  3
ACAD_GROUP
350
D
  3
ACAD_LAYOUT
350
617
  3
ACAD_MATERIAL
350
6CF
  3
ACAD_MLEADERSTYLE
350
66C53
  3
ACAD_MLINESTYLE
350
E
  3
ACAD_PLOTSETTINGS
350
618
  3
ACAD_PLOTSTYLENAME
350
615
  3
ACAD_SCALELIST
350
66C31
  3
ACAD_TABLESTYLE
350
66C2F
  3
ACAD_VISUALSTYLE
350
66C1E
  3
AcadDim
350
12B3C
  3
ACDB_RECOMPOSE_DATA
350
66C91
  3
AcDbVariableDictionary
350
6DE
  3
DWGPROPS
350
1CED7D
  0
DICTIONARY
  5
66C93
330
8
100
AcDbDictionary
280
     1
281
     1
  0
DICTIONARY
  5
67DE7
330
2
100
AcDbDictionary
280
     1
281
     1
  3
ACAD_LAYERSTATES
360
67DE8
  0
DICTIONARY
  5
66C5B
330
F
100
AcDbDictionary
280
     1
281
     1
  3
ADSK_XREC_LAYER_RECONCILED
360
66C5C
  0
DICTIONARY
  5
66C67
330
2F4
100
AcDbDictionary
280
     1
281
     1
  3
ADSK_XREC_LAYER_RECONCILED
360
66C68
  0
DICTIONARY
  5
13ADEB
330
13ADEA
100
AcDbDictionary
280
     1
281
     1
  0
DICTIONARY
  5
142AB3
330
142AB2
100
AcDbDictionary
280
     1
281
     1
  0
DICTIONARY
  5
845D5
330
18
100
AcDbDictionary
280
     1
281
     1
  3
ACAD_SORTENTS
360
845D6
  0
DICTIONARY
  5
6D0
102
{ACAD_REACTORS
330
C
102
}
330
C
100
AcDbDictionary
281
     1
  0
DICTIONARY
  5
D
102
{ACAD_REACTORS
330
C
102
}
330
C
100
AcDbDictionary
281
     1
  3
*A1
350
11444
  3
*A10
350
1AF90C
  3
*A11
350
1C673
  3
*A12
350
33CE0
  3
*A13
350
16971E
  3
*A14
350
DCD6D
  3
*A15
350
1A8180
  3
*A16
350
31E63
  3
*A17
350
120900
  3
*A18
350
3616A
  3
*A19
350
E3E76
  3
*A2
350
1CA57D
  3
*A20
350
1B0DED
  3
*A21
350
33672
  3
*A22
350
16CAD
  3
*A23
350
1928F
  3
*A24
350
3AC3F
  3
*A25
350
10639A
  3
*A26
350
E60AA
  3
*A27
350
31E64
  3
*A28
350
1AAD7C
  3
*A29
350
1AC8BF
  3
*A3
350
E83F5
  3
*A30
350
1ACF7
  3
*A31
350
D1E17
  3
*A32
350
EB499
  3
*A33
350
3AC40
  3
*A34
350
1AD39E
  3
*A35
350
DCD6E
  3
*A36
350
100CC9
  3
*A37
350
3FCA9
  3
*A38
350
DFCC4
  3
*A39
350
1CBABF
  3
*A4
350
CCD2F
  3
*A40
350
1AEAF8
  3
*A41
350
F7F9E
  3
*A42
350
1C672
  3
*A43
350
26F38
  3
*A44
350
352E7
  3
*A45
350
1CA57C
  3
*A46
350
3543B
  3
*A47
350
3610C
  3
*A48
350
EBAAA
  3
*A49
350
1B20A2
  3
*A5
350
CF3F2
  3
*A50
350
336CA
  3
*A51
350
1B301F
  3
*A52
350
18CA7
  3
*A53
350
18076
  3
*A54
350
31E65
  3
*A55
350
26F39
  3
*A56
350
31E62
  3
*A57
350
1B537F
  3
*A58
350
D1362
  3
*A59
350
26F37
  3
*A6
350
1A649E
  3
*A60
350
1A7EA7
  3
*A61
350
10FF7C
  3
*A62
350
1B5D10
  3
*A63
350
26F3A
  3
*A64
350
CC1E6
  3
*A65
350
33994
  3
*A66
350
3393C
  3
*A67
350
EE85E
  3
*A68
350
1AC846
  3
*A69
350
1ACF6
  3
*A7
350
3AC3E
  3
*A70
350
3FCA8
  3
*A71
350
169CA2
  3
*A72
350
1AD795
  3
*A73
350
EE28F
  3
*A74
350
16CDD
  3
*A75
350
3BCF2
  3
*A8
350
1AF9C8
  3
*A9
350
3AC3D
  0
DICTIONARY
  5
617
102
{ACAD_REACTORS
330
C
102
}
330
C
100
AcDbDictionary
281
     1
  3
Model
350
619
  3
ﾚｲｱｳﾄ1
350
61A
  0
DICTIONARY
  5
6CF
102
{ACAD_REACTORS
330
C
102
}
330
C
100
AcDbDictionary
281
     1
  3
ByBlock
350
66C0E
  3
ByLayer
350
66C06
  3
Global
350
66C16
  0
DICTIONARY
  5
66C53
102
{ACAD_REACTORS
330
C
102
}
330
C
100
AcDbDictionary
281
     1
  3
Standard
350
66C54
  0
DICTIONARY
  5
E
102
{ACAD_REACTORS
330
C
102
}
330
C
100
AcDbDictionary
281
     1
  3
STANDARD
350
1B
  0
DICTIONARY
  5
618
102
{ACAD_REACTORS
330
C
102
}
330
C
100
AcDbDictionary
281
     1
  0
ACDBDICTIONARYWDFLT
  5
615
102
{ACAD_REACTORS
330
C
102
}
330
C
100
AcDbDictionary
281
     1
  3
Normal
350
616
100
AcDbDictionaryWithDefault
340
616
  0
DICTIONARY
  5
66C31
102
{ACAD_REACTORS
330
C
102
}
330
C
100
AcDbDictionary
281
     1
  3
A0
350
66C32
  3
A1
350
66C33
  3
A2
350
66C34
  3
A3
350
66C35
  3
A4
350
66C36
  3
A5
350
66C37
  3
A6
350
66C38
  3
A7
350
66C39
  3
A8
350
66C3A
  3
A9
350
66C3B
  3
B0
350
66C3C
  3
B1
350
66C3D
  3
B2
350
66C3E
  3
B3
350
66C3F
  3
B4
350
66C40
  3
B5
350
66C41
  3
B6
350
66C42
  3
B7
350
66C43
  3
B8
350
66C44
  3
B9
350
66C45
  3
C0
350
66C46
  3
C1
350
66C47
  3
C2
350
66C48
  3
C3
350
66C49
  3
C4
350
66C4A
  3
C5
350
66C4B
  3
C6
350
66C4C
  3
C7
350
66C4D
  3
C8
350
66C4E
  3
C9
350
66C4F
  3
D0
350
66C50
  3
D1
350
66C51
  3
D2
350
66C52
  0
DICTIONARY
  5
66C2F
102
{ACAD_REACTORS
330
C
102
}
330
C
100
AcDbDictionary
281
     1
  3
Standard
350
66C30
  0
DICTIONARY
  5
66C1E
102
{ACAD_REACTORS
330
C
102
}
330
C
100
AcDbDictionary
281
     1
  3
2dWireframe
350
66C24
  3
3D Hidden
350
66C26
  3
3dWireframe
350
66C25
  3
Basic
350
66C23
  3
Brighten
350
66C2A
  3
ColorChange
350
66C2E
  3
Conceptual
350
66C27
  3
Dim
350
66C29
  3
Facepattern
350
66C2D
  3
Flat
350
66C1F
  3
FlatWithEdges
350
66C20
  3
Gouraud
350
66C21
  3
GouraudWithEdges
350
66C22
  3
Linepattern
350
66C2C
  3
Realistic
350
66C28
  3
Thicken
350
66C2B
  0
XRECORD
  5
12B3C
102
{ACAD_REACTORS
330
C
102
}
330
C
100
AcDbXrecord
280
     1
 90
   990106
  3
OPEN
 60
     0
 61
     0
 62
     1
 63
     3
 64
     1
 65
     0
 66
     0
 67
     3
 68
     1
 69
     0
 70
     0
 71
     0
 72
     0
 40
0.0
170
     2
340
0
  0
XRECORD
  5
66C91
102
{ACAD_REACTORS
330
C
102
}
330
C
100
AcDbXrecord
280
     1
 90
        1
330
66C30
  0
DICTIONARY
  5
6DE
102
{ACAD_REACTORS
330
C
102
}
330
C
100
AcDbDictionary
281
     1
  3
CANNOSCALE
350
66CB7
  3
CMLEADERSTYLE
350
66CB6
  3
CTABLESTYLE
350
66CB5
  3
DIMASSOC
350
6DF
  3
INDEXCTL
350
66CB9
  3
LAYEREVAL
350
69E00
  3
LAYERNOTIFY
350
69E01
  3
LIGHTINGUNITS
350
69DFF
  3
MSLTSCALE
350
69DFE
  3
PROJECTNAME
350
6E0
  3
SORTENTS
350
66CB8
  0
XRECORD
  5
1CED7D
102
{ACAD_REACTORS
330
C
102
}
330
C
100
AcDbXrecord
280
     1
  1
DWGPROPS COOKIE
  2

  3

  4

  6

  7

  8
SPAX
  9

300
=
301
=
302
=
303
=
304
=
305
=
306
=
307
=
308
=
309
=
 40
60.44286850694444
 41
2448636.61962963
 42
2457378.621385104
  1

 90
        0
  0
DICTIONARY
  5
67DE8
102
{ACAD_REACTORS
330
67DE7
102
}
330
67DE7
100
AcDbDictionary
281
     1
  0
XRECORD
  5
66C5C
102
{ACAD_REACTORS
330
66C5B
102
}
330
66C5B
100
AcDbXrecord
280
     1
290
     1
  0
XRECORD
  5
66C68
102
{ACAD_REACTORS
330
66C67
102
}
330
66C67
100
AcDbXrecord
280
     1
290
     1
  0
SORTENTSTABLE
  5
845D6
102
{ACAD_REACTORS
330
845D5
102
}
330
845D5
100
AcDbSortentsTable
330
18
331
1C4347
  5
1C4359
331
1C4334
  5
1C4357
331
1C4333
  5
1C4355
331
1C438F
  5
1C4398
331
1C437F
  5
1C4388
331
1C438E
  5
1C4397
331
1C436F
  5
1C4378
331
1C437E
  5
1C4387
331
1C439D
  5
1C43AF
331
1C435F
  5
1C4368
331
1C4330
  5
1C4354
331
1C438D
  5
1C4396
331
1C436E
  5
1C4377
331
1C439C
  5
1C43AE
331
1C437D
  5
1C4386
331
1C435E
  5
1C4367
331
1C438C
  5
1C4395
331
1C436D
  5
1C4376
331
1C437C
  5
1C4385
331
1C439B
  5
1C43AD
331
1C435D
  5
1C4366
331
1C434D
  5
1C435E
331
1C438B
  5
1C4394
331
1C436C
  5
1C4375
331
1C437B
  5
1C4384
331
1C439A
  5
1C43AC
331
1C435C
  5
1C4365
331
1C434C
  5
1C435D
331
1C438A
  5
1C4393
331
1C436B
  5
1C4374
331
1C4399
  5
1C43AB
331
1C437A
  5
1C4383
331
1C435B
  5
1C4364
331
1C434B
  5
1C435C
331
1C4389
  5
1C4392
331
1C436A
  5
1C4373
331
1C4379
  5
1C4382
331
1C4398
  5
1C43AA
331
1C435A
  5
1C4363
331
1C434A
  5
1C435B
331
1C4388
  5
1C4391
331
1C4369
  5
1C4372
331
1C4397
  5
1C43A5
331
1C4378
  5
1C4381
331
1C4359
  5
1C4362
331
1C4349
  5
1C435A
331
1C4368
  5
1C4371
331
1C4387
  5
1C4390
331
1C4358
  5
1C4361
331
1C4377
  5
1C4380
331
1C4396
  5
1C43A4
331
1C43A5
  5
1C43B2
331
1C4367
  5
1C4370
331
1C4386
  5
1C438F
331
1C4338
  5
1C4358
331
1C4395
  5
1C43A1
331
1C4357
  5
1C4360
331
1C4376
  5
1C437F
331
1C4366
  5
1C436F
331
1C4385
  5
1C438E
331
1C43A4
  5
1C43B1
331
1C0DF9
  5
1C0E07
331
1C4375
  5
1C437E
331
1C4394
  5
1C439D
331
1C4365
  5
1C436E
331
1C4384
  5
1C438D
331
1C4355
  5
1C435F
331
1C4374
  5
1C437D
331
1C4393
  5
1C439C
331
1C4364
  5
1C436D
331
1C4383
  5
1C438C
331
1C4392
  5
1C439B
331
1C4373
  5
1C437C
331
1C4363
  5
1C436C
331
1C4382
  5
1C438B
331
1C43A1
  5
1C43B0
331
1C4372
  5
1C437B
331
1C4391
  5
1C439A
331
1C4362
  5
1C436B
331
1C4381
  5
1C438A
331
1C4371
  5
1C437A
331
1C4390
  5
1C4399
331
1C4361
  5
1C436A
331
1C4380
  5
1C4389
331
1C4370
  5
1C4379
331
1C3FD5
  5
1C3FDE
331
1C4360
  5
1C4369
331
11B04
  5
11B04
331
12B3E
  5
12B3E
  0
GROUP
  5
11444
102
{ACAD_REACTORS
330
D
102
}
330
D
100
AcDbGroup
300

 70
     1
 71
     1
  0
GROUP
  5
1AF90C
102
{ACAD_REACTORS
330
D
102
}
330
D
100
AcDbGroup
300

 70
     1
 71
     1
  0
GROUP
  5
1C673
102
{ACAD_REACTORS
330
D
102
}
330
D
100
AcDbGroup
300

 70
     1
 71
     1
  0
GROUP
  5
33CE0
102
{ACAD_REACTORS
330
D
102
}
330
D
100
AcDbGroup
300

 70
     1
 71
     1
  0
GROUP
  5
16971E
102
{ACAD_REACTORS
330
D
102
}
330
D
100
AcDbGroup
300

 70
     1
 71
     1
  0
GROUP
  5
DCD6D
102
{ACAD_REACTORS
330
D
102
}
330
D
100
AcDbGroup
300

 70
     1
 71
     1
  0
GROUP
  5
1A8180
102
{ACAD_REACTORS
330
D
102
}
330
D
100
AcDbGroup
300

 70
     1
 71
     1
  0
GROUP
  5
31E63
102
{ACAD_REACTORS
330
D
102
}
330
D
100
AcDbGroup
300

 70
     1
 71
     1
  0
GROUP
  5
120900
102
{ACAD_REACTORS
330
D
102
}
330
D
100
AcDbGroup
300

 70
     1
 71
     1
  0
GROUP
  5
3616A
102
{ACAD_REACTORS
330
D
102
}
330
D
100
AcDbGroup
300

 70
     1
 71
     1
  0
GROUP
  5
E3E76
102
{ACAD_REACTORS
330
D
102
}
330
D
100
AcDbGroup
300

 70
     1
 71
     1
  0
GROUP
  5
1CA57D
102
{ACAD_REACTORS
330
D
102
}
330
D
100
AcDbGroup
300

 70
     1
 71
     1
  0
GROUP
  5
1B0DED
102
{ACAD_REACTORS
330
D
102
}
330
D
100
AcDbGroup
300

 70
     1
 71
     1
  0
GROUP
  5
33672
102
{ACAD_REACTORS
330
D
102
}
330
D
100
AcDbGroup
300

 70
     1
 71
     1
  0
GROUP
  5
16CAD
102
{ACAD_REACTORS
330
D
102
}
330
D
100
AcDbGroup
300

 70
     1
 71
     1
  0
GROUP
  5
1928F
102
{ACAD_REACTORS
330
D
102
}
330
D
100
AcDbGroup
300

 70
     1
 71
     1
  0
GROUP
  5
3AC3F
102
{ACAD_REACTORS
330
D
102
}
330
D
100
AcDbGroup
300

 70
     1
 71
     1
  0
GROUP
  5
10639A
102
{ACAD_REACTORS
330
D
102
}
330
D
100
AcDbGroup
300

 70
     1
 71
     1
  0
GROUP
  5
E60AA
102
{ACAD_REACTORS
330
D
102
}
330
D
100
AcDbGroup
300

 70
     1
 71
     1
  0
GROUP
  5
31E64
102
{ACAD_REACTORS
330
D
102
}
330
D
100
AcDbGroup
300

 70
     1
 71
     1
  0
GROUP
  5
1AAD7C
102
{ACAD_REACTORS
330
D
102
}
330
D
100
AcDbGroup
300

 70
     1
 71
     1
  0
GROUP
  5
1AC8BF
102
{ACAD_REACTORS
330
D
102
}
330
D
100
AcDbGroup
300

 70
     1
 71
     1
  0
GROUP
  5
E83F5
102
{ACAD_REACTORS
330
D
102
}
330
D
100
AcDbGroup
300

 70
     1
 71
     1
  0
GROUP
  5
1ACF7
102
{ACAD_REACTORS
330
D
102
}
330
D
100
AcDbGroup
300

 70
     1
 71
     1
  0
GROUP
  5
D1E17
102
{ACAD_REACTORS
330
D
102
}
330
D
100
AcDbGroup
300

 70
     1
 71
     1
  0
GROUP
  5
EB499
102
{ACAD_REACTORS
330
D
102
}
330
D
100
AcDbGroup
300

 70
     1
 71
     1
  0
GROUP
  5
3AC40
102
{ACAD_REACTORS
330
D
102
}
330
D
100
AcDbGroup
300

 70
     1
 71
     1
  0
GROUP
  5
1AD39E
102
{ACAD_REACTORS
330
D
102
}
330
D
100
AcDbGroup
300

 70
     1
 71
     1
  0
GROUP
  5
DCD6E
102
{ACAD_REACTORS
330
D
102
}
330
D
100
AcDbGroup
300

 70
     1
 71
     1
  0
GROUP
  5
100CC9
102
{ACAD_REACTORS
330
D
102
}
330
D
100
AcDbGroup
300

 70
     1
 71
     1
  0
GROUP
  5
3FCA9
102
{ACAD_REACTORS
330
D
102
}
330
D
100
AcDbGroup
300

 70
     1
 71
     1
  0
GROUP
  5
DFCC4
102
{ACAD_REACTORS
330
D
102
}
330
D
100
AcDbGroup
300

 70
     1
 71
     1
  0
GROUP
  5
1CBABF
102
{ACAD_REACTORS
330
D
102
}
330
D
100
AcDbGroup
300

 70
     1
 71
     1
  0
GROUP
  5
CCD2F
102
{ACAD_REACTORS
330
D
102
}
330
D
100
AcDbGroup
300

 70
     1
 71
     1
  0
GROUP
  5
1AEAF8
102
{ACAD_REACTORS
330
D
102
}
330
D
100
AcDbGroup
300

 70
     1
 71
     1
  0
GROUP
  5
F7F9E
102
{ACAD_REACTORS
330
D
102
}
330
D
100
AcDbGroup
300

 70
     1
 71
     1
  0
GROUP
  5
1C672
102
{ACAD_REACTORS
330
D
102
}
330
D
100
AcDbGroup
300

 70
     1
 71
     1
  0
GROUP
  5
26F38
102
{ACAD_REACTORS
330
D
102
}
330
D
100
AcDbGroup
300

 70
     1
 71
     1
  0
GROUP
  5
352E7
102
{ACAD_REACTORS
330
D
102
}
330
D
100
AcDbGroup
300

 70
     1
 71
     1
  0
GROUP
  5
1CA57C
102
{ACAD_REACTORS
330
D
102
}
330
D
100
AcDbGroup
300

 70
     1
 71
     1
  0
GROUP
  5
3543B
102
{ACAD_REACTORS
330
D
102
}
330
D
100
AcDbGroup
300

 70
     1
 71
     1
  0
GROUP
  5
3610C
102
{ACAD_REACTORS
330
D
102
}
330
D
100
AcDbGroup
300

 70
     1
 71
     1
  0
GROUP
  5
EBAAA
102
{ACAD_REACTORS
330
D
102
}
330
D
100
AcDbGroup
300

 70
     1
 71
     1
  0
GROUP
  5
1B20A2
102
{ACAD_REACTORS
330
D
102
}
330
D
100
AcDbGroup
300

 70
     1
 71
     1
  0
GROUP
  5
CF3F2
102
{ACAD_REACTORS
330
D
102
}
330
D
100
AcDbGroup
300

 70
     1
 71
     1
  0
GROUP
  5
336CA
102
{ACAD_REACTORS
330
D
102
}
330
D
100
AcDbGroup
300

 70
     1
 71
     1
  0
GROUP
  5
1B301F
102
{ACAD_REACTORS
330
D
102
}
330
D
100
AcDbGroup
300

 70
     1
 71
     1
  0
GROUP
  5
18CA7
102
{ACAD_REACTORS
330
D
102
}
330
D
100
AcDbGroup
300

 70
     1
 71
     1
  0
GROUP
  5
18076
102
{ACAD_REACTORS
330
D
102
}
330
D
100
AcDbGroup
300

 70
     1
 71
     1
  0
GROUP
  5
31E65
102
{ACAD_REACTORS
330
D
102
}
330
D
100
AcDbGroup
300

 70
     1
 71
     1
  0
GROUP
  5
26F39
102
{ACAD_REACTORS
330
D
102
}
330
D
100
AcDbGroup
300

 70
     1
 71
     1
  0
GROUP
  5
31E62
102
{ACAD_REACTORS
330
D
102
}
330
D
100
AcDbGroup
300

 70
     1
 71
     1
  0
GROUP
  5
1B537F
102
{ACAD_REACTORS
330
D
102
}
330
D
100
AcDbGroup
300

 70
     1
 71
     1
  0
GROUP
  5
D1362
102
{ACAD_REACTORS
330
D
102
}
330
D
100
AcDbGroup
300

 70
     1
 71
     1
  0
GROUP
  5
26F37
102
{ACAD_REACTORS
330
D
102
}
330
D
100
AcDbGroup
300

 70
     1
 71
     1
  0
GROUP
  5
1A649E
102
{ACAD_REACTORS
330
D
102
}
330
D
100
AcDbGroup
300

 70
     1
 71
     1
  0
GROUP
  5
1A7EA7
102
{ACAD_REACTORS
330
D
102
}
330
D
100
AcDbGroup
300

 70
     1
 71
     1
  0
GROUP
  5
10FF7C
102
{ACAD_REACTORS
330
D
102
}
330
D
100
AcDbGroup
300

 70
     1
 71
     1
  0
GROUP
  5
1B5D10
102
{ACAD_REACTORS
330
D
102
}
330
D
100
AcDbGroup
300

 70
     1
 71
     1
  0
GROUP
  5
26F3A
102
{ACAD_REACTORS
330
D
102
}
330
D
100
AcDbGroup
300

 70
     1
 71
     1
  0
GROUP
  5
CC1E6
102
{ACAD_REACTORS
330
D
102
}
330
D
100
AcDbGroup
300

 70
     1
 71
     1
  0
GROUP
  5
33994
102
{ACAD_REACTORS
330
D
102
}
330
D
100
AcDbGroup
300

 70
     1
 71
     1
  0
GROUP
  5
3393C
102
{ACAD_REACTORS
330
D
102
}
330
D
100
AcDbGroup
300

 70
     1
 71
     1
  0
GROUP
  5
EE85E
102
{ACAD_REACTORS
330
D
102
}
330
D
100
AcDbGroup
300

 70
     1
 71
     1
  0
GROUP
  5
1AC846
102
{ACAD_REACTORS
330
D
102
}
330
D
100
AcDbGroup
300

 70
     1
 71
     1
  0
GROUP
  5
1ACF6
102
{ACAD_REACTORS
330
D
102
}
330
D
100
AcDbGroup
300

 70
     1
 71
     1
  0
GROUP
  5
3AC3E
102
{ACAD_REACTORS
330
D
102
}
330
D
100
AcDbGroup
300

 70
     1
 71
     1
  0
GROUP
  5
3FCA8
102
{ACAD_REACTORS
330
D
102
}
330
D
100
AcDbGroup
300

 70
     1
 71
     1
  0
GROUP
  5
169CA2
102
{ACAD_REACTORS
330
D
102
}
330
D
100
AcDbGroup
300

 70
     1
 71
     1
  0
GROUP
  5
1AD795
102
{ACAD_REACTORS
330
D
102
}
330
D
100
AcDbGroup
300

 70
     1
 71
     1
  0
GROUP
  5
EE28F
102
{ACAD_REACTORS
330
D
102
}
330
D
100
AcDbGroup
300

 70
     1
 71
     1
  0
GROUP
  5
16CDD
102
{ACAD_REACTORS
330
D
102
}
330
D
100
AcDbGroup
300

 70
     1
 71
     1
  0
GROUP
  5
3BCF2
102
{ACAD_REACTORS
330
D
102
}
330
D
100
AcDbGroup
300

 70
     1
 71
     1
  0
GROUP
  5
1AF9C8
102
{ACAD_REACTORS
330
D
102
}
330
D
100
AcDbGroup
300

 70
     1
 71
     1
  0
GROUP
  5
3AC3D
102
{ACAD_REACTORS
330
D
102
}
330
D
100
AcDbGroup
300

 70
     1
 71
     1
  0
LAYOUT
  5
619
102
{ACAD_XDICTIONARY
360
1CED7E
102
}
102
{ACAD_REACTORS
330
617
102
}
330
617
100
AcDbPlotSettings
  1

  2
JUST PDF 3
  4
A4
  6

 40
3.174999952316284
 41
3.174999952316284
 42
3.175003051757812
 43
3.17498779296875
 44
209.8886566162109
 45
297.0530090332031
 46
14.27171755861563
 47
9.855173074625582
 48
7751.065943437312
 49
-7470.740583858844
140
8626.04203591184
141
-6115.777208165511
142
1.0
143
5.0
 70
  3748
 72
     1
 73
     0
 74
     4
  7
spax form.ctb
 75
     0
147
1.312093568245777
148
-7751.065943437312
149
7470.740583858844
100
AcDbLayout
  1
Model
 70
     1
 71
     0
 10
0.0
 20
0.0
 11
12.0
 21
9.0
 12
0.0
 22
0.0
 32
0.0
 14
0.0
 24
0.0
 34
0.0
 15
0.0
 25
0.0
 35
0.0
146
0.0
 13
0.0
 23
0.0
 33
0.0
 16
1.0
 26
0.0
 36
0.0
 17
0.0
 27
1.0
 37
0.0
 76
     0
330
18
331
163677
1001
ACAD_PSEXT
1000
JUST PDF 3
1000
JUST PDF 3
1000
JUST PDF 3 Port:
1000

1070
     0
  0
LAYOUT
  5
61A
102
{ACAD_XDICTIONARY
360
1CED80
102
}
102
{ACAD_REACTORS
330
617
102
}
330
617
100
AcDbPlotSettings
  1

  2
Canon LASER SHOT LBP-750
  4

  6

 40
0.0
 41
0.0
 42
0.0
 43
0.0
 44
0.0
 45
0.0
 46
0.0
 47
0.0
 48
0.0
 49
0.0
140
0.0
141
0.0
142
1.0
143
1.0
 70
   688
 72
     0
 73
     0
 74
     5
  7
monochrome.ctb
 75
    16
147
1.0
148
0.0
149
0.0
100
AcDbLayout
  1
ﾚｲｱｳﾄ1
 70
     0
 71
     1
 10
0.0
 20
0.0
 11
12.0
 21
9.0
 12
0.0
 22
0.0
 32
0.0
 14
1.000000000000000E+20
 24
1.000000000000000E+20
 34
1.000000000000000E+20
 15
-1.000000000000000E+20
 25
-1.000000000000000E+20
 35
-1.000000000000000E+20
146
0.0
 13
0.0
 23
0.0
 33
0.0
 16
1.0
 26
0.0
 36
0.0
 17
0.0
 27
1.0
 37
0.0
 76
     0
330
15
  0
MATERIAL
  5
66C0E
102
{ACAD_XDICTIONARY
360
66C0F
102
}
102
{ACAD_REACTORS
330
6CF
102
}
330
6CF
100
AcDbMaterial
  1
ByBlock
 72
     0
 43
0.0208333333333333
 43
0.0
 43
0.0
 43
0.0
 43
0.0
 43
0.0208333333333333
 43
0.0
 43
0.0
 43
0.0
 43
0.0
 43
1.0
 43
0.0
 43
0.0
 43
0.0
 43
0.0
 43
1.0
 77
     0
 47
0.0208333333333333
 47
0.0
 47
0.0
 47
0.0
 47
0.0
 47
0.0208333333333333
 47
0.0
 47
0.0
 47
0.0
 47
0.0
 47
1.0
 47
0.0
 47
0.0
 47
0.0
 47
0.0
 47
1.0
171
     0
 49
0.0208333333333333
 49
0.0
 49
0.0
 49
0.0
 49
0.0
 49
0.0208333333333333
 49
0.0
 49
0.0
 49
0.0
 49
0.0
 49
1.0
 49
0.0
 49
0.0
 49
0.0
 49
0.0
 49
1.0
175
     0
142
0.0208333333333333
142
0.0
142
0.0
142
0.0
142
0.0
142
0.0208333333333333
142
0.0
142
0.0
142
0.0
142
0.0
142
1.0
142
0.0
142
0.0
142
0.0
142
0.0
142
1.0
179
     0
144
0.0208333333333333
144
0.0
144
0.0
144
0.0
144
0.0
144
0.0208333333333333
144
0.0
144
0.0
144
0.0
144
0.0
144
1.0
144
0.0
144
0.0
144
0.0
144
0.0
144
1.0
147
0.0208333333333333
147
0.0
147
0.0
147
0.0
147
0.0
147
0.0208333333333333
147
0.0
147
0.0
147
0.0
147
0.0
147
1.0
147
0.0
147
0.0
147
0.0
147
0.0
147
1.0
  0
MATERIAL
  5
66C06
102
{ACAD_XDICTIONARY
360
66C07
102
}
102
{ACAD_REACTORS
330
6CF
102
}
330
6CF
100
AcDbMaterial
  1
ByLayer
 72
     0
 43
0.0208333333333333
 43
0.0
 43
0.0
 43
0.0
 43
0.0
 43
0.0208333333333333
 43
0.0
 43
0.0
 43
0.0
 43
0.0
 43
1.0
 43
0.0
 43
0.0
 43
0.0
 43
0.0
 43
1.0
 77
     0
 47
0.0208333333333333
 47
0.0
 47
0.0
 47
0.0
 47
0.0
 47
0.0208333333333333
 47
0.0
 47
0.0
 47
0.0
 47
0.0
 47
1.0
 47
0.0
 47
0.0
 47
0.0
 47
0.0
 47
1.0
171
     0
 49
0.0208333333333333
 49
0.0
 49
0.0
 49
0.0
 49
0.0
 49
0.0208333333333333
 49
0.0
 49
0.0
 49
0.0
 49
0.0
 49
1.0
 49
0.0
 49
0.0
 49
0.0
 49
0.0
 49
1.0
175
     0
142
0.0208333333333333
142
0.0
142
0.0
142
0.0
142
0.0
142
0.0208333333333333
142
0.0
142
0.0
142
0.0
142
0.0
142
1.0
142
0.0
142
0.0
142
0.0
142
0.0
142
1.0
179
     0
144
0.0208333333333333
144
0.0
144
0.0
144
0.0
144
0.0
144
0.0208333333333333
144
0.0
144
0.0
144
0.0
144
0.0
144
1.0
144
0.0
144
0.0
144
0.0
144
0.0
144
1.0
147
0.0208333333333333
147
0.0
147
0.0
147
0.0
147
0.0
147
0.0208333333333333
147
0.0
147
0.0
147
0.0
147
0.0
147
1.0
147
0.0
147
0.0
147
0.0
147
0.0
147
1.0
  0
MATERIAL
  5
66C16
102
{ACAD_XDICTIONARY
360
66C17
102
}
102
{ACAD_REACTORS
330
6CF
102
}
330
6CF
100
AcDbMaterial
  1
Global
 72
     0
 43
0.0208333333333333
 43
0.0
 43
0.0
 43
0.0
 43
0.0
 43
0.0208333333333333
 43
0.0
 43
0.0
 43
0.0
 43
0.0
 43
1.0
 43
0.0
 43
0.0
 43
0.0
 43
0.0
 43
1.0
 77
     0
 47
0.0208333333333333
 47
0.0
 47
0.0
 47
0.0
 47
0.0
 47
0.0208333333333333
 47
0.0
 47
0.0
 47
0.0
 47
0.0
 47
1.0
 47
0.0
 47
0.0
 47
0.0
 47
0.0
 47
1.0
171
     0
 49
0.0208333333333333
 49
0.0
 49
0.0
 49
0.0
 49
0.0
 49
0.0208333333333333
 49
0.0
 49
0.0
 49
0.0
 49
0.0
 49
1.0
 49
0.0
 49
0.0
 49
0.0
 49
0.0
 49
1.0
175
     0
142
0.0208333333333333
142
0.0
142
0.0
142
0.0
142
0.0
142
0.0208333333333333
142
0.0
142
0.0
142
0.0
142
0.0
142
1.0
142
0.0
142
0.0
142
0.0
142
0.0
142
1.0
179
     0
144
0.0208333333333333
144
0.0
144
0.0
144
0.0
144
0.0
144
0.0208333333333333
144
0.0
144
0.0
144
0.0
144
0.0
144
1.0
144
0.0
144
0.0
144
0.0
144
0.0
144
1.0
147
0.0208333333333333
147
0.0
147
0.0
147
0.0
147
0.0
147
0.0208333333333333
147
0.0
147
0.0
147
0.0
147
0.0
147
1.0
147
0.0
147
0.0
147
0.0
147
0.0
147
1.0
  0
MLEADERSTYLE
  5
66C54
102
{ACAD_REACTORS
330
66C53
102
}
330
66C53
100
AcDbMLeaderStyle
170
     2
171
     1
172
     0
 90
        2
 40
0.0
 41
0.0
173
     1
 91
-1056964608
340
12
 92
       -2
290
     1
 42
0.09
291
     1
 43
0.36
  3
Standard
 44
0.18
300

342
10
174
     1
178
     6
175
     1
176
     0
 93
-1056964608
 45
0.18
292
     0
297
     0
 46
0.18
 94
-1056964608
 47
1.0
 49
1.0
140
1.0
293
     1
141
0.0
294
     1
177
     0
142
1.0
295
     0
296
     0
143
0.125
1001
ACAD
1000
AcRTDxfName
1000
MLEADERSTYLE
1001
ACAD_MLEADERVER
1070
     2
  0
MLINESTYLE
  5
1B
102
{ACAD_REACTORS
330
E
102
}
330
E
100
AcDbMlineStyle
  2
STANDARD
 70
     0
  3

 62
     0
 51
90.0
 52
90.0
 71
     2
 49
0.5
 62
   256
  6
BYLAYER
 49
-0.5
 62
   256
  6
BYLAYER
  0
ACDBPLACEHOLDER
  5
616
102
{ACAD_REACTORS
330
615
102
}
330
615
  0
SCALE
  5
66C32
102
{ACAD_REACTORS
330
66C31
102
}
330
66C31
100
AcDbScale
 70
     0
300
1:1
140
1.0
141
1.0
290
     1
1001
ACAD
1000
AcRTDxfName
1000
SCALE
  0
SCALE
  5
66C33
102
{ACAD_REACTORS
330
66C31
102
}
330
66C31
100
AcDbScale
 70
     0
300
1:2
140
1.0
141
2.0
290
     0
1001
ACAD
1000
AcRTDxfName
1000
SCALE
  0
SCALE
  5
66C34
102
{ACAD_REACTORS
330
66C31
102
}
330
66C31
100
AcDbScale
 70
     0
300
1:4
140
1.0
141
4.0
290
     0
1001
ACAD
1000
AcRTDxfName
1000
SCALE
  0
SCALE
  5
66C35
102
{ACAD_REACTORS
330
66C31
102
}
330
66C31
100
AcDbScale
 70
     0
300
1:5
140
1.0
141
5.0
290
     0
1001
ACAD
1000
AcRTDxfName
1000
SCALE
  0
SCALE
  5
66C36
102
{ACAD_REACTORS
330
66C31
102
}
330
66C31
100
AcDbScale
 70
     0
300
1:8
140
1.0
141
8.0
290
     0
1001
ACAD
1000
AcRTDxfName
1000
SCALE
  0
SCALE
  5
66C37
102
{ACAD_REACTORS
330
66C31
102
}
330
66C31
100
AcDbScale
 70
     0
300
1:10
140
1.0
141
10.0
290
     0
1001
ACAD
1000
AcRTDxfName
1000
SCALE
  0
SCALE
  5
66C38
102
{ACAD_REACTORS
330
66C31
102
}
330
66C31
100
AcDbScale
 70
     0
300
1:16
140
1.0
141
16.0
290
     0
1001
ACAD
1000
AcRTDxfName
1000
SCALE
  0
SCALE
  5
66C39
102
{ACAD_REACTORS
330
66C31
102
}
330
66C31
100
AcDbScale
 70
     0
300
1:20
140
1.0
141
20.0
290
     0
1001
ACAD
1000
AcRTDxfName
1000
SCALE
  0
SCALE
  5
66C3A
102
{ACAD_REACTORS
330
66C31
102
}
330
66C31
100
AcDbScale
 70
     0
300
1:30
140
1.0
141
30.0
290
     0
1001
ACAD
1000
AcRTDxfName
1000
SCALE
  0
SCALE
  5
66C3B
102
{ACAD_REACTORS
330
66C31
102
}
330
66C31
100
AcDbScale
 70
     0
300
1:40
140
1.0
141
40.0
290
     0
1001
ACAD
1000
AcRTDxfName
1000
SCALE
  0
SCALE
  5
66C3C
102
{ACAD_REACTORS
330
66C31
102
}
330
66C31
100
AcDbScale
 70
     0
300
1:50
140
1.0
141
50.0
290
     0
1001
ACAD
1000
AcRTDxfName
1000
SCALE
  0
SCALE
  5
66C3D
102
{ACAD_REACTORS
330
66C31
102
}
330
66C31
100
AcDbScale
 70
     0
300
1:100
140
1.0
141
100.0
290
     0
1001
ACAD
1000
AcRTDxfName
1000
SCALE
  0
SCALE
  5
66C3E
102
{ACAD_REACTORS
330
66C31
102
}
330
66C31
100
AcDbScale
 70
     0
300
2:1
140
2.0
141
1.0
290
     0
1001
ACAD
1000
AcRTDxfName
1000
SCALE
  0
SCALE
  5
66C3F
102
{ACAD_REACTORS
330
66C31
102
}
330
66C31
100
AcDbScale
 70
     0
300
4:1
140
4.0
141
1.0
290
     0
1001
ACAD
1000
AcRTDxfName
1000
SCALE
  0
SCALE
  5
66C40
102
{ACAD_REACTORS
330
66C31
102
}
330
66C31
100
AcDbScale
 70
     0
300
8:1
140
8.0
141
1.0
290
     0
1001
ACAD
1000
AcRTDxfName
1000
SCALE
  0
SCALE
  5
66C41
102
{ACAD_REACTORS
330
66C31
102
}
330
66C31
100
AcDbScale
 70
     0
300
10:1
140
10.0
141
1.0
290
     0
1001
ACAD
1000
AcRTDxfName
1000
SCALE
  0
SCALE
  5
66C42
102
{ACAD_REACTORS
330
66C31
102
}
330
66C31
100
AcDbScale
 70
     0
300
100:1
140
100.0
141
1.0
290
     0
1001
ACAD
1000
AcRTDxfName
1000
SCALE
  0
SCALE
  5
66C43
102
{ACAD_REACTORS
330
66C31
102
}
330
66C31
100
AcDbScale
 70
     0
300
1/128" = 1'-0"
140
0.0078125
141
12.0
290
     0
1001
ACAD
1000
AcRTDxfName
1000
SCALE
  0
SCALE
  5
66C44
102
{ACAD_REACTORS
330
66C31
102
}
330
66C31
100
AcDbScale
 70
     0
300
1/64" = 1'-0"
140
0.015625
141
12.0
290
     0
1001
ACAD
1000
AcRTDxfName
1000
SCALE
  0
SCALE
  5
66C45
102
{ACAD_REACTORS
330
66C31
102
}
330
66C31
100
AcDbScale
 70
     0
300
1/32" = 1'-0"
140
0.03125
141
12.0
290
     0
1001
ACAD
1000
AcRTDxfName
1000
SCALE
  0
SCALE
  5
66C46
102
{ACAD_REACTORS
330
66C31
102
}
330
66C31
100
AcDbScale
 70
     0
300
1/16" = 1'-0"
140
0.0625
141
12.0
290
     0
1001
ACAD
1000
AcRTDxfName
1000
SCALE
  0
SCALE
  5
66C47
102
{ACAD_REACTORS
330
66C31
102
}
330
66C31
100
AcDbScale
 70
     0
300
3/32" = 1'-0"
140
0.09375
141
12.0
290
     0
1001
ACAD
1000
AcRTDxfName
1000
SCALE
  0
SCALE
  5
66C48
102
{ACAD_REACTORS
330
66C31
102
}
330
66C31
100
AcDbScale
 70
     0
300
1/8" = 1'-0"
140
0.125
141
12.0
290
     0
1001
ACAD
1000
AcRTDxfName
1000
SCALE
  0
SCALE
  5
66C49
102
{ACAD_REACTORS
330
66C31
102
}
330
66C31
100
AcDbScale
 70
     0
300
3/16" = 1'-0"
140
0.1875
141
12.0
290
     0
1001
ACAD
1000
AcRTDxfName
1000
SCALE
  0
SCALE
  5
66C4A
102
{ACAD_REACTORS
330
66C31
102
}
330
66C31
100
AcDbScale
 70
     0
300
1/4" = 1'-0"
140
0.25
141
12.0
290
     0
1001
ACAD
1000
AcRTDxfName
1000
SCALE
  0
SCALE
  5
66C4B
102
{ACAD_REACTORS
330
66C31
102
}
330
66C31
100
AcDbScale
 70
     0
300
3/8" = 1'-0"
140
0.375
141
12.0
290
     0
1001
ACAD
1000
AcRTDxfName
1000
SCALE
  0
SCALE
  5
66C4C
102
{ACAD_REACTORS
330
66C31
102
}
330
66C31
100
AcDbScale
 70
     0
300
1/2" = 1'-0"
140
0.5
141
12.0
290
     0
1001
ACAD
1000
AcRTDxfName
1000
SCALE
  0
SCALE
  5
66C4D
102
{ACAD_REACTORS
330
66C31
102
}
330
66C31
100
AcDbScale
 70
     0
300
3/4" = 1'-0"
140
0.75
141
12.0
290
     0
1001
ACAD
1000
AcRTDxfName
1000
SCALE
  0
SCALE
  5
66C4E
102
{ACAD_REACTORS
330
66C31
102
}
330
66C31
100
AcDbScale
 70
     0
300
1" = 1'-0"
140
1.0
141
12.0
290
     0
1001
ACAD
1000
AcRTDxfName
1000
SCALE
  0
SCALE
  5
66C4F
102
{ACAD_REACTORS
330
66C31
102
}
330
66C31
100
AcDbScale
 70
     0
300
1-1/2" = 1'-0"
140
1.5
141
12.0
290
     0
1001
ACAD
1000
AcRTDxfName
1000
SCALE
  0
SCALE
  5
66C50
102
{ACAD_REACTORS
330
66C31
102
}
330
66C31
100
AcDbScale
 70
     0
300
3" = 1'-0"
140
3.0
141
12.0
290
     0
1001
ACAD
1000
AcRTDxfName
1000
SCALE
  0
SCALE
  5
66C51
102
{ACAD_REACTORS
330
66C31
102
}
330
66C31
100
AcDbScale
 70
     0
300
6" = 1'-0"
140
6.0
141
12.0
290
     0
1001
ACAD
1000
AcRTDxfName
1000
SCALE
  0
SCALE
  5
66C52
102
{ACAD_REACTORS
330
66C31
102
}
330
66C31
100
AcDbScale
 70
     0
300
1'-0" = 1'-0"
140
12.0
141
12.0
290
     0
1001
ACAD
1000
AcRTDxfName
1000
SCALE
  0
TABLESTYLE
  5
66C30
102
{ACAD_XDICTIONARY
360
66C8F
102
}
102
{ACAD_REACTORS
330
66C2F
102
}
330
66C2F
100
AcDbTableStyle
  3
Standard
 70
     0
 71
     0
 40
0.06
 41
0.06
280
     0
281
     0
  7
STANDARD
140
0.18
170
     2
 62
     0
 63
     7
283
     0
274
    -2
284
     1
 64
     0
275
    -2
285
     1
 65
     0
276
    -2
286
     1
 66
     0
277
    -2
287
     1
 67
     0
278
    -2
288
     1
 68
     0
279
    -2
289
     1
 69
     0
  7
STANDARD
140
0.25
170
     5
 62
     0
 63
     7
283
     0
274
    -2
284
     1
 64
     0
275
    -2
285
     1
 65
     0
276
    -2
286
     1
 66
     0
277
    -2
287
     1
 67
     0
278
    -2
288
     1
 68
     0
279
    -2
289
     1
 69
     0
  7
STANDARD
140
0.18
170
     5
 62
     0
 63
     7
283
     0
274
    -2
284
     1
 64
     0
275
    -2
285
     1
 65
     0
276
    -2
286
     1
 66
     0
277
    -2
287
     1
 67
     0
278
    -2
288
     1
 68
     0
279
    -2
289
     1
 69
     0
1001
ACAD
1000
AcRTDxfName
1000
TABLESTYLE
  0
VISUALSTYLE
  5
66C24
102
{ACAD_REACTORS
330
66C1E
102
}
330
66C1E
100
AcDbVisualStyle
  2
2dWireframe
 70
     4
 71
     0
 72
     2
 73
     0
 90
        0
 40
-0.6
 41
-30.0
 62
     5
 63
     7
 74
     1
 91
        4
 64
     7
 65
   257
 75
     1
175
     1
 42
1.0
 92
        0
 66
   257
 43
1.0
 76
     1
 77
     6
 78
     2
 67
     7
 79
     5
170
     0
171
     0
290
     0
174
     0
 93
        1
 44
0.0
173
     0
291
     0
 45
0.0
1001
ACAD
1000
AcRTDxfName
1000
VISUALSTYLE
1000
AcDbSavedByObjectVersion
1070
     0
  0
VISUALSTYLE
  5
66C26
102
{ACAD_REACTORS
330
66C1E
102
}
330
66C1E
100
AcDbVisualStyle
  2
3D Hidden
 70
     6
 71
     1
 72
     2
 73
     2
 90
        0
 40
-0.6
 41
-30.0
 62
     5
 63
     7
 74
     2
 91
        2
 64
     7
 65
   257
 75
     2
175
     1
 42
40.0
 92
        0
 66
   257
 43
1.0
 76
     1
 77
     6
 78
     2
 67
     7
 79
     3
170
     0
171
     0
290
     0
174
     0
 93
        1
 44
0.0
173
     0
291
     0
 45
0.0
1001
ACAD
1000
AcRTDxfName
1000
VISUALSTYLE
1000
AcDbSavedByObjectVersion
1070
     0
  0
VISUALSTYLE
  5
66C25
102
{ACAD_REACTORS
330
66C1E
102
}
330
66C1E
100
AcDbVisualStyle
  2
3dWireframe
 70
     5
 71
     0
 72
     2
 73
     0
 90
        0
 40
-0.6
 41
-30.0
 62
     5
 63
     7
 74
     1
 91
        4
 64
     7
 65
   257
 75
     1
175
     1
 42
1.0
 92
        0
 66
   257
 43
1.0
 76
     1
 77
     6
 78
     2
 67
     7
 79
     5
170
     0
171
     0
290
     0
174
     0
 93
        1
 44
0.0
173
     0
291
     0
 45
0.0
1001
ACAD
1000
AcRTDxfName
1000
VISUALSTYLE
1000
AcDbSavedByObjectVersion
1070
     0
  0
VISUALSTYLE
  5
66C23
102
{ACAD_REACTORS
330
66C1E
102
}
330
66C1E
100
AcDbVisualStyle
  2
Basic
 70
     7
 71
     1
 72
     0
 73
     1
 90
        0
 40
-0.6
 41
-30.0
 62
     5
 63
     7
 74
     0
 91
        4
 64
     7
 65
   257
 75
     1
175
     1
 42
1.0
 92
        8
 66
     7
 43
1.0
 76
     1
 77
     6
 78
     2
 67
     7
 79
     5
170
     0
171
     0
290
     0
174
     0
 93
        1
 44
0.0
173
     0
291
     1
 45
0.0
1001
ACAD
1000
AcRTDxfName
1000
VISUALSTYLE
1000
AcDbSavedByObjectVersion
1070
     0
  0
VISUALSTYLE
  5
66C2A
102
{ACAD_REACTORS
330
66C1E
102
}
330
66C1E
100
AcDbVisualStyle
  2
Brighten
 70
    12
 71
     2
 72
     2
 73
     0
 90
        0
 40
-0.6
 41
-30.0
 62
     5
 63
     7
 74
     1
 91
        4
 64
     7
 65
   257
 75
     1
175
     1
 42
1.0
 92
        8
 66
     7
 43
1.0
 76
     1
 77
     6
 78
     2
 67
     7
 79
     5
170
     0
171
     0
290
     0
174
     0
 93
        1
 44
50.0
173
     0
291
     1
 45
0.0
1001
ACAD
1000
AcRTDxfName
1000
VISUALSTYLE
1000
AcDbSavedByObjectVersion
1070
     0
  0
VISUALSTYLE
  5
66C2E
102
{ACAD_REACTORS
330
66C1E
102
}
330
66C1E
100
AcDbVisualStyle
  2
ColorChange
 70
    16
 71
     2
 72
     2
 73
     3
 90
        0
 40
-0.6
 41
-30.0
 62
     5
 63
     8
 74
     1
 91
        4
 64
     7
 65
   257
 75
     1
175
     1
 42
1.0
 92
        8
 66
     8
 43
1.0
 76
     1
 77
     6
 78
     2
 67
     7
 79
     5
170
     0
171
     0
290
     0
174
     0
 93
        1
 44
0.0
173
     0
291
     1
 45
0.0
1001
ACAD
1000
AcRTDxfName
1000
VISUALSTYLE
1000
AcDbSavedByObjectVersion
1070
     0
  0
VISUALSTYLE
  5
66C27
102
{ACAD_REACTORS
330
66C1E
102
}
330
66C1E
100
AcDbVisualStyle
  2
Conceptual
 70
     9
 71
     3
 72
     2
 73
     0
 90
        0
 40
-0.6
 41
-30.0
 62
     5
 63
     7
 74
     2
 91
        2
 64
     7
 65
   257
 75
     1
175
     1
 42
40.0
 92
        8
 66
     7
 43
1.0
 76
     1
 77
     6
 78
     2
 67
     7
 79
     3
170
     0
171
     0
290
     0
174
     0
 93
        1
 44
0.0
173
     0
291
     0
 45
0.0
1001
ACAD
1000
AcRTDxfName
1000
VISUALSTYLE
1000
AcDbSavedByObjectVersion
1070
     0
  0
VISUALSTYLE
  5
66C29
102
{ACAD_REACTORS
330
66C1E
102
}
330
66C1E
100
AcDbVisualStyle
  2
Dim
 70
    11
 71
     2
 72
     2
 73
     0
 90
        0
 40
-0.6
 41
-30.0
 62
     5
 63
     7
 74
     1
 91
        4
 64
     7
 65
   257
 75
     1
175
     1
 42
1.0
 92
        8
 66
     7
 43
1.0
 76
     1
 77
     6
 78
     2
 67
     7
 79
     5
170
     0
171
     0
290
     0
174
     0
 93
        1
 44
-50.0
173
     0
291
     1
 45
0.0
1001
ACAD
1000
AcRTDxfName
1000
VISUALSTYLE
1000
AcDbSavedByObjectVersion
1070
     0
  0
VISUALSTYLE
  5
66C2D
102
{ACAD_REACTORS
330
66C1E
102
}
330
66C1E
100
AcDbVisualStyle
  2
Facepattern
 70
    15
 71
     2
 72
     2
 73
     0
 90
        0
 40
-0.6
 41
-30.0
 62
     5
 63
     7
 74
     1
 91
        4
 64
     7
 65
   257
 75
     1
175
     1
 42
1.0
 92
        8
 66
     7
 43
1.0
 76
     1
 77
     6
 78
     2
 67
     7
 79
     5
170
     0
171
     0
290
     0
174
     0
 93
        1
 44
0.0
173
     0
291
     1
 45
0.0
1001
ACAD
1000
AcRTDxfName
1000
VISUALSTYLE
1000
AcDbSavedByObjectVersion
1070
     0
  0
VISUALSTYLE
  5
66C1F
102
{ACAD_REACTORS
330
66C1E
102
}
330
66C1E
100
AcDbVisualStyle
  2
Flat
 70
     0
 71
     2
 72
     1
 73
     1
 90
        2
 40
-0.6
 41
30.0
 62
     5
 63
     7
 74
     0
 91
        4
 64
     7
 65
   257
 75
     1
175
     1
 42
1.0
 92
        8
 66
     7
 43
1.0
 76
     1
 77
     6
 78
     2
 67
     7
 79
     5
170
     0
171
     0
290
     0
174
     0
 93
       13
 44
0.0
173
     0
291
     1
 45
0.0
1001
ACAD
1000
AcRTDxfName
1000
VISUALSTYLE
1000
AcDbSavedByObjectVersion
1070
     0
  0
VISUALSTYLE
  5
66C20
102
{ACAD_REACTORS
330
66C1E
102
}
330
66C1E
100
AcDbVisualStyle
  2
FlatWithEdges
 70
     1
 71
     2
 72
     1
 73
     1
 90
        2
 40
-0.6
 41
30.0
 62
     5
 63
     7
 74
     1
 91
        4
 64
     7
 65
   257
 75
     1
175
     1
 42
1.0
 92
        0
 66
   257
 43
1.0
 76
     1
 77
     6
 78
     2
 67
     7
 79
     5
170
     0
171
     0
290
     0
174
     0
 93
       13
 44
0.0
173
     0
291
     1
 45
0.0
1001
ACAD
1000
AcRTDxfName
1000
VISUALSTYLE
1000
AcDbSavedByObjectVersion
1070
     0
  0
VISUALSTYLE
  5
66C21
102
{ACAD_REACTORS
330
66C1E
102
}
330
66C1E
100
AcDbVisualStyle
  2
Gouraud
 70
     2
 71
     2
 72
     2
 73
     1
 90
        2
 40
-0.6
 41
30.0
 62
     5
 63
     7
 74
     0
 91
        4
 64
     7
 65
   257
 75
     1
175
     1
 42
1.0
 92
        0
 66
     7
 43
1.0
 76
     1
 77
     6
 78
     2
 67
     7
 79
     5
170
     0
171
     0
290
     0
174
     0
 93
       13
 44
0.0
173
     0
291
     1
 45
0.0
1001
ACAD
1000
AcRTDxfName
1000
VISUALSTYLE
1000
AcDbSavedByObjectVersion
1070
     0
  0
VISUALSTYLE
  5
66C22
102
{ACAD_REACTORS
330
66C1E
102
}
330
66C1E
100
AcDbVisualStyle
  2
GouraudWithEdges
 70
     3
 71
     2
 72
     2
 73
     1
 90
        2
 40
-0.6
 41
30.0
 62
     5
 63
     7
 74
     1
 91
        4
 64
     7
 65
   257
 75
     1
175
     1
 42
1.0
 92
        0
 66
   257
 43
1.0
 76
     1
 77
     6
 78
     2
 67
     7
 79
     5
170
     0
171
     0
290
     0
174
     0
 93
       13
 44
0.0
173
     0
291
     1
 45
0.0
1001
ACAD
1000
AcRTDxfName
1000
VISUALSTYLE
1000
AcDbSavedByObjectVersion
1070
     0
  0
VISUALSTYLE
  5
66C2C
102
{ACAD_REACTORS
330
66C1E
102
}
330
66C1E
100
AcDbVisualStyle
  2
Linepattern
 70
    14
 71
     2
 72
     2
 73
     0
 90
        0
 40
-0.6
 41
-30.0
 62
     5
 63
     7
 74
     1
 91
        4
 64
     7
 65
   257
 75
     7
175
     7
 42
1.0
 92
        8
 66
     7
 43
1.0
 76
     1
 77
     6
 78
     2
 67
     7
 79
     5
170
     0
171
     0
290
     0
174
     0
 93
        1
 44
0.0
173
     0
291
     1
 45
0.0
1001
ACAD
1000
AcRTDxfName
1000
VISUALSTYLE
1000
AcDbSavedByObjectVersion
1070
     0
  0
VISUALSTYLE
  5
66C28
102
{ACAD_REACTORS
330
66C1E
102
}
330
66C1E
100
AcDbVisualStyle
  2
Realistic
 70
     8
 71
     2
 72
     2
 73
     0
 90
        0
 40
-0.6
 41
-30.0
 62
     5
 63
     7
 74
     1
 91
        0
 64
     7
 65
   257
 75
     1
175
     1
 42
1.0
 92
        8
 66
     8
 43
1.0
 76
     1
 77
     6
 78
     2
 67
     7
 79
     5
170
     0
171
     0
290
     0
174
     0
 93
       13
 44
0.0
173
     0
291
     0
 45
0.0
1001
ACAD
1000
AcRTDxfName
1000
VISUALSTYLE
1000
AcDbSavedByObjectVersion
1070
     0
  0
VISUALSTYLE
  5
66C2B
102
{ACAD_REACTORS
330
66C1E
102
}
330
66C1E
100
AcDbVisualStyle
  2
Thicken
 70
    13
 71
     2
 72
     2
 73
     0
 90
        0
 40
-0.6
 41
-30.0
 62
     5
 63
     7
 74
     1
 91
        4
 64
     7
 65
   257
 75
     1
175
     1
 42
1.0
 92
       12
 66
     7
 43
1.0
 76
     1
 77
     6
 78
     2
 67
     7
 79
     5
170
     0
171
     0
290
     0
174
     0
 93
        1
 44
0.0
173
     0
291
     1
 45
0.0
1001
ACAD
1000
AcRTDxfName
1000
VISUALSTYLE
1000
AcDbSavedByObjectVersion
1070
     0
  0
DICTIONARYVAR
  5
66CB7
102
{ACAD_REACTORS
330
6DE
102
}
330
6DE
100
DictionaryVariables
280
     0
  1
1:1
  0
DICTIONARYVAR
  5
66CB6
102
{ACAD_REACTORS
330
6DE
102
}
330
6DE
100
DictionaryVariables
280
     0
  1
STANDARD
  0
DICTIONARYVAR
  5
66CB5
102
{ACAD_REACTORS
330
6DE
102
}
330
6DE
100
DictionaryVariables
280
     0
  1
STANDARD
  0
DICTIONARYVAR
  5
6DF
102
{ACAD_REACTORS
330
6DE
102
}
330
6DE
100
DictionaryVariables
280
     0
  1
1
  0
DICTIONARYVAR
  5
66CB9
102
{ACAD_REACTORS
330
6DE
102
}
330
6DE
100
DictionaryVariables
280
     0
  1
0
  0
DICTIONARYVAR
  5
69E00
102
{ACAD_REACTORS
330
6DE
102
}
330
6DE
100
DictionaryVariables
280
     0
  1
1
  0
DICTIONARYVAR
  5
69E01
102
{ACAD_REACTORS
330
6DE
102
}
330
6DE
100
DictionaryVariables
280
     0
  1
15
  0
DICTIONARYVAR
  5
69DFF
102
{ACAD_REACTORS
330
6DE
102
}
330
6DE
100
DictionaryVariables
280
     0
  1
0
  0
DICTIONARYVAR
  5
69DFE
102
{ACAD_REACTORS
330
6DE
102
}
330
6DE
100
DictionaryVariables
280
     0
  1
0
  0
DICTIONARYVAR
  5
6E0
102
{ACAD_REACTORS
330
6DE
102
}
330
6DE
100
DictionaryVariables
280
     0
  1

  0
DICTIONARYVAR
  5
66CB8
102
{ACAD_REACTORS
330
6DE
102
}
330
6DE
100
DictionaryVariables
280
     0
  1
127
  0
DICTIONARY
  5
1CED7E
330
619
100
AcDbDictionary
280
     1
281
     1
  3
ACAD_XREC_ROUNDTRIP
360
1CED7F
  0
DICTIONARY
  5
1CED80
330
61A
100
AcDbDictionary
280
     1
281
     1
  3
ACAD_XREC_ROUNDTRIP
360
1CED81
  0
DICTIONARY
  5
66C0F
330
66C0E
100
AcDbDictionary
280
     1
281
     1
  3
ACAD_XREC_ROUNDTRIP
360
1CED83
  3
BUMPTILE
360
66C11
  3
DIFFUSETILE
360
66C10
  3
OPACITYTILE
360
66C14
  3
REFLECTIONTILE
360
66C13
  3
REFRACTIONTILE
360
66C15
  3
SPECULARTILE
360
66C12
  0
DICTIONARY
  5
66C07
330
66C06
100
AcDbDictionary
280
     1
281
     1
  3
ACAD_XREC_ROUNDTRIP
360
1CED82
  3
BUMPTILE
360
66C09
  3
DIFFUSETILE
360
66C08
  3
OPACITYTILE
360
66C0C
  3
REFLECTIONTILE
360
66C0B
  3
REFRACTIONTILE
360
66C0D
  3
SPECULARTILE
360
66C0A
  0
DICTIONARY
  5
66C17
330
66C16
100
AcDbDictionary
280
     1
281
     1
  3
ACAD_XREC_ROUNDTRIP
360
1CED84
  3
BUMPTILE
360
66C19
  3
DIFFUSETILE
360
66C18
  3
OPACITYTILE
360
66C1C
  3
REFLECTIONTILE
360
66C1B
  3
REFRACTIONTILE
360
66C1D
  3
SPECULARTILE
360
66C1A
  0
DICTIONARY
  5
66C8F
330
66C30
100
AcDbDictionary
280
     1
281
     1
  3
ACAD_ROUNDTRIP_2008_TABLESTYLE_CELLSTYLEMAP
360
1CED7C
  3
ACAD_XREC_ROUNDTRIP
360
1CED85
  0
XRECORD
  5
1CED7F
102
{ACAD_REACTORS
330
1CED7E
102
}
330
1CED7E
100
AcDbXrecord
280
     1
102
SHADEPLOT
 70
     0
102
SHADEPLOTRESLEVEL
 70
     2
102
SHADEPLOTCUSTOMDPI
 70
   300
  0
XRECORD
  5
1CED81
102
{ACAD_REACTORS
330
1CED80
102
}
330
1CED80
100
AcDbXrecord
280
     1
102
SHADEPLOT
 70
     0
102
SHADEPLOTRESLEVEL
 70
     2
102
SHADEPLOTCUSTOMDPI
 70
   300
  0
XRECORD
  5
1CED83
102
{ACAD_REACTORS
330
66C0F
102
}
330
66C0F
100
AcDbXrecord
280
     1
102
MATERIAL
148
0.0
149
0.0
149
0.0
 93
        0
 94
      127
282
     0
 72
     0
 77
     0
171
     0
175
     0
179
     0
273
     0
  0
XRECORD
  5
66C11
102
{ACAD_REACTORS
330
66C0F
102
}
330
66C0F
100
AcDbXrecord
280
     1
270
     1
271
     1
  0
XRECORD
  5
66C10
102
{ACAD_REACTORS
330
66C0F
102
}
330
66C0F
100
AcDbXrecord
280
     1
270
     1
271
     1
  0
XRECORD
  5
66C14
102
{ACAD_REACTORS
330
66C0F
102
}
330
66C0F
100
AcDbXrecord
280
     1
270
     1
271
     1
  0
XRECORD
  5
66C13
102
{ACAD_REACTORS
330
66C0F
102
}
330
66C0F
100
AcDbXrecord
280
     1
270
     1
271
     1
  0
XRECORD
  5
66C15
102
{ACAD_REACTORS
330
66C0F
102
}
330
66C0F
100
AcDbXrecord
280
     1
270
     1
271
     1
  0
XRECORD
  5
66C12
102
{ACAD_REACTORS
330
66C0F
102
}
330
66C0F
100
AcDbXrecord
280
     1
270
     1
271
     1
  0
XRECORD
  5
1CED82
102
{ACAD_REACTORS
330
66C07
102
}
330
66C07
100
AcDbXrecord
280
     1
102
MATERIAL
148
0.0
149
0.0
149
0.0
 93
        0
 94
      127
282
     0
 72
     0
 77
     0
171
     0
175
     0
179
     0
273
     0
  0
XRECORD
  5
66C09
102
{ACAD_REACTORS
330
66C07
102
}
330
66C07
100
AcDbXrecord
280
     1
270
     1
271
     1
  0
XRECORD
  5
66C08
102
{ACAD_REACTORS
330
66C07
102
}
330
66C07
100
AcDbXrecord
280
     1
270
     1
271
     1
  0
XRECORD
  5
66C0C
102
{ACAD_REACTORS
330
66C07
102
}
330
66C07
100
AcDbXrecord
280
     1
270
     1
271
     1
  0
XRECORD
  5
66C0B
102
{ACAD_REACTORS
330
66C07
102
}
330
66C07
100
AcDbXrecord
280
     1
270
     1
271
     1
  0
XRECORD
  5
66C0D
102
{ACAD_REACTORS
330
66C07
102
}
330
66C07
100
AcDbXrecord
280
     1
270
     1
271
     1
  0
XRECORD
  5
66C0A
102
{ACAD_REACTORS
330
66C07
102
}
330
66C07
100
AcDbXrecord
280
     1
270
     1
271
     1
  0
XRECORD
  5
1CED84
102
{ACAD_REACTORS
330
66C17
102
}
330
66C17
100
AcDbXrecord
280
     1
102
MATERIAL
148
0.0
149
0.0
149
0.0
 93
        0
 94
      127
282
     0
 72
     0
 77
     0
171
     0
175
     0
179
     0
273
     0
  0
XRECORD
  5
66C19
102
{ACAD_REACTORS
330
66C17
102
}
330
66C17
100
AcDbXrecord
280
     1
270
     1
271
     1
  0
XRECORD
  5
66C18
102
{ACAD_REACTORS
330
66C17
102
}
330
66C17
100
AcDbXrecord
280
     1
270
     1
271
     1
  0
XRECORD
  5
66C1C
102
{ACAD_REACTORS
330
66C17
102
}
330
66C17
100
AcDbXrecord
280
     1
270
     1
271
     1
  0
XRECORD
  5
66C1B
102
{ACAD_REACTORS
330
66C17
102
}
330
66C17
100
AcDbXrecord
280
     1
270
     1
271
     1
  0
XRECORD
  5
66C1D
102
{ACAD_REACTORS
330
66C17
102
}
330
66C17
100
AcDbXrecord
280
     1
270
     1
271
     1
  0
XRECORD
  5
66C1A
102
{ACAD_REACTORS
330
66C17
102
}
330
66C17
100
AcDbXrecord
280
     1
270
     1
271
     1
  0
CELLSTYLEMAP
  5
1CED7C
102
{ACAD_REACTORS
330
66C8F
102
}
330
66C8F
100
AcDbCellStyleMap
 90
        3
300
CELLSTYLE
  1
TABLEFORMAT_BEGIN
 90
        5
170
     1
 91
        0
 92
    32768
 62
   257
 93
        1
300
CONTENTFORMAT
  1
CONTENTFORMAT_BEGIN
 90
        0
 91
        0
 92
      512
 93
        0
300

 40
0.0
140
1.0
 94
        5
 62
     0
340
10
144
0.25
309
CONTENTFORMAT_END
171
     1
301
MARGIN
  1
CELLMARGIN_BEGIN
 40
0.06
 40
0.06
 40
0.06
 40
0.06
 40
0.18
 40
0.18
309
CELLMARGIN_END
 94
        6
 95
        1
302
GRIDFORMAT
  1
GRIDFORMAT_BEGIN
 90
        0
 91
        1
 62
     0
 92
       -2
340
0
 93
        0
 40
0.045
309
GRIDFORMAT_END
 95
        2
302
GRIDFORMAT
  1
GRIDFORMAT_BEGIN
 90
        0
 91
        1
 62
     0
 92
       -2
340
0
 93
        0
 40
0.045
309
GRIDFORMAT_END
 95
        4
302
GRIDFORMAT
  1
GRIDFORMAT_BEGIN
 90
        0
 91
        1
 62
     0
 92
       -2
340
0
 93
        0
 40
0.045
309
GRIDFORMAT_END
 95
        8
302
GRIDFORMAT
  1
GRIDFORMAT_BEGIN
 90
        0
 91
        1
 62
     0
 92
       -2
340
0
 93
        0
 40
0.045
309
GRIDFORMAT_END
 95
       16
302
GRIDFORMAT
  1
GRIDFORMAT_BEGIN
 90
        0
 91
        1
 62
     0
 92
       -2
340
0
 93
        0
 40
0.045
309
GRIDFORMAT_END
 95
       32
302
GRIDFORMAT
  1
GRIDFORMAT_BEGIN
 90
        0
 91
        1
 62
     0
 92
       -2
340
0
 93
        0
 40
0.045
309
GRIDFORMAT_END
309
TABLEFORMAT_END
  1
CELLSTYLE_BEGIN
 90
        1
 91
        1
300
_TITLE
309
CELLSTYLE_END
300
CELLSTYLE
  1
TABLEFORMAT_BEGIN
 90
        5
170
     1
 91
        0
 92
        0
 62
   257
 93
        1
300
CONTENTFORMAT
  1
CONTENTFORMAT_BEGIN
 90
        0
 91
        0
 92
      512
 93
        0
300

 40
0.0
140
1.0
 94
        5
 62
     0
340
10
144
0.18
309
CONTENTFORMAT_END
171
     1
301
MARGIN
  1
CELLMARGIN_BEGIN
 40
0.06
 40
0.06
 40
0.06
 40
0.06
 40
0.18
 40
0.18
309
CELLMARGIN_END
 94
        6
 95
        1
302
GRIDFORMAT
  1
GRIDFORMAT_BEGIN
 90
        0
 91
        1
 62
     0
 92
       -2
340
0
 93
        0
 40
0.045
309
GRIDFORMAT_END
 95
        2
302
GRIDFORMAT
  1
GRIDFORMAT_BEGIN
 90
        0
 91
        1
 62
     0
 92
       -2
340
0
 93
        0
 40
0.045
309
GRIDFORMAT_END
 95
        4
302
GRIDFORMAT
  1
GRIDFORMAT_BEGIN
 90
        0
 91
        1
 62
     0
 92
       -2
340
0
 93
        0
 40
0.045
309
GRIDFORMAT_END
 95
        8
302
GRIDFORMAT
  1
GRIDFORMAT_BEGIN
 90
        0
 91
        1
 62
     0
 92
       -2
340
0
 93
        0
 40
0.045
309
GRIDFORMAT_END
 95
       16
302
GRIDFORMAT
  1
GRIDFORMAT_BEGIN
 90
        0
 91
        1
 62
     0
 92
       -2
340
0
 93
        0
 40
0.045
309
GRIDFORMAT_END
 95
       32
302
GRIDFORMAT
  1
GRIDFORMAT_BEGIN
 90
        0
 91
        1
 62
     0
 92
       -2
340
0
 93
        0
 40
0.045
309
GRIDFORMAT_END
309
TABLEFORMAT_END
  1
CELLSTYLE_BEGIN
 90
        2
 91
        1
300
_HEADER
309
CELLSTYLE_END
300
CELLSTYLE
  1
TABLEFORMAT_BEGIN
 90
        5
170
     1
 91
        0
 92
        0
 62
   257
 93
        1
300
CONTENTFORMAT
  1
CONTENTFORMAT_BEGIN
 90
        0
 91
        0
 92
      512
 93
        0
300

 40
0.0
140
1.0
 94
        2
 62
     0
340
10
144
0.18
309
CONTENTFORMAT_END
171
     1
301
MARGIN
  1
CELLMARGIN_BEGIN
 40
0.06
 40
0.06
 40
0.06
 40
0.06
 40
0.18
 40
0.18
309
CELLMARGIN_END
 94
        6
 95
        1
302
GRIDFORMAT
  1
GRIDFORMAT_BEGIN
 90
        0
 91
        1
 62
     0
 92
       -2
340
0
 93
        0
 40
0.045
309
GRIDFORMAT_END
 95
        2
302
GRIDFORMAT
  1
GRIDFORMAT_BEGIN
 90
        0
 91
        1
 62
     0
 92
       -2
340
0
 93
        0
 40
0.045
309
GRIDFORMAT_END
 95
        4
302
GRIDFORMAT
  1
GRIDFORMAT_BEGIN
 90
        0
 91
        1
 62
     0
 92
       -2
340
0
 93
        0
 40
0.045
309
GRIDFORMAT_END
 95
        8
302
GRIDFORMAT
  1
GRIDFORMAT_BEGIN
 90
        0
 91
        1
 62
     0
 92
       -2
340
0
 93
        0
 40
0.045
309
GRIDFORMAT_END
 95
       16
302
GRIDFORMAT
  1
GRIDFORMAT_BEGIN
 90
        0
 91
        1
 62
     0
 92
       -2
340
0
 93
        0
 40
0.045
309
GRIDFORMAT_END
 95
       32
302
GRIDFORMAT
  1
GRIDFORMAT_BEGIN
 90
        0
 91
        1
 62
     0
 92
       -2
340
0
 93
        0
 40
0.045
309
GRIDFORMAT_END
309
TABLEFORMAT_END
  1
CELLSTYLE_BEGIN
 90
        3
 91
        2
300
_DATA
309
CELLSTYLE_END
  0
XRECORD
  5
1CED85
102
{ACAD_REACTORS
330
66C8F
102
}
330
66C8F
100
AcDbXrecord
280
     1
102
ACAD_ROUNDTRIP_PRE2007_TABLESTYLE
 90
      512
 91
        0
  1

 92
      512
 93
        0
  2

 94
      512
 95
        0
  3

  0
ENDSEC
  0
EOF
