  0
SECTION
  2
HEADER
  9
$ACADVER
  1
AC1015
  9
$ACADMAINTVER
 70
    20
  9
$DWGCODEPAGE
  3
ANSI_932
  9
$INSBASE
 10
0.0
 20
0.0
 30
0.0
  9
$EXTMIN
 10
7792.949543948009
 20
-6381.53572586261
 30
-0.0000000000000153
  9
$EXTMAX
 10
7936.427313426844
 20
-6249.963495482792
 30
0.0
  9
$LIMMIN
 10
0.0
 20
0.0
  9
$LIMMAX
 10
420.0
 20
297.0
  9
$ORTHOMODE
 70
     0
  9
$REGENMODE
 70
     1
  9
$FILLMODE
 70
     1
  9
$QTEXTMODE
 70
     0
  9
$MIRRTEXT
 70
     1
  9
$LTSCALE
 40
5.0
  9
$ATTMODE
 70
     0
  9
$TEXTSIZE
 40
3.5
  9
$TRACEWID
 40
1.0
  9
$TEXTSTYLE
  7
STANDARD
  9
$CLAYER
  8
0
  9
$CELTYPE
  6
BYLAYER
  9
$CECOLOR
 62
   256
  9
$CELTSCALE
 40
1.0
  9
$DISPSILH
 70
     0
  9
$DIMSCALE
 40
1.0
  9
$DIMASZ
 40
1.5
  9
$DIMEXO
 40
1.5
  9
$DIMDLI
 40
0.38
  9
$DIMRND
 40
0.0
  9
$DIMDLE
 40
0.0
  9
$DIMEXE
 40
1.0
  9
$DIMTP
 40
0.0
  9
$DIMTM
 40
0.0
  9
$DIMTXT
 40
2.500000000000002
  9
$DIMCEN
 40
0.0
  9
$DIMTSZ
 40
0.0
  9
$DIMTOL
 70
     0
  9
$DIMLIM
 70
     0
  9
$DIMTIH
 70
     0
  9
$DIMTOH
 70
     0
  9
$DIMSE1
 70
     0
  9
$DIMSE2
 70
     0
  9
$DIMTAD
 70
     3
  9
$DIMZIN
 70
     8
  9
$DIMBLK
  1

  9
$DIMASO
 70
     1
  9
$DIMSHO
 70
     0
  9
$DIMPOST
  1

  9
$DIMAPOST
  1

  9
$DIMALT
 70
     0
  9
$DIMALTD
 70
     0
  9
$DIMALTF
 40
25.4
  9
$DIMLFAC
 40
1.0
  9
$DIMTOFL
 70
     0
  9
$DIMTVP
 40
0.0
  9
$DIMTIX
 70
     0
  9
$DIMSOXD
 70
     0
  9
$DIMSAH
 70
     1
  9
$DIMBLK1
  1
OPEN
  9
$DIMBLK2
  1
OPEN
  9
$DIMSTYLE
  2
STANDARD
  9
$DIMCLRD
 70
     8
  9
$DIMCLRE
 70
     8
  9
$DIMCLRT
 70
     7
  9
$DIMTFAC
 40
1.0
  9
$DIMGAP
 40
1.0
  9
$DIMJUST
 70
     0
  9
$DIMSD1
 70
     0
  9
$DIMSD2
 70
     0
  9
$DIMTOLJ
 70
     1
  9
$DIMTZIN
 70
     0
  9
$DIMALTZ
 70
     0
  9
$DIMALTTZ
 70
     0
  9
$DIMUPT
 70
     0
  9
$DIMDEC
 70
     2
  9
$DIMTDEC
 70
     2
  9
$DIMALTU
 70
     2
  9
$DIMALTTD
 70
     0
  9
$DIMTXSTY
  7
STANDARD
  9
$DIMAUNIT
 70
     0
  9
$DIMADEC
 70
     2
  9
$DIMALTRND
 40
0.0
  9
$DIMAZIN
 70
     2
  9
$DIMDSEP
 70
    46
  9
$DIMATFIT
 70
     3
  9
$DIMFRAC
 70
     0
  9
$DIMLDRBLK
  1

  9
$DIMLUNIT
 70
     2
  9
$DIMLWD
 70
    -2
  9
$DIMLWE
 70
    -2
  9
$DIMTMOVE
 70
     0
  9
$LUNITS
 70
     2
  9
$LUPREC
 70
     2
  9
$SKETCHINC
 40
0.1
  9
$FILLETRAD
 40
1.0
  9
$AUNITS
 70
     0
  9
$AUPREC
 70
     1
  9
$MENU
  1
FM
  9
$ELEVATION
 40
0.0
  9
$PELEVATION
 40
0.0
  9
$THICKNESS
 40
0.0
  9
$LIMCHECK
 70
     0
  9
$CHAMFERA
 40
0.0
  9
$CHAMFERB
 40
0.0
  9
$CHAMFERC
 40
0.0
  9
$CHAMFERD
 40
0.0
  9
$SKPOLY
 70
     0
  9
$TDCREATE
 40
2448636.619629630
  9
$TDUCREATE
 40
2448636.244629629
  9
$TDUPDATE
 40
2457378.621898473
  9
$TDUUPDATE
 40
2457378.246898472
  9
$TDINDWG
 40
60.4436410880
  9
$TDUSRTIMER
 40
60.4436410880
  9
$USRTIMER
 70
     1
  9
$ANGBASE
 50
0.0
  9
$ANGDIR
 70
     0
  9
$PDMODE
 70
     3
  9
$PDSIZE
 40
0.0
  9
$PLINEWID
 40
0.0
  9
$SPLFRAME
 70
     0
  9
$SPLINETYPE
 70
     6
  9
$SPLINESEGS
 70
     8
  9
$HANDSEED
  5
1CED87
  9
$SURFTAB1
 70
     6
  9
$SURFTAB2
 70
     6
  9
$SURFTYPE
 70
     6
  9
$SURFU
 70
     6
  9
$SURFV
 70
     6
  9
$UCSBASE
  2

  9
$UCSNAME
  2

  9
$UCSORG
 10
0.0
 20
0.0
 30
0.0
  9
$UCSXDIR
 10
1.0
 20
0.0
 30
0.0
  9
$UCSYDIR
 10
0.0
 20
1.0
 30
0.0
  9
$UCSORTHOREF
  2

  9
$UCSORTHOVIEW
 70
     0
  9
$UCSORGTOP
 10
0.0
 20
0.0
 30
0.0
  9
$UCSORGBOTTOM
 10
0.0
 20
0.0
 30
0.0
  9
$UCSORGLEFT
 10
0.0
 20
0.0
 30
0.0
  9
$UCSORGRIGHT
 10
0.0
 20
0.0
 30
0.0
  9
$UCSORGFRONT
 10
0.0
 20
0.0
 30
0.0
  9
$UCSORGBACK
 10
0.0
 20
0.0
 30
0.0
  9
$PUCSBASE
  2

  9
$PUCSNAME
  2

  9
$PUCSORG
 10
0.0
 20
0.0
 30
0.0
  9
$PUCSXDIR
 10
1.0
 20
0.0
 30
0.0
  9
$PUCSYDIR
 10
0.0
 20
1.0
 30
0.0
  9
$PUCSORTHOREF
  2

  9
$PUCSORTHOVIEW
 70
     0
  9
$PUCSORGTOP
 10
0.0
 20
0.0
 30
0.0
  9
$PUCSORGBOTTOM
 10
0.0
 20
0.0
 30
0.0
  9
$PUCSORGLEFT
 10
0.0
 20
0.0
 30
0.0
  9
$PUCSORGRIGHT
 10
0.0
 20
0.0
 30
0.0
  9
$PUCSORGFRONT
 10
0.0
 20
0.0
 30
0.0
  9
$PUCSORGBACK
 10
0.0
 20
0.0
 30
0.0
  9
$USERI1
 70
     0
  9
$USERI2
 70
     0
  9
$USERI3
 70
     0
  9
$USERI4
 70
     0
  9
$USERI5
 70
     0
  9
$USERR1
 40
0.0
  9
$USERR2
 40
0.0
  9
$USERR3
 40
0.0
  9
$USERR4
 40
0.0
  9
$USERR5
 40
0.0
  9
$WORLDVIEW
 70
     0
  9
$SHADEDGE
 70
     3
  9
$SHADEDIF
 70
    70
  9
$TILEMODE
 70
     1
  9
$MAXACTVP
 70
    16
  9
$PINSBASE
 10
0.0
 20
0.0
 30
0.0
  9
$PLIMCHECK
 70
     0
  9
$PEXTMIN
 10
1.000000000000000E+20
 20
1.000000000000000E+20
 30
1.000000000000000E+20
  9
$PEXTMAX
 10
-1.000000000000000E+20
 20
-1.000000000000000E+20
 30
-1.000000000000000E+20
  9
$PLIMMIN
 10
0.0
 20
0.0
  9
$PLIMMAX
 10
12.0
 20
9.0
  9
$UNITMODE
 70
     0
  9
$VISRETAIN
 70
     0
  9
$PLINEGEN
 70
     0
  9
$PSLTSCALE
 70
     0
  9
$TREEDEPTH
 70
  3020
  9
$CMLSTYLE
  2
STANDARD
  9
$CMLJUST
 70
     0
  9
$CMLSCALE
 40
1.0
  9
$PROXYGRAPHICS
 70
     1
  9
$MEASUREMENT
 70
     0
  9
$CELWEIGHT
370
    -1
  9
$ENDCAPS
280
     0
  9
$JOINSTYLE
280
     0
  9
$LWDISPLAY
290
     0
  9
$INSUNITS
 70
     0
  9
$HYPERLINKBASE
  1

  9
$STYLESHEET
  1
spax form.ctb
  9
$XEDIT
290
     1
  9
$CEPSNTYPE
380
     0
  9
$PSTYLEMODE
290
     1
  9
$FINGERPRINTGUID
  2
{BBAEEBA6-8B94-11D3-9160-00E0294F7E09}
  9
$VERSIONGUID
  2
{1B184035-B870-48BA-B123-D10C2F2EEED5}
  9
$EXTNAMES
290
     1
  9
$PSVPSCALE
 40
0.0
  9
$OLESTARTUP
290
     0
  0
ENDSEC
  0
SECTION
  2
CLASSES
  0
CLASS
  1
ACDBDICTIONARYWDFLT
  2
AcDbDictionaryWithDefault
  3
ObjectDBX Classes
 90
        0
280
     0
281
     0
  0
CLASS
  1
ACDBPLACEHOLDER
  2
AcDbPlaceHolder
  3
ObjectDBX Classes
 90
        0
280
     0
281
     0
  0
CLASS
  1
LAYOUT
  2
AcDbLayout
  3
ObjectDBX Classes
 90
        0
280
     0
281
     0
  0
CLASS
  1
DICTIONARYVAR
  2
AcDbDictionaryVar
  3
ObjectDBX Classes
 90
        0
280
     0
281
     0
  0
CLASS
  1
MATERIAL
  2
AcDbMaterial
  3
ObjectDBX Classes
 90
     1153
280
     0
281
     0
  0
CLASS
  1
VISUALSTYLE
  2
AcDbVisualStyle
  3
ObjectDBX Classes
 90
     4095
280
     0
281
     0
  0
CLASS
  1
TABLESTYLE
  2
AcDbTableStyle
  3
ObjectDBX Classes
 90
     4095
280
     0
281
     0
  0
CLASS
  1
SCALE
  2
AcDbScale
  3
ObjectDBX Classes
 90
     1153
280
     0
281
     0
  0
CLASS
  1
MLEADERSTYLE
  2
AcDbMLeaderStyle
  3
ACDB_MLEADERSTYLE_CLASS
 90
     4095
280
     0
281
     0
  0
CLASS
  1
CELLSTYLEMAP
  2
AcDbCellStyleMap
  3
ObjectDBX Classes
 90
     1152
280
     0
281
     0
  0
CLASS
  1
SORTENTSTABLE
  2
AcDbSortentsTable
  3
ObjectDBX Classes
 90
        0
280
     0
281
     0
  0
CLASS
  1
DIMASSOC
  2
AcDbDimAssoc
  3
"AcDbDimAssoc|Product Desc:     AcDim ARX App For Dimension|Company:          Autodesk, Inc.|WEB Address:      www.autodesk.com"
 90
    32768
280
     0
281
     0
  0
CLASS
  1
ACDB_RADIMOBJECTCONTEXTDATA_CLASS
  2
AcDbRadialDimensionObjectContextData
  3
ObjectDBX Classes
 90
    33921
280
     0
281
     0
  0
CLASS
  1
ACDB_DMDIMOBJECTCONTEXTDATA_CLASS
  2
AcDbDiametricDimensionObjectContextData
  3
ObjectDBX Classes
 90
    33921
280
     0
281
     0
  0
CLASS
  1
MULTILEADER
  2
AcDbMLeader
  3
ACDB_MLEADER_CLASS
 90
    33793
280
     0
281
     1
  0
CLASS
  1
LARGE_RADIAL_DIMENSION
  2
AcDbRadialDimensionLarge
  3
ObjectDBX Classes
 90
    33793
280
     0
281
     1
  0
ENDSEC
  0
SECTION
  2
TABLES
  0
TABLE
  2
VPORT
  5
8
102
{ACAD_XDICTIONARY
360
66C93
102
}
330
0
100
AcDbSymbolTable
 70
     1
  0
VPORT
  5
163677
330
8
100
AcDbSymbolTableRecord
100
AcDbViewportTableRecord
  2
*Active
 70
     0
 10
0.0
 20
0.0
 11
1.0
 21
1.0
 12
7864.688428687427
 22
-6315.749610672702
 13
0.0
 23
0.0
 14
1.0
 24
1.0
 15
20.0
 25
20.0
 16
0.0
 26
0.0
 36
1.0
 17
0.0
 27
0.0
 37
0.0
 40
132.6332967538474
 41
1.842530282637954
 42
50.0
 43
0.0
 44
0.0
 50
0.0
 51
0.0
 71
     0
 72
   100
 73
     1
 74
     0
 75
     0
 76
     0
 77
     0
 78
     0
281
     0
 65
     1
110
0.0
120
0.0
130
0.0
111
1.0
121
0.0
131
0.0
112
0.0
122
1.0
132
0.0
 79
     0
146
0.0
  0
ENDTAB
  0
TABLE
  2
LTYPE
  5
5
330
0
100
AcDbSymbolTable
 70
     4
  0
LTYPE
  5
12
330
5
100
AcDbSymbolTableRecord
100
AcDbLinetypeTableRecord
  2
BYBLOCK
 70
     0
  3

 72
    65
 73
     0
 40
0.0
  0
LTYPE
  5
13
330
5
100
AcDbSymbolTableRecord
100
AcDbLinetypeTableRecord
  2
BYLAYER
 70
     0
  3

 72
    65
 73
     0
 40
0.0
  0
LTYPE
  5
14
330
5
100
AcDbSymbolTableRecord
100
AcDbLinetypeTableRecord
  2
CONTINUOUS
 70
     0
  3
Solid line
 72
    65
 73
     0
 40
0.0
  0
ENDTAB
  0
TABLE
  2
LAYER
  5
2
102
{ACAD_XDICTIONARY
360
67DE7
102
}
330
0
100
AcDbSymbolTable
 70
    10
  0
LAYER
  5
F
102
{ACAD_XDICTIONARY
360
66C5B
102
}
330
2
100
AcDbSymbolTableRecord
100
AcDbLayerTableRecord
  2
0
 70
     0
 62
     7
  6
CONTINUOUS
370
    -3
390
616
  0
LAYER
  5
36
330
2
100
AcDbSymbolTableRecord
100
AcDbLayerTableRecord
  2
DEFPOINTS
 70
     0
 62
     7
  6
CONTINUOUS
290
     0
370
    -3
390
616
  0
LAYER
  5
2F4
102
{ACAD_XDICTIONARY
360
66C67
102
}
330
2
100
AcDbSymbolTableRecord
100
AcDbLayerTableRecord
  2
文字
 70
     0
 62
     7
  6
CONTINUOUS
370
    -3
390
616
  0
LAYER
  5
13ADEA
102
{ACAD_XDICTIONARY
360
13ADEB
102
}
330
2
100
AcDbSymbolTableRecord
100
AcDbLayerTableRecord
  2
寸法線
 70
     0
 62
     7
  6
CONTINUOUS
370
    -3
390
616
  0
LAYER
  5
142AB2
102
{ACAD_XDICTIONARY
360
142AB3
102
}
330
2
100
AcDbSymbolTableRecord
100
AcDbLayerTableRecord
  2
姿図
 70
     0
 62
     8
  6
CONTINUOUS
370
    -3
390
616
  0
ENDTAB
  0
TABLE
  2
STYLE
  5
3
330
0
100
AcDbSymbolTable
 70
     2
  0
STYLE
  5
10
330
3
100
AcDbSymbolTableRecord
100
AcDbTextStyleTableRecord
  2
STANDARD
 70
     0
 40
0.0
 41
1.0
 50
0.0
 71
     0
 42
3.5
  3
MONOTXT
  4
BIGFONT
  0
ENDTAB
  0
TABLE
  2
VIEW
  5
6
330
0
100
AcDbSymbolTable
 70
     0
  0
ENDTAB
  0
TABLE
  2
UCS
  5
7
330
0
100
AcDbSymbolTable
 70
     0
  0
ENDTAB
  0
TABLE
  2
APPID
  5
9
330
0
100
AcDbSymbolTable
 70
    21
  0
APPID
  5
11
330
9
100
AcDbSymbolTableRecord
100
AcDbRegAppTableRecord
  2
ACAD
 70
     0
  0
APPID
  5
66C55
330
9
100
AcDbSymbolTableRecord
100
AcDbRegAppTableRecord
  2
ACAD_MLEADERVER
 70
     0
  0
APPID
  5
66CC8
330
9
100
AcDbSymbolTableRecord
100
AcDbRegAppTableRecord
  2
ACAD_PSEXT
 70
     0
  0
APPID
  5
67DE4
330
9
100
AcDbSymbolTableRecord
100
AcDbRegAppTableRecord
  2
ACAD_DSTYLE_DIMJAG
 70
     0
  0
APPID
  5
67DE5
330
9
100
AcDbSymbolTableRecord
100
AcDbRegAppTableRecord
  2
ACAD_DSTYLE_DIMBREAK
 70
     0
  0
APPID
  5
67DE6
330
9
100
AcDbSymbolTableRecord
100
AcDbRegAppTableRecord
  2
ACAD_DSTYLE_DIMTALN
 70
     0
  0
APPID
  5
68101
330
9
100
AcDbSymbolTableRecord
100
AcDbRegAppTableRecord
  2
ACAD_EXEMPT_FROM_CAD_STANDARDS
 70
     0
  0
APPID
  5
74C21
330
9
100
AcDbSymbolTableRecord
100
AcDbRegAppTableRecord
  2
ACAD_DSTYLE_DIMRADIAL_EXTENSION
 70
     0
  0
APPID
  5
86ADD
330
9
100
AcDbSymbolTableRecord
100
AcDbRegAppTableRecord
  2
AcAecLayerStandard
 70
     0
  0
APPID
  5
86ADE
330
9
100
AcDbSymbolTableRecord
100
AcDbRegAppTableRecord
  2
AcadAnnotative
 70
     0
  0
APPID
  5
86ADF
330
9
100
AcDbSymbolTableRecord
100
AcDbRegAppTableRecord
  2
AcadAnnotativeDecomposition
 70
     0
  0
APPID
  5
16E922
330
9
100
AcDbSymbolTableRecord
100
AcDbRegAppTableRecord
  2
ASK_MEN_XD
 70
     0
  0
APPID
  5
1AB09B
330
9
100
AcDbSymbolTableRecord
100
AcDbRegAppTableRecord
  2
ACAD_DSTYLE_DIMARC_LENGTH_SYMBOL
 70
     0
  0
APPID
  5
1B5F59
330
9
100
AcDbSymbolTableRecord
100
AcDbRegAppTableRecord
  2
GENIUS_GENODEF_13
 70
     0
  0
APPID
  5
1B5F5A
330
9
100
AcDbSymbolTableRecord
100
AcDbRegAppTableRecord
  2
GENIUS_GENOREF_13
 70
     0
  0
APPID
  5
1B5F5B
330
9
100
AcDbSymbolTableRecord
100
AcDbRegAppTableRecord
  2
GENIUS_GENOBJ-N-CEN_13
 70
     0
  0
APPID
  5
1B5F5C
330
9
100
AcDbSymbolTableRecord
100
AcDbRegAppTableRecord
  2
GENIUS_GENOBJ-N-HTC_13
 70
     0
  0
APPID
  5
1B5F5D
330
9
100
AcDbSymbolTableRecord
100
AcDbRegAppTableRecord
  2
GENIUS_GENHATCH_13
 70
     0
  0
APPID
  5
1B5F5E
330
9
100
AcDbSymbolTableRecord
100
AcDbRegAppTableRecord
  2
GENIUS_GENOBJ-N-FIL_13
 70
     0
  0
APPID
  5
1C13AD
330
9
100
AcDbSymbolTableRecord
100
AcDbRegAppTableRecord
  2
ACAD_SPLINE_DATA
 70
     0
  0
APPID
  5
1C13AE
330
9
100
AcDbSymbolTableRecord
100
AcDbRegAppTableRecord
  2
ACAD_SPLINE_DATA2
 70
     0
  0
ENDTAB
  0
TABLE
  2
DIMSTYLE
  5
A
330
0
100
AcDbSymbolTable
 70
     2
100
AcDbDimStyleTable
 71
     1
340
1CC
  0
DIMSTYLE
105
1CC
330
A
100
AcDbSymbolTableRecord
100
AcDbDimStyleTableRecord
  2
STANDARD
 70
     0
 41
1.5
 42
1.5
 44
1.0
 73
     0
 74
     0
 77
     3
 78
     8
 79
     2
140
2.500000000000002
141
0.0
147
1.0
171
     0
173
     1
176
     8
177
     8
179
     2
271
     2
272
     2
274
     0
340
10
341
608
343
608
344
608
1001
ACAD_DSTYLE_DIMJAG
1070
   388
1040
1.5
1001
ACAD_DSTYLE_DIMTALN
1070
   392
1070
     0
  0
ENDTAB
  0
TABLE
  2
BLOCK_RECORD
  5
1
330
0
100
AcDbSymbolTable
 70
    10
  0
BLOCK_RECORD
  5
18
102
{ACAD_XDICTIONARY
360
845D5
102
}
330
1
100
AcDbSymbolTableRecord
100
AcDbBlockTableRecord
  2
*MODEL_SPACE
340
619
  0
BLOCK_RECORD
  5
15
330
1
100
AcDbSymbolTableRecord
100
AcDbBlockTableRecord
  2
*PAPER_SPACE
340
61A
  0
BLOCK_RECORD
  5
608
330
1
100
AcDbSymbolTableRecord
100
AcDbBlockTableRecord
  2
_OPEN
340
0
  0
ENDTAB
  0
ENDSEC
  0
SECTION
  2
BLOCKS
  0
BLOCK
  5
39
330
18
100
AcDbEntity
  8
0
100
AcDbBlockBegin
  2
*MODEL_SPACE
 70
     0
 10
0.0
 20
0.0
 30
0.0
  3
*MODEL_SPACE
  1

  0
ENDBLK
  5
3A
330
18
100
AcDbEntity
  8
0
100
AcDbBlockEnd
  0
BLOCK
  5
37
330
15
100
AcDbEntity
 67
     1
  8
0
100
AcDbBlockBegin
  2
*PAPER_SPACE
 70
     0
 10
0.0
 20
0.0
 30
0.0
  3
*PAPER_SPACE
  1

  0
ENDBLK
  5
38
330
15
100
AcDbEntity
 67
     1
  8
0
100
AcDbBlockEnd
  0
BLOCK
  5
609
330
608
100
AcDbEntity
  8
0
100
AcDbBlockBegin
  2
_OPEN
 70
     0
 10
0.0
 20
0.0
 30
0.0
  3
_OPEN
  1

  0
LINE
  5
60A
330
608
100
AcDbEntity
  8
0
  6
ByBlock
 62
     0
100
AcDbLine
 10
-1.0
 20
0.1666666666666666
 30
0.0
 11
0.0
 21
0.0
 31
0.0
  0
LINE
  5
60B
330
608
100
AcDbEntity
  8
0
  6
ByBlock
 62
     0
100
AcDbLine
 10
0.0
 20
0.0
 30
0.0
 11
-1.0
 21
-0.1666666666666666
 31
0.0
  0
LINE
  5
60C
330
608
100
AcDbEntity
  8
0
  6
ByBlock
 62
     0
100
AcDbLine
 10
0.0
 20
0.0
 30
0.0
 11
-1.0
 21
0.0
 31
0.0
  0
ENDBLK
  5
60D
330
608
100
AcDbEntity
  8
0
100
AcDbBlockEnd
  0
ENDSEC
  0
SECTION
  2
ENTITIES
  0
TEXT
  5
11B04
330
18
100
AcDbEntity
  8
文字
100
AcDbText
 10
-1240.183388714458
 20
-1416.837204555437
 30
0.0
 40
6.75
  1

 41
1.022799999999999
100
AcDbText
  0
MTEXT
  5
12B3E
330
18
100
AcDbEntity
  8
0
100
AcDbMText
 10
-974.1891318600247
 20
-2072.131137572738
 30
0.0
 40
2.500000000000002
 41
0.0
 71
     9
 72
     1
  1
\A1;
 73
     1
 44
1.0
1001
ACAD
1000
MTEXTBEGIN
1070
    73
1070
     1
1070
    44
1040
1.0
1070
    74
1070
     0
1000
MTEXTEND
  0
MTEXT
  5
1C0DF9
330
18
100
AcDbEntity
  8
寸法線
 62
     8
100
AcDbMText
 10
-2246.464717580975
 20
-8257.66873364652
 30
0.0
 40
7.5
 41
0.0
 71
     3
 72
     5
  1

 73
     1
 44
1.0
1001
ACAD_MLEADERVER
1070
     2
1001
ACAD
1000
MTEXTBEGIN
1070
    73
1070
     1
1070
    44
1040
1.0
1070
    74
1070
     0
1000
MTEXTEND
  0
TEXT
  5
1C4A61
330
18
100
AcDbEntity
  8
文字
100
AcDbText
 10
7793.369741807585
 20
-6381.520614920145
 30
0.0
 40
15.0
  1
MCL-STI/01
100
AcDbText
  0
LINE
  5
1C4AE6
330
18
100
AcDbEntity
  8
姿図
100
AcDbLine
 10
7842.54010984329
 20
-6252.011055364529
 30
0.0
 11
7834.432223845644
 21
-6289.065276116478
 31
0.0
  0
LINE
  5
1C4AE7
330
18
100
AcDbEntity
  8
姿図
100
AcDbLine
 10
7869.037358546134
 20
-6251.608260644623
 30
0.0
 11
7877.736826922255
 21
-6289.569331659228
 31
0.0
  0
ELLIPSE
  5
1C4AE8
330
18
100
AcDbEntity
  8
姿図
100
AcDbEllipse
 10
7856.05269625081
 20
-6289.4700762046
 30
0.0
 11
-21.68413067144557
 21
0.0992554546281373
 31
0.0
210
0.0
220
0.0
230
1.0
 40
0.1862544096985957
 41
6.207389204984965
 42
9.500574062964474
  0
LINE
  5
1C4AE9
330
18
100
AcDbEntity
  8
姿図
100
AcDbLine
 10
7856.589597609829
 20
-6293.510058410954
 30
0.0
 11
7856.589597609829
 21
-6319.363989473714
 31
0.0
  0
LINE
  5
1C4AEA
330
18
100
AcDbEntity
  8
姿図
100
AcDbLine
 10
7855.111807612164
 20
-6293.500963106166
 30
0.0
 11
7855.111807612164
 21
-6319.363989473714
 31
0.0
  0
ELLIPSE
  5
1C4AEB
330
18
100
AcDbEntity
  8
姿図
100
AcDbEllipse
 10
7855.837821615003
 20
-6319.403422493041
 30
0.0
 11
-1.248138129446603
 21
-0.0569110137815949
 31
0.0
210
0.0
220
0.0
230
0.9999999999999998
 40
0.436858465112896
 41
5.313120067916126
 42
10.32940554474367
  0
ELLIPSE
  5
1C4AEC
330
18
100
AcDbEntity
  8
姿図
100
AcDbEllipse
 10
7855.837821615003
 20
-6319.747971654221
 30
0.0
 11
-1.248138129446602
 21
-0.0569110137815949
 31
0.0
210
0.0
220
0.0
230
1.0
 40
0.4368584651128962
 41
6.243351942469388
 42
9.424777960769379
  0
ELLIPSE
  5
1C4AED
330
18
100
AcDbEntity
  8
姿図
100
AcDbEllipse
 10
7855.850702610997
 20
-6319.363989473714
 30
0.0
 11
-0.7388949988324894
 21
0.0
 31
0.0
210
0.0
220
0.0
230
1.0
 40
0.2355099523794677
 41
0.0
 42
3.141592653589793
  0
LINE
  5
1C4AEE
330
18
100
AcDbEntity
  8
姿図
100
AcDbLine
 10
7857.085959744451
 20
-6319.346511479259
 30
0.0
 11
7857.085959744451
 21
-6319.69106064044
 31
0.0
  0
LINE
  5
1C4AEF
330
18
100
AcDbEntity
  8
姿図
100
AcDbLine
 10
7854.589683485558
 20
-6319.460333506822
 30
0.0
 11
7854.589683485558
 21
-6319.804882668003
 31
0.0
  0
ELLIPSE
  5
1C4AF0
330
18
100
AcDbEntity
  8
姿図
100
AcDbEllipse
 10
7856.234433344393
 20
-6320.634551613994
 30
0.0
 11
-16.91795490673367
 21
-0.4027340945116793
 31
0.0
210
0.0
220
0.0
230
1.0
 40
0.2392051366141192
 41
4.75789171928141
 42
10.97111119783521
  0
ELLIPSE
  5
1C4AF1
330
18
100
AcDbEntity
  8
姿図
100
AcDbEllipse
 10
7856.217962843146
 20
-6321.330127687197
 30
0.0
 11
-16.91795490673367
 21
-0.4027340945116793
 31
0.0
210
0.0
220
0.0
230
1.0
 40
0.2392051366141192
 41
6.185866518364165
 42
9.49936805149321
  0
LINE
  5
1C4AF2
330
18
100
AcDbEntity
  8
姿図
100
AcDbLine
 10
7898.820756128284
 20
-6323.514347385403
 30
0.0
 11
7901.992061341187
 21
-6324.774454486496
 31
0.0
  0
LINE
  5
1C4AF3
330
18
100
AcDbEntity
  8
姿図
100
AcDbLine
 10
7898.530437992668
 20
-6324.244989579288
 30
0.0
 11
7901.417593568591
 21
-6325.39219080999
 31
0.0
  0
LINE
  5
1C4AF4
330
18
100
AcDbEntity
  8
姿図
100
AcDbLine
 10
7892.79933739021
 20
-6330.599886161752
 30
0.0
 11
7896.327887648613
 21
-6330.27592766979
 31
0.0
  0
LINE
  5
1C4AF5
330
18
100
AcDbEntity
  8
姿図
100
AcDbLine
 10
7893.087331332172
 20
-6332.544192197422
 30
0.0
 11
7896.558282802182
 21
-6331.831372498324
 31
0.0
  0
LINE
  5
1C4AF6
330
18
100
AcDbEntity
  8
姿図
100
AcDbLine
 10
7884.220916342101
 20
-6331.708578412853
 30
0.0
 11
7887.526236602738
 21
-6331.218988711517
 31
0.0
  0
LINE
  5
1C4AF7
330
18
100
AcDbEntity
  8
姿図
100
AcDbLine
 10
7884.192116947904
 20
-6331.514147809286
 30
0.0
 11
7887.497437208542
 21
-6331.024558107952
 31
0.0
  0
LINE
  5
1C4AF8
330
18
100
AcDbEntity
  8
姿図
100
AcDbLine
 10
7884.548169543558
 20
-6333.917931743172
 30
0.0
 11
7887.853489804196
 21
-6333.428342041838
 31
0.0
  0
LINE
  5
1C4AF9
330
18
100
AcDbEntity
  8
姿図
100
AcDbLine
 10
7884.576968937752
 20
-6334.112362346738
 30
0.0
 11
7887.882289198391
 21
-6333.622772645402
 31
0.0
  0
LINE
  5
1C4AFA
330
18
100
AcDbEntity
  8
姿図
100
AcDbLine
 10
7884.576968937752
 20
-6334.112362346738
 30
0.0
 11
7884.548169543558
 21
-6333.917931743172
 31
0.0
  0
LINE
  5
1C4AFB
330
18
100
AcDbEntity
  8
姿図
100
AcDbLine
 10
7884.220916342101
 20
-6331.708578412853
 30
0.0
 11
7884.192116947904
 21
-6331.514147809286
 31
0.0
  0
LINE
  5
1C4AFC
330
18
100
AcDbEntity
  8
姿図
100
AcDbLine
 10
7893.294053717387
 20
-6330.586216857334
 30
0.0
 11
7893.351652505778
 21
-6330.975078064467
 31
0.0
  0
LINE
  5
1C4AFD
330
18
100
AcDbEntity
  8
姿図
100
AcDbLine
 10
7893.996883829648
 20
-6330.501982098582
 30
0.0
 11
7894.05448261804
 21
-6330.890843305716
 31
0.0
  0
LINE
  5
1C4AFE
330
18
100
AcDbEntity
  8
姿図
100
AcDbLine
 10
7893.802453226078
 20
-6330.530781492779
 30
0.0
 11
7893.860052014471
 21
-6330.919642699914
 31
0.0
  0
LINE
  5
1C4AFF
330
18
100
AcDbEntity
  8
姿図
100
AcDbLine
 10
7893.488484320953
 20
-6330.557417463136
 30
0.0
 11
7893.546083109346
 21
-6330.946278670269
 31
0.0
  0
LINE
  5
1C4B00
330
18
100
AcDbEntity
  8
姿図
100
AcDbLine
 10
7888.467778515762
 20
-6334.221930373063
 30
0.0
 11
7887.891790631839
 21
-6330.333318301722
 31
0.0
  0
LINE
  5
1C4B01
330
18
100
AcDbEntity
  8
姿図
100
AcDbLine
 10
7887.981702006843
 20
-6334.293928858553
 30
0.0
 11
7887.405714122923
 21
-6330.405316787213
 31
0.0
  0
LINE
  5
1C4B02
330
18
100
AcDbEntity
  8
姿図
100
AcDbLine
 10
7893.087331332172
 20
-6332.544192197422
 30
0.0
 11
7892.79933739021
 21
-6330.599886161752
 31
0.0
  0
LINE
  5
1C4B03
330
18
100
AcDbEntity
  8
姿図
100
AcDbLine
 10
7887.981702006843
 20
-6334.293928858553
 30
0.0
 11
7888.467778515762
 21
-6334.221930373063
 31
0.0
  0
ARC
  5
1C4B04
330
18
100
AcDbEntity
  8
姿図
100
AcDbCircle
 10
7888.662209119328
 20
-6334.193130978866
 30
0.0
 40
0.1965519389613931
100
AcDbArc
 50
98.42548696146934
 51
188.4254869614691
  0
ARC
  5
1C4B05
330
18
100
AcDbEntity
  8
姿図
100
AcDbCircle
 10
7893.448867807561
 20
-6330.960678367368
 30
0.0
 40
0.0982759694806966
100
AcDbArc
 50
188.4254869614691
 51
278.4254869614693
  0
ARC
  5
1C4B06
330
18
100
AcDbEntity
  8
姿図
100
AcDbCircle
 10
7893.604384536221
 20
-6332.010603626631
 30
0.0
 40
0.0982759694806966
100
AcDbArc
 50
98.42548696146934
 51
188.4254869614691
  0
LINE
  5
1C4B07
330
18
100
AcDbEntity
  8
姿図
100
AcDbLine
 10
7893.564768022828
 20
-6332.413864530863
 30
0.0
 11
7893.507169234438
 21
-6332.025003323727
 31
0.0
  0
ARC
  5
1C4B08
330
18
100
AcDbEntity
  8
姿図
100
AcDbCircle
 10
7895.074161574846
 20
-6330.799415636967
 30
0.0
 40
0.0982759694806966
100
AcDbArc
 50
278.4254869614693
 51
8.425486961469196
  0
ARC
  5
1C4B09
330
18
100
AcDbEntity
  8
姿図
100
AcDbCircle
 10
7895.206638788147
 20
-6331.693796413375
 30
0.0
 40
0.0982759694806966
100
AcDbArc
 50
8.425486961469196
 51
98.42548696146934
  0
LINE
  5
1C4B0A
330
18
100
AcDbEntity
  8
姿図
100
AcDbLine
 10
7895.113778088237
 20
-6330.396154732736
 30
0.0
 11
7895.171376876629
 21
-6330.78501593987
 31
0.0
  0
ARC
  5
1C4B0B
330
18
100
AcDbEntity
  8
姿図
100
AcDbCircle
 10
7895.074161574846
 20
-6330.799415636967
 30
0.0
 40
0.0982759694806966
100
AcDbArc
 50
188.4254869614691
 51
278.4254869614693
  0
LINE
  5
1C4B0C
330
18
100
AcDbEntity
  8
姿図
100
AcDbLine
 10
7894.919347484671
 20
-6330.42495412693
 30
0.0
 11
7894.976946273061
 21
-6330.813815334065
 31
0.0
  0
ARC
  5
1C4B0D
330
18
100
AcDbEntity
  8
姿図
100
AcDbCircle
 10
7895.206638788147
 20
-6331.693796413375
 30
0.0
 40
0.0982759694806966
100
AcDbArc
 50
98.42548696146934
 51
188.4254869614691
  0
LINE
  5
1C4B0E
330
18
100
AcDbEntity
  8
姿図
100
AcDbLine
 10
7895.361452878323
 20
-6332.068257923411
 30
0.0
 11
7895.303854089933
 21
-6331.679396716277
 31
0.0
  0
LINE
  5
1C4B0F
330
18
100
AcDbEntity
  8
姿図
100
AcDbLine
 10
7895.167022274758
 20
-6332.097057317608
 30
0.0
 11
7895.109423486364
 21
-6331.708196110473
 31
0.0
  0
ARC
  5
1C4B10
330
18
100
AcDbEntity
  8
姿図
100
AcDbCircle
 10
7895.702099385101
 20
-6330.746143696253
 30
0.0
 40
0.0982759694806966
100
AcDbArc
 50
278.4254869614693
 51
8.425486961469196
  0
ARC
  5
1C4B11
330
18
100
AcDbEntity
  8
姿図
100
AcDbCircle
 10
7895.702099385101
 20
-6330.746143696253
 30
0.0
 40
0.0982759694806966
100
AcDbArc
 50
188.4254869614691
 51
278.4254869614693
  0
LINE
  5
1C4B12
330
18
100
AcDbEntity
  8
姿図
100
AcDbLine
 10
7895.547285294924
 20
-6330.371682186218
 30
0.0
 11
7895.604884083318
 21
-6330.76054339335
 31
0.0
  0
LINE
  5
1C4B13
330
18
100
AcDbEntity
  8
姿図
100
AcDbLine
 10
7895.741715898492
 20
-6330.34288279202
 30
0.0
 11
7895.799314686883
 21
-6330.731743999155
 31
0.0
  0
ARC
  5
1C4B14
330
18
100
AcDbEntity
  8
姿図
100
AcDbCircle
 10
7895.823056840723
 20
-6331.562752231233
 30
0.0
 40
0.0982759694806966
100
AcDbArc
 50
8.425486961469196
 51
98.42548696146934
  0
ARC
  5
1C4B15
330
18
100
AcDbEntity
  8
姿図
100
AcDbCircle
 10
7895.823056840723
 20
-6331.562752231233
 30
0.0
 40
0.0982759694806966
100
AcDbArc
 50
98.42548696146934
 51
188.4254869614691
  0
LINE
  5
1C4B16
330
18
100
AcDbEntity
  8
姿図
100
AcDbLine
 10
7895.783440327329
 20
-6331.966013135465
 30
0.0
 11
7895.72584153894
 21
-6331.577151928332
 31
0.0
  0
LINE
  5
1C4B17
330
18
100
AcDbEntity
  8
姿図
100
AcDbLine
 10
7895.977870930898
 20
-6331.93721374127
 30
0.0
 11
7895.920272142508
 21
-6331.548352534137
 31
0.0
  0
ARC
  5
1C4B18
330
18
100
AcDbEntity
  8
姿図
100
AcDbCircle
 10
7893.448867807561
 20
-6330.960678367368
 30
0.0
 40
0.0982759694806966
100
AcDbArc
 50
278.4254869614693
 51
8.425486961469196
  0
ARC
  5
1C4B19
330
18
100
AcDbEntity
  8
姿図
100
AcDbCircle
 10
7893.604384536221
 20
-6332.010603626631
 30
0.0
 40
0.0982759694806966
100
AcDbArc
 50
8.425486961469196
 51
98.42548696146934
  0
ARC
  5
1C4B1A
330
18
100
AcDbEntity
  8
姿図
100
AcDbCircle
 10
7894.507432885082
 20
-6330.86349081978
 30
0.0
 40
0.0982759694806966
100
AcDbArc
 50
278.4254869614693
 51
8.425486961469196
  0
LINE
  5
1C4B1B
330
18
100
AcDbEntity
  8
姿図
100
AcDbLine
 10
7894.547049398474
 20
-6330.460229915548
 30
0.0
 11
7894.604648186865
 21
-6330.849091122683
 31
0.0
  0
ARC
  5
1C4B1C
330
18
100
AcDbEntity
  8
姿図
100
AcDbCircle
 10
7894.507432885082
 20
-6330.86349081978
 30
0.0
 40
0.0982759694806966
100
AcDbArc
 50
188.4254869614691
 51
278.4254869614693
  0
LINE
  5
1C4B1D
330
18
100
AcDbEntity
  8
姿図
100
AcDbLine
 10
7894.352618794906
 20
-6330.489029309742
 30
0.0
 11
7894.410217583299
 21
-6330.877890516877
 31
0.0
  0
ARC
  5
1C4B1E
330
18
100
AcDbEntity
  8
姿図
100
AcDbCircle
 10
7893.957267316257
 20
-6330.905243002815
 30
0.0
 40
0.0982759694806966
100
AcDbArc
 50
278.4254869614693
 51
8.425486961469196
  0
ARC
  5
1C4B1F
330
18
100
AcDbEntity
  8
姿図
100
AcDbCircle
 10
7893.957267316257
 20
-6330.905243002815
 30
0.0
 40
0.0982759694806966
100
AcDbArc
 50
188.4254869614691
 51
278.4254869614693
  0
ARC
  5
1C4B20
330
18
100
AcDbEntity
  8
姿図
100
AcDbCircle
 10
7894.645669977224
 20
-6331.796757716902
 30
0.0
 40
0.0982759694806966
100
AcDbArc
 50
8.425486961469196
 51
98.42548696146934
  0
ARC
  5
1C4B21
330
18
100
AcDbEntity
  8
姿図
100
AcDbCircle
 10
7894.645669977224
 20
-6331.796757716902
 30
0.0
 40
0.0982759694806966
100
AcDbArc
 50
98.42548696146934
 51
188.4254869614691
  0
LINE
  5
1C4B22
330
18
100
AcDbEntity
  8
姿図
100
AcDbLine
 10
7894.800484067399
 20
-6332.171219226935
 30
0.0
 11
7894.742885279007
 21
-6331.782358019803
 31
0.0
  0
LINE
  5
1C4B23
330
18
100
AcDbEntity
  8
姿図
100
AcDbLine
 10
7894.606053463835
 20
-6332.200018621133
 30
0.0
 11
7894.54845467544
 21
-6331.811157414
 31
0.0
  0
ARC
  5
1C4B24
330
18
100
AcDbEntity
  8
姿図
100
AcDbCircle
 10
7894.107024166075
 20
-6331.916282141363
 30
0.0
 40
0.0982759694806966
100
AcDbArc
 50
8.425486961469196
 51
98.42548696146934
  0
ARC
  5
1C4B25
330
18
100
AcDbEntity
  8
姿図
100
AcDbCircle
 10
7894.107024166075
 20
-6331.916282141363
 30
0.0
 40
0.0982759694806966
100
AcDbArc
 50
98.42548696146934
 51
188.4254869614691
  0
LINE
  5
1C4B26
330
18
100
AcDbEntity
  8
姿図
100
AcDbLine
 10
7894.26183825625
 20
-6332.2907436514
 30
0.0
 11
7894.204239467858
 21
-6331.901882444266
 31
0.0
  0
LINE
  5
1C4B27
330
18
100
AcDbEntity
  8
姿図
100
AcDbLine
 10
7894.067407652684
 20
-6332.319543045596
 30
0.0
 11
7894.009808864291
 21
-6331.930681838463
 31
0.0
  0
LINE
  5
1C4B28
330
18
100
AcDbEntity
  8
姿図
100
AcDbLine
 10
7893.759198626397
 20
-6332.385065136667
 30
0.0
 11
7893.701599838005
 21
-6331.996203929533
 31
0.0
  0
LINE
  5
1C4B29
330
18
100
AcDbEntity
  8
姿図
100
AcDbLine
 10
7887.405714122923
 20
-6330.405316787213
 30
0.0
 11
7887.891790631839
 21
-6330.333318301722
 31
0.0
  0
ARC
  5
1C4B2A
330
18
100
AcDbEntity
  8
姿図
100
AcDbCircle
 10
7888.086221235404
 20
-6330.304518907526
 30
0.0
 40
0.1965519389613931
100
AcDbArc
 50
188.4254869614691
 51
278.4254869614693
  0
LINE
  5
1C4B2B
330
18
100
AcDbEntity
  8
姿図
100
AcDbLine
 10
7896.558282802182
 20
-6331.831372498324
 30
0.0
 11
7896.325007709193
 21
-6330.256484609432
 31
0.0
  0
SPLINE
  5
1C4B2C
330
18
100
AcDbEntity
  8
姿図
100
AcDbSpline
210
0.0
220
0.0
230
1.0
 70
     8
 71
     3
 72
    10
 73
     6
 74
     0
 42
0.0000000001
 43
0.0000000001
 40
0.0
 40
0.0
 40
0.0
 40
0.0
 40
2.522395166429207
 40
4.753483689757254
 40
6.925806654842216
 40
6.925806654842216
 40
6.925806654842216
 40
6.925806654842216
 10
7889.376517368832
 20
-6319.695952056122
 30
0.0
 10
7887.101143943901
 20
-6318.359627026479
 30
0.0
 10
7882.813175663807
 20
-6315.841306615323
 30
0.0
 10
7879.132764857235
 20
-6323.059034159938
 30
0.0
 10
7874.632244171152
 20
-6321.432790548861
 30
0.0
 10
7872.839702148363
 20
-6320.201174526481
 30
0.0
  0
SPLINE
  5
1C4B2D
330
18
100
AcDbEntity
  8
姿図
100
AcDbSpline
210
0.0
220
0.0
230
1.0
 70
     8
 71
     3
 72
    10
 73
     6
 74
     0
 42
0.0000000001
 43
0.0000000001
 40
0.2158087061561264
 40
0.2158087061561264
 40
0.2158087061561264
 40
0.2158087061561264
 40
2.522395166429207
 40
4.753483689757254
 40
6.834529910178967
 40
6.834529910178967
 40
6.834529910178967
 40
6.834529910178967
 10
7889.021601069727
 20
-6320.497249926042
 30
0.0
 10
7886.944222845366
 20
-6319.289340634016
 30
0.0
 10
7882.927289505421
 20
-6317.209187880753
 30
0.0
 10
7879.41006555463
 20
-6324.1068864053
 30
0.0
 10
7875.046690963149
 20
-6322.640515924546
 30
0.0
 10
7872.879364620901
 20
-6321.340881570531
 30
0.0
  0
SPLINE
  5
1C4B2E
330
18
100
AcDbEntity
  8
姿図
100
AcDbSpline
210
0.0
220
0.0
230
1.0
 70
     8
 71
     3
 72
     9
 73
     5
 74
     0
 42
0.0000000001
 43
0.0000000001
 40
0.0
 40
0.0
 40
0.0
 40
0.0
 40
0.6861542826689156
 40
1.191420641315228
 40
1.191420641315228
 40
1.191420641315228
 40
1.191420641315228
 10
7901.417593568591
 20
-6325.39219080999
 30
0.0
 10
7902.023766607932
 20
-6325.765199370267
 30
0.0
 10
7903.076309876294
 20
-6326.412881836625
 30
0.0
 10
7902.785860060669
 20
-6327.187438469878
 30
0.0
 10
7902.514139992979
 20
-6327.511914909248
 30
0.0
  0
SPLINE
  5
1C4B2F
330
18
100
AcDbEntity
  8
姿図
100
AcDbSpline
210
0.0
220
0.0
230
1.0
 70
     8
 71
     3
 72
     9
 73
     5
 74
     0
 42
0.0000000001
 43
0.0000000001
 40
0.0
 40
0.0
 40
0.0
 40
0.0
 40
0.958314036486835
 40
1.632594009329342
 40
1.632594009329342
 40
1.632594009329342
 40
1.632594009329342
 10
7901.992061341187
 20
-6324.774454486496
 30
0.0
 10
7902.838206702906
 20
-6325.300638334995
 30
0.0
 10
7904.279708962045
 20
-6326.197050749045
 30
0.0
 10
7903.784612841066
 20
-6327.373782913793
 30
0.0
 10
7903.394386647192
 20
-6327.847364740111
 30
0.0
  0
SPLINE
  5
1C4B30
330
18
100
AcDbEntity
  8
姿図
100
AcDbSpline
210
0.0
220
0.0
230
1.0
 70
     8
 71
     3
 72
    10
 73
     6
 74
     4
 42
0.0000000001
 43
0.0000000001
 44
0.0000000001
 40
0.0
 40
0.0
 40
0.0
 40
0.0
 40
0.4497829499123327
 40
0.7608985765900798
 40
1.279877263551497
 40
1.279877263551497
 40
1.279877263551497
 40
1.279877263551497
 10
7902.479286431293
 20
-6327.521211331344
 30
0.0
 10
7902.683926985504
 20
-6327.466498427103
 30
0.0
 10
7903.030117756947
 20
-6327.373940514522
 30
0.0
 10
7902.822298605288
 20
-6328.008385420702
 30
0.0
 10
7903.207326747329
 20
-6327.900055383207
 30
0.0
 10
7903.448048068167
 20
-6327.832326958021
 30
0.0
 11
7902.479286431293
 21
-6327.521211331344
 31
0.0
 11
7902.929069381205
 21
-6327.521211331344
 31
0.0
 11
7902.929069381205
 21
-6327.832326958021
 31
0.0
 11
7903.448048068167
 21
-6327.832326958021
 31
0.0
  0
SPLINE
  5
1C4B31
330
18
100
AcDbEntity
  8
姿図
100
AcDbSpline
210
0.0
220
0.0
230
1.0
 70
     8
 71
     3
 72
    10
 73
     6
 74
     4
 42
0.0000000001
 43
0.0000000001
 44
0.0000000001
 40
0.0
 40
0.0
 40
0.0
 40
0.0
 40
0.4497829499123327
 40
0.7608985765891703
 40
1.279877263550588
 40
1.279877263550588
 40
1.279877263550588
 40
1.279877263550588
 10
7901.295445420752
 20
-6328.659954740133
 30
0.0
 10
7901.500085974963
 20
-6328.605241835892
 30
0.0
 10
7901.846276746406
 20
-6328.512683923311
 30
0.0
 10
7901.638457594747
 20
-6329.14712882949
 30
0.0
 10
7902.023485736788
 20
-6329.038798791995
 30
0.0
 10
7902.264207057625
 20
-6328.97107036681
 30
0.0
 11
7901.295445420752
 21
-6328.659954740133
 31
0.0
 11
7901.745228370664
 21
-6328.659954740133
 31
0.0
 11
7901.745228370664
 21
-6328.97107036681
 31
0.0
 11
7902.264207057625
 21
-6328.97107036681
 31
0.0
  0
SPLINE
  5
1C4B32
330
18
100
AcDbEntity
  8
姿図
100
AcDbSpline
210
0.0
220
0.0
230
1.0
 70
     8
 71
     3
 72
     9
 73
     5
 74
     0
 42
0.0000000001
 43
0.0000000001
 40
1.79301012679077
 40
1.79301012679077
 40
1.79301012679077
 40
1.79301012679077
 40
2.676118933950087
 40
4.001847794365655
 40
4.001847794365655
 40
4.001847794365655
 40
4.001847794365655
 10
7902.248424937234
 20
-6328.975509238837
 30
0.0
 10
7901.632309372459
 20
-6329.583555854057
 30
0.0
 10
7899.441945204259
 20
-6330.989624371603
 30
0.0
 10
7897.659719967101
 20
-6331.261966989936
 30
0.0
 10
7896.590040892288
 20
-6331.425425117414
 30
0.0
  0
SPLINE
  5
1C4B33
330
18
100
AcDbEntity
  8
姿図
100
AcDbSpline
210
0.0
220
0.0
230
1.0
 70
     8
 71
     3
 72
     9
 73
     5
 74
     0
 42
0.0000000001
 43
0.0000000001
 40
1.37201545132377
 40
1.37201545132377
 40
1.37201545132377
 40
1.37201545132377
 40
2.247931167116882
 40
3.23096474985547
 40
3.23096474985547
 40
3.23096474985547
 40
3.23096474985547
 10
7901.332240767363
 20
-6328.650143064688
 30
0.0
 10
7900.697707254142
 20
-6329.201745356865
 30
0.0
 10
7898.615613162752
 20
-6330.28572964152
 30
0.0
 10
7897.154893043041
 20
-6330.556370255171
 30
0.0
 10
7896.382447590231
 20
-6330.699488097216
 30
0.0
  0
SPLINE
  5
1C4B34
330
18
100
AcDbEntity
  8
姿図
100
AcDbSpline
210
0.0
220
0.0
230
1.0
 70
     8
 71
     3
 72
    30
 73
    26
 74
    24
 42
0.0000000001
 43
0.0000000001
 44
0.0000000001
 40
0.0
 40
0.0
 40
0.0
 40
0.0
 40
0.9411266388177164
 40
1.92993338100317
 40
2.779342917879588
 40
3.232495962539925
 40
3.421690587443167
 40
3.565388268524702
 40
3.709405650379105
 40
3.932783134182744
 40
4.129888541591753
 40
4.224992516194165
 40
4.299124286965964
 40
4.398732322770763
 40
4.487182984210885
 40
4.550863111853729
 40
4.63248881302311
 40
4.682415020971964
 40
4.733441819197746
 40
4.784210761953801
 40
4.833271278750372
 40
4.879114355575623
 40
4.920192408374286
 40
4.968566367424203
 40
5.005131007894616
 40
5.005131007894616
 40
5.005131007894616
 40
5.005131007894616
 10
7888.115020629602
 20
-6330.498949511095
 30
0.0
 10
7888.42757443176
 20
-6330.468904201874
 30
0.0
 10
7889.06851688442
 20
-6330.407291404178
 30
0.0
 10
7889.995909226128
 20
-6330.429358648926
 30
0.0
 10
7890.757907751205
 20
-6330.55153146064
 30
0.0
 10
7891.215855871362
 20
-6330.751095269342
 30
0.0
 10
7891.474501027691
 20
-6330.803357803016
 30
0.0
 10
7891.637150768123
 20
-6330.783518681958
 30
0.0
 10
7891.780922425974
 20
-6330.68499476245
 30
0.0
 10
7891.910086771783
 20
-6330.548990113165
 30
0.0
 10
7892.029791549041
 20
-6330.424453432367
 30
0.0
 10
7892.130345622032
 20
-6330.354430291347
 30
0.0
 10
7892.209912928464
 20
-6330.312599479228
 30
0.0
 10
7892.295891846714
 20
-6330.290573232465
 30
0.0
 10
7892.380839439654
 20
-6330.294108082084
 30
0.0
 10
7892.456222631198
 20
-6330.315499795707
 30
0.0
 10
7892.51440947936
 20
-6330.345560048804
 30
0.0
 10
7892.564998159556
 20
-6330.379423735131
 30
0.0
 10
7892.605262256573
 20
-6330.410077987376
 30
0.0
 10
7892.643770807267
 20
-6330.442437095026
 30
0.0
 10
7892.67972357916
 20
-6330.475088196784
 30
0.0
 10
7892.71235272477
 20
-6330.50656279565
 30
0.0
 10
7892.743877899919
 20
-6330.538811204869
 30
0.0
 10
7892.772932722618
 20
-6330.569167931631
 30
0.0
 10
7892.79139128789
 20
-6330.590641955258
 30
0.0
 10
7892.79933739021
 20
-6330.599886161752
 30
0.0
 11
7888.115020629602
 21
-6330.498949511095
 31
0.0
 11
7889.053401299952
 21
-6330.427108938952
 31
0.0
 11
7890.04182574795
 21
-6330.454602283437
 31
0.0
 11
7890.875522386328
 21
-6330.617226010164
 31
0.0
 11
7891.30393966834
 21
-6330.764895622334
 31
0.0
 11
7891.490762282455
 21
-6330.794760600941
 31
0.0
 11
7891.632753768806
 21
-6330.772682526929
 31
0.0
 11
7891.755634896934
 21
-6330.697574374067
 31
0.0
 11
7891.916496861528
 21
-6330.542587508116
 31
0.0
 11
7892.059098739956
 21
-6330.406516769532
 31
0.0
 11
7892.13725005931
 21
-6330.352321407476
 31
0.0
 11
7892.203383999038
 21
-6330.318827804298
 31
0.0
 11
7892.300052788726
 21
-6330.29480893886
 31
0.0
 11
7892.388428889863
 21
-6330.298439952119
 31
0.0
 11
7892.44975318746
 21
-6330.315600639189
 31
0.0
 11
7892.522795575175
 21
-6330.352036400309
 31
0.0
 11
7892.564404376568
 21
-6330.379628679787
 31
0.0
 11
7892.605071982124
 21
-6330.410448803009
 31
0.0
 11
7892.643988455295
 21
-6330.443052386625
 31
0.0
 11
7892.680343859527
 21
-6330.475995047287
 31
0.0
 11
7892.713328258266
 21
-6330.507832401647
 31
0.0
 11
7892.742131714958
 21
-6330.537120066359
 31
0.0
 11
7892.775290572672
 21
-6330.572341225756
 31
0.0
 11
7892.79933739021
 21
-6330.599886161752
 31
0.0
  0
SPLINE
  5
1C4B35
330
18
100
AcDbEntity
  8
姿図
100
AcDbSpline
210
0.0
220
0.0
230
1.0
 70
     8
 71
     3
 72
    30
 73
    26
 74
    24
 42
0.0000000001
 43
0.0000000001
 44
0.0000000001
 40
0.0
 40
0.0
 40
0.0
 40
0.0
 40
0.9411266388186795
 40
1.929933381004491
 40
2.779342917878136
 40
3.232495962540824
 40
3.421690587446278
 40
3.565388268527415
 40
3.70940565037787
 40
3.932783134185029
 40
4.129888541590979
 40
4.22499251619367
 40
4.299124286967645
 40
4.398732322771924
 40
4.487182984208501
 40
4.550863111851202
 40
4.632488813023509
 40
4.682415020973381
 40
4.733441819196905
 40
4.78421076195436
 40
4.833271278750898
 40
4.879114355576295
 40
4.920192408372916
 40
4.968566367422679
 40
5.005131007895752
 40
5.005131007895752
 40
5.005131007895752
 40
5.005131007895752
 10
7888.633409725134
 20
-6333.9987003753
 30
0.0
 10
7888.941252720828
 20
-6333.936851447647
 30
0.0
 10
7889.572534897948
 20
-6333.81002015297
 30
0.0
 10
7890.453709919405
 20
-6333.520064811042
 30
0.0
 10
7891.147573868085
 20
-6333.182247154812
 30
0.0
 10
7891.528008371534
 20
-6332.858500675154
 30
0.0
 10
7891.760397776825
 20
-6332.733505260734
 30
0.0
 10
7891.92181469045
 20
-6332.705343073637
 30
0.0
 10
7892.087973523878
 20
-6332.757959557651
 30
0.0
 10
7892.251017294761
 20
-6332.850681839931
 30
0.0
 10
7892.40168329886
 20
-6332.935170737266
 30
0.0
 10
7892.51821832321
 20
-6332.973038269155
 30
0.0
 10
7892.606495223837
 20
-6332.990007709698
 30
0.0
 10
7892.695167420116
 20
-6332.986164334069
 30
0.0
 10
7892.775442837299
 20
-6332.958156369052
 30
0.0
 10
7892.841388121573
 20
-6332.915830839398
 30
0.0
 10
7892.888362573978
 20
-6332.870193914247
 30
0.0
 10
7892.926962556649
 20
-6332.823119450328
 30
0.0
 10
7892.956611634915
 20
-6332.782109538753
 30
0.0
 10
7892.984086337301
 20
-6332.739976878581
 30
0.0
 10
7893.009030356735
 20
-6332.698305639732
 30
0.0
 10
7893.031134508459
 20
-6332.658723851071
 30
0.0
 10
7893.051957777268
 20
-6332.618721500618
 30
0.0
 10
7893.07096513297
 20
-6332.581245721633
 30
0.0
 10
7893.082406161536
 20
-6332.555342918925
 30
0.0
 10
7893.087331332172
 20
-6332.544192197422
 30
0.0
 11
7888.633409725134
 21
-6333.9987003753
 31
0.0
 11
7889.552323572939
 21
-6333.795435300567
 31
0.0
 11
7890.490337166655
 21
-6333.482594652004
 31
0.0
 11
7891.241094605732
 21
-6333.085278872045
 31
0.0
 11
7891.6083095316
 21
-6332.819758853766
 31
0.0
 11
7891.778452991417
 21
-6332.737019448558
 31
0.0
 11
7891.92074771077
 21
-6332.716988562599
 31
0.0
 11
7892.06012517106
 21
-6332.753250523913
 31
0.0
 11
7892.259008156687
 21
-6332.854951351343
 31
0.0
 11
7892.434931637301
 21
-6332.943841567888
 31
0.0
 11
7892.525437627982
 21
-6332.973055120152
 31
0.0
 11
7892.598441145842
 21
-6332.985939444674
 31
0.0
 11
7892.697921838652
 21
-6332.980904312621
 31
0.0
 11
7892.781450674424
 21
-6332.951810445515
 31
0.0
 11
7892.835167230107
 21
-6332.917609710112
 31
0.0
 11
7892.894511200797
 21
-6332.861564654714
 31
0.0
 11
7892.926334859483
 21
-6332.823095433406
 31
0.0
 11
7892.956322037187
 21
-6332.781809802609
 31
0.0
 11
7892.984116277149
 21
-6332.739324913841
 31
0.0
 11
7893.00936112261
 21
-6332.69725791863
 31
0.0
 11
7893.031700116806
 21
-6332.657225968501
 31
0.0
 11
7893.050776802972
 21
-6332.620846214978
 31
0.0
 11
7893.072301856398
 21
-6332.577525180951
 31
0.0
 11
7893.087331332172
 21
-6332.544192197422
 31
0.0
  0
LINE
  5
1C4B36
330
18
100
AcDbEntity
  8
姿図
100
AcDbLine
 10
7889.376517368832
 20
-6319.695952056122
 30
0.0
 11
7898.820756128284
 21
-6323.514347385403
 31
0.0
  0
LINE
  5
1C4B37
330
18
100
AcDbEntity
  8
姿図
100
AcDbLine
 10
7889.021601069727
 20
-6320.497249926042
 30
0.0
 11
7898.530437992668
 21
-6324.244989579288
 31
0.0
  0
ELLIPSE
  5
1C4B38
330
18
100
AcDbEntity
  8
姿図
100
AcDbEllipse
 10
7855.783300984921
 20
-6251.884633515682
 30
0.0
 11
-13.2452930859043
 21
-0.0364019312116162
 31
0.0
210
0.0
220
0.0
230
0.9999999999999996
 40
0.1246032458382313
 41
0.0
 42
6.283185307179586
  0
SPLINE
  5
1C4B39
330
18
100
AcDbEntity
  8
姿図
100
AcDbSpline
210
0.0
220
0.0
230
1.0
 70
     8
 71
     3
 72
    26
 73
    22
 74
     0
 42
0.0000000001
 43
0.0000000001
 40
3.323027689052449
 40
3.323027689052449
 40
3.323027689052449
 40
3.323027689052449
 40
3.470756841179128
 40
3.470756841179128
 40
3.618485993305808
 40
3.618485993305808
 40
3.964439050952664
 40
3.964439050952664
 40
4.310392108599521
 40
4.310392108599521
 40
4.656345166246378
 40
4.656345166246378
 40
5.145552859524488
 40
5.145552859524488
 40
5.634760552802598
 40
5.634760552802598
 40
5.860131005620994
 40
5.860131005620994
 40
6.03454227627001
 40
6.03454227627001
 40
6.10175027171693
 40
6.10175027171693
 40
6.10175027171693
 40
6.10175027171693
 10
7868.608912245048
 20
-6251.849384992617
 30
0.0
 10
7868.529477911419
 20
-6251.795750612063
 30
0.0
 10
7868.387093001331
 20
-6251.725211250108
 30
0.0
 10
7868.00008471681
 20
-6251.585245032018
 30
0.0
 10
7867.755185666677
 20
-6251.514002650594
 30
0.0
 10
7866.786221265911
 20
-6251.283136715764
 30
0.0
 10
7865.85887783918
 20
-6251.133020198055
 30
0.0
 10
7863.637592009829
 20
-6250.882415672373
 30
0.0
 10
7862.343156460948
 20
-6250.781395044628
 30
0.0
 10
7859.543606783431
 20
-6250.640803490799
 30
0.0
 10
7858.039032276649
 20
-6250.601223468297
 30
0.0
 10
7854.369960716143
 20
-6250.585658576125
 30
0.0
 10
7852.192514165555
 20
-6250.643459358883
 30
0.0
 10
7848.289969912906
 20
-6250.879100313793
 30
0.0
 10
7846.567558709837
 20
-6251.057111402309
 30
0.0
 10
7844.691188659822
 20
-6251.370968962579
 30
0.0
 10
7844.191146727405
 20
-6251.477775344707
 30
0.0
 10
7843.498775646607
 20
-6251.671437724755
 30
0.0
 10
7843.261843703013
 20
-6251.758366293151
 30
0.0
 10
7843.042778289706
 20
-6251.866623564047
 30
0.0
 10
7842.993692967545
 20
-6251.895283314238
 30
0.0
 10
7842.957689724791
 20
-6251.919882038746
 30
0.0
  0
SPLINE
  5
1C4B3A
330
18
100
AcDbEntity
  8
姿図
100
AcDbSpline
210
0.0
220
0.0
230
1.0
 70
     8
 71
     3
 72
    26
 73
    22
 74
     0
 42
0.0000000001
 43
0.0000000001
 40
0.1814350354623973
 40
0.1814350354623973
 40
0.1814350354623973
 40
0.1814350354623973
 40
0.3291641875888636
 40
0.3291641875888636
 40
0.4768933397153299
 40
0.4768933397153299
 40
0.8228463990147506
 40
0.8228463990147506
 40
1.168799458314171
 40
1.168799458314171
 40
1.514752517613592
 40
1.514752517613592
 40
2.003960209171419
 40
2.003960209171419
 40
2.493167900729245
 40
2.493167900729245
 40
2.718538353200824
 40
2.718538353200824
 40
2.892949623557109
 40
2.892949623557109
 40
2.960157618127817
 40
2.960157618127817
 40
2.960157618127817
 40
2.960157618127817
 10
7842.95768972479
 20
-6251.919882038746
 30
0.0
 10
7843.037124058419
 20
-6251.973516419297
 30
0.0
 10
7843.17950896851
 20
-6252.044055781255
 30
0.0
 10
7843.566517253028
 20
-6252.184021999345
 30
0.0
 10
7843.811416303163
 20
-6252.255264380766
 30
0.0
 10
7844.780380707167
 20
-6252.48613031637
 30
0.0
 10
7845.707724139519
 20
-6252.63624683473
 30
0.0
 10
7847.929009982967
 20
-6252.886851361153
 30
0.0
 10
7849.223445540326
 20
-6252.987871988993
 30
0.0
 10
7852.022995235195
 20
-6253.128463542332
 30
0.0
 10
7853.527569750838
 20
-6253.168043564251
 30
0.0
 10
7857.196641312071
 20
-6253.183608454153
 30
0.0
 10
7859.374087852841
 20
-6253.125807670501
 30
0.0
 10
7863.276632085839
 20
-6252.890166714869
 30
0.0
 10
7864.999043279147
 20
-6252.712155626516
 30
0.0
 10
7866.875413319816
 20
-6252.398298066839
 30
0.0
 10
7867.375455250254
 20
-6252.291491684806
 30
0.0
 10
7868.067826327919
 20
-6252.097829305032
 30
0.0
 10
7868.304758270278
 20
-6252.01090073679
 30
0.0
 10
7868.523823681414
 20
-6251.90264346657
 30
0.0
 10
7868.572909002768
 20
-6251.873983716801
 30
0.0
 10
7868.608912245051
 20
-6251.849384992615
 30
0.0
  0
ENDSEC
  0
SECTION
  2
OBJECTS
  0
DICTIONARY
  5
C
330
0
100
AcDbDictionary
281
     1
  3
ACAD_COLOR
350
6D0
  3
ACAD_GROUP
350
D
  3
ACAD_LAYOUT
350
617
  3
ACAD_MATERIAL
350
6CF
  3
ACAD_MLEADERSTYLE
350
66C53
  3
ACAD_MLINESTYLE
350
E
  3
ACAD_PLOTSETTINGS
350
618
  3
ACAD_PLOTSTYLENAME
350
615
  3
ACAD_SCALELIST
350
66C31
  3
ACAD_TABLESTYLE
350
66C2F
  3
ACAD_VISUALSTYLE
350
66C1E
  3
AcadDim
350
12B3C
  3
ACDB_RECOMPOSE_DATA
350
66C91
  3
AcDbVariableDictionary
350
6DE
  3
DWGPROPS
350
1CED7E
  0
DICTIONARY
  5
66C93
330
8
100
AcDbDictionary
280
     1
281
     1
  0
DICTIONARY
  5
67DE7
330
2
100
AcDbDictionary
280
     1
281
     1
  3
ACAD_LAYERSTATES
360
67DE8
  0
DICTIONARY
  5
66C5B
330
F
100
AcDbDictionary
280
     1
281
     1
  3
ADSK_XREC_LAYER_RECONCILED
360
66C5C
  0
DICTIONARY
  5
66C67
330
2F4
100
AcDbDictionary
280
     1
281
     1
  3
ADSK_XREC_LAYER_RECONCILED
360
66C68
  0
DICTIONARY
  5
13ADEB
330
13ADEA
100
AcDbDictionary
280
     1
281
     1
  0
DICTIONARY
  5
142AB3
330
142AB2
100
AcDbDictionary
280
     1
281
     1
  0
DICTIONARY
  5
845D5
330
18
100
AcDbDictionary
280
     1
281
     1
  3
ACAD_SORTENTS
360
845D6
  0
DICTIONARY
  5
6D0
102
{ACAD_REACTORS
330
C
102
}
330
C
100
AcDbDictionary
281
     1
  0
DICTIONARY
  5
D
102
{ACAD_REACTORS
330
C
102
}
330
C
100
AcDbDictionary
281
     1
  3
*A1
350
11444
  3
*A10
350
1CA57D
  3
*A11
350
E83F5
  3
*A12
350
CCD2F
  3
*A13
350
CF3F2
  3
*A14
350
1A649E
  3
*A15
350
3AC3E
  3
*A16
350
1AF9C8
  3
*A17
350
3AC3D
  3
*A18
350
1AF90C
  3
*A19
350
1C673
  3
*A2
350
33CE0
  3
*A20
350
16971E
  3
*A21
350
DCD6D
  3
*A22
350
1A8180
  3
*A23
350
31E63
  3
*A24
350
120900
  3
*A25
350
3616A
  3
*A26
350
E3E76
  3
*A27
350
1B0DED
  3
*A28
350
33672
  3
*A29
350
16CAD
  3
*A3
350
1928F
  3
*A30
350
3AC3F
  3
*A31
350
10639A
  3
*A32
350
E60AA
  3
*A33
350
31E64
  3
*A34
350
1AAD7C
  3
*A35
350
1AC8BF
  3
*A36
350
1ACF7
  3
*A37
350
D1E17
  3
*A38
350
EB499
  3
*A39
350
3AC40
  3
*A4
350
1AD39E
  3
*A40
350
DCD6E
  3
*A41
350
100CC9
  3
*A42
350
3FCA9
  3
*A43
350
DFCC4
  3
*A44
350
1CBABF
  3
*A45
350
1AEAF8
  3
*A46
350
F7F9E
  3
*A47
350
1C672
  3
*A48
350
26F38
  3
*A49
350
352E7
  3
*A5
350
1CA57C
  3
*A50
350
3543B
  3
*A51
350
3610C
  3
*A52
350
EBAAA
  3
*A53
350
1B20A2
  3
*A54
350
336CA
  3
*A55
350
1B301F
  3
*A56
350
18CA7
  3
*A57
350
18076
  3
*A58
350
31E65
  3
*A59
350
26F39
  3
*A6
350
31E62
  3
*A60
350
1B537F
  3
*A61
350
D1362
  3
*A62
350
26F37
  3
*A63
350
1A7EA7
  3
*A64
350
10FF7C
  3
*A65
350
1B5D10
  3
*A66
350
26F3A
  3
*A67
350
CC1E6
  3
*A68
350
33994
  3
*A69
350
3393C
  3
*A7
350
EE85E
  3
*A70
350
1AC846
  3
*A71
350
1ACF6
  3
*A72
350
3FCA8
  3
*A73
350
169CA2
  3
*A74
350
1AD795
  3
*A75
350
EE28F
  3
*A8
350
16CDD
  3
*A9
350
3BCF2
  0
DICTIONARY
  5
617
102
{ACAD_REACTORS
330
C
102
}
330
C
100
AcDbDictionary
281
     1
  3
Model
350
619
  3
ﾚｲｱｳﾄ1
350
61A
  0
DICTIONARY
  5
6CF
102
{ACAD_REACTORS
330
C
102
}
330
C
100
AcDbDictionary
281
     1
  3
ByBlock
350
66C0E
  3
ByLayer
350
66C06
  3
Global
350
66C16
  0
DICTIONARY
  5
66C53
102
{ACAD_REACTORS
330
C
102
}
330
C
100
AcDbDictionary
281
     1
  3
Standard
350
66C54
  0
DICTIONARY
  5
E
102
{ACAD_REACTORS
330
C
102
}
330
C
100
AcDbDictionary
281
     1
  3
STANDARD
350
1B
  0
DICTIONARY
  5
618
102
{ACAD_REACTORS
330
C
102
}
330
C
100
AcDbDictionary
281
     1
  0
ACDBDICTIONARYWDFLT
  5
615
102
{ACAD_REACTORS
330
C
102
}
330
C
100
AcDbDictionary
281
     1
  3
Normal
350
616
100
AcDbDictionaryWithDefault
340
616
  0
DICTIONARY
  5
66C31
102
{ACAD_REACTORS
330
C
102
}
330
C
100
AcDbDictionary
281
     1
  3
A0
350
66C32
  3
A1
350
66C33
  3
A2
350
66C34
  3
A3
350
66C35
  3
A4
350
66C36
  3
A5
350
66C37
  3
A6
350
66C38
  3
A7
350
66C39
  3
A8
350
66C3A
  3
A9
350
66C3B
  3
B0
350
66C3C
  3
B1
350
66C3D
  3
B2
350
66C3E
  3
B3
350
66C3F
  3
B4
350
66C40
  3
B5
350
66C41
  3
B6
350
66C42
  3
B7
350
66C43
  3
B8
350
66C44
  3
B9
350
66C45
  3
C0
350
66C46
  3
C1
350
66C47
  3
C2
350
66C48
  3
C3
350
66C49
  3
C4
350
66C4A
  3
C5
350
66C4B
  3
C6
350
66C4C
  3
C7
350
66C4D
  3
C8
350
66C4E
  3
C9
350
66C4F
  3
D0
350
66C50
  3
D1
350
66C51
  3
D2
350
66C52
  0
DICTIONARY
  5
66C2F
102
{ACAD_REACTORS
330
C
102
}
330
C
100
AcDbDictionary
281
     1
  3
Standard
350
66C30
  0
DICTIONARY
  5
66C1E
102
{ACAD_REACTORS
330
C
102
}
330
C
100
AcDbDictionary
281
     1
  3
2dWireframe
350
66C24
  3
3D Hidden
350
66C26
  3
3dWireframe
350
66C25
  3
Basic
350
66C23
  3
Brighten
350
66C2A
  3
ColorChange
350
66C2E
  3
Conceptual
350
66C27
  3
Dim
350
66C29
  3
Facepattern
350
66C2D
  3
Flat
350
66C1F
  3
FlatWithEdges
350
66C20
  3
Gouraud
350
66C21
  3
GouraudWithEdges
350
66C22
  3
Linepattern
350
66C2C
  3
Realistic
350
66C28
  3
Thicken
350
66C2B
  0
XRECORD
  5
12B3C
102
{ACAD_REACTORS
330
C
102
}
330
C
100
AcDbXrecord
280
     1
 90
   990106
  3
OPEN
 60
     0
 61
     0
 62
     1
 63
     3
 64
     1
 65
     0
 66
     0
 67
     3
 68
     1
 69
     0
 70
     0
 71
     0
 72
     0
 40
0.0
170
     2
340
0
  0
XRECORD
  5
66C91
102
{ACAD_REACTORS
330
C
102
}
330
C
100
AcDbXrecord
280
     1
 90
        1
330
66C30
  0
DICTIONARY
  5
6DE
102
{ACAD_REACTORS
330
C
102
}
330
C
100
AcDbDictionary
281
     1
  3
CANNOSCALE
350
66CB7
  3
CMLEADERSTYLE
350
66CB6
  3
CTABLESTYLE
350
66CB5
  3
DIMASSOC
350
6DF
  3
INDEXCTL
350
66CB9
  3
LAYEREVAL
350
69E00
  3
LAYERNOTIFY
350
69E01
  3
LIGHTINGUNITS
350
69DFF
  3
MSLTSCALE
350
69DFE
  3
PROJECTNAME
350
6E0
  3
SORTENTS
350
66CB8
  0
XRECORD
  5
1CED7E
102
{ACAD_REACTORS
330
C
102
}
330
C
100
AcDbXrecord
280
     1
  1
DWGPROPS COOKIE
  2

  3

  4

  6

  7

  8
SPAX
  9

300
=
301
=
302
=
303
=
304
=
305
=
306
=
307
=
308
=
309
=
 40
60.44364101851852
 41
2448636.61962963
 42
2457378.621898473
  1

 90
        0
  0
DICTIONARY
  5
67DE8
102
{ACAD_REACTORS
330
67DE7
102
}
330
67DE7
100
AcDbDictionary
281
     1
  0
XRECORD
  5
66C5C
102
{ACAD_REACTORS
330
66C5B
102
}
330
66C5B
100
AcDbXrecord
280
     1
290
     1
  0
XRECORD
  5
66C68
102
{ACAD_REACTORS
330
66C67
102
}
330
66C67
100
AcDbXrecord
280
     1
290
     1
  0
SORTENTSTABLE
  5
845D6
102
{ACAD_REACTORS
330
845D5
102
}
330
845D5
100
AcDbSortentsTable
330
18
331
1C4B0B
  5
1C4B14
331
1C4B2A
  5
1C4B33
331
1C4AF4
  5
1C4AFD
331
1C4B39
  5
1C4C6E
331
1C4AFB
  5
1C4B04
331
1C4B1A
  5
1C4B23
331
1C4B29
  5
1C4B32
331
1C4B0A
  5
1C4B13
331
12B3E
  5
12B3E
331
1C4AF3
  5
1C4AFC
331
1C4B19
  5
1C4B22
331
1C4AFA
  5
1C4B03
331
1C4B38
  5
1C4C6D
331
1C4B28
  5
1C4B31
331
1C4B09
  5
1C4B12
331
1C4AF2
  5
1C4AFB
331
1C4B18
  5
1C4B21
331
1C4AF9
  5
1C4B02
331
1C4B08
  5
1C4B11
331
1C4AF1
  5
1C4AFA
331
1C4AF8
  5
1C4B01
331
1C4AF0
  5
1C4AF9
331
1C0DF9
  5
1C0E07
331
1C4B37
  5
1C4C6C
331
1C4B27
  5
1C4B30
331
1C4B36
  5
1C4C6B
331
1C4B17
  5
1C4B20
331
1C4B07
  5
1C4B10
331
1C4B26
  5
1C4B2F
331
1C4B35
  5
1C4C6A
331
1C4B16
  5
1C4B1F
331
1C4B06
  5
1C4B0F
331
1C4B25
  5
1C4B2E
331
1C4AEF
  5
1C4AF8
331
1C4B15
  5
1C4B1E
331
1C4B34
  5
1C4C69
331
1C4B05
  5
1C4B0E
331
1C4B24
  5
1C4B2D
331
1C4AEE
  5
1C4AF7
331
1C4B33
  5
1C4C68
331
1C4B14
  5
1C4B1D
331
1C4B04
  5
1C4B0D
331
1C4B23
  5
1C4B2C
331
1C4AED
  5
1C4AF6
331
1C4B32
  5
1C4C67
331
1C4B13
  5
1C4B1C
331
1C4A61
  5
1C4A6A
331
1C4B03
  5
1C4B0C
331
1C4B22
  5
1C4B2B
331
1C4AEC
  5
1C4AF5
331
1C4B12
  5
1C4B1B
331
1C4B31
  5
1C4B3A
331
1C4B02
  5
1C4B0B
331
1C4B21
  5
1C4B2A
331
1C4AEB
  5
1C4AF4
331
1C4B11
  5
1C4B1A
331
1C4B30
  5
1C4B39
331
1C4B01
  5
1C4B0A
331
1C4B20
  5
1C4B29
331
1C4AEA
  5
1C4AF3
331
1C4B2F
  5
1C4B38
331
1C4B10
  5
1C4B19
331
1C4B1F
  5
1C4B28
331
1C4B00
  5
1C4B09
331
11B04
  5
11B04
331
1C4AE9
  5
1C4AF2
331
1C4B2E
  5
1C4B37
331
1C4B0F
  5
1C4B18
331
1C4B1E
  5
1C4B27
331
1C4AFF
  5
1C4B08
331
1C4AE8
  5
1C4AF1
331
1C4B0E
  5
1C4B17
331
1C4B2D
  5
1C4B36
331
1C4AF7
  5
1C4B00
331
1C4AFE
  5
1C4B07
331
1C4B1D
  5
1C4B26
331
1C4AE7
  5
1C4AF0
331
1C4B2C
  5
1C4B35
331
1C4B0D
  5
1C4B16
331
1C4AF6
  5
1C4AFF
331
1C4B1C
  5
1C4B25
331
1C4AFD
  5
1C4B06
331
1C4AE6
  5
1C4AEF
331
1C4B2B
  5
1C4B34
331
1C4B0C
  5
1C4B15
331
1C4AF5
  5
1C4AFE
331
1C4B3A
  5
1C4C6F
331
1C4B1B
  5
1C4B24
331
1C4AFC
  5
1C4B05
  0
GROUP
  5
11444
102
{ACAD_REACTORS
330
D
102
}
330
D
100
AcDbGroup
300

 70
     1
 71
     1
  0
GROUP
  5
1CA57D
102
{ACAD_REACTORS
330
D
102
}
330
D
100
AcDbGroup
300

 70
     1
 71
     1
  0
GROUP
  5
E83F5
102
{ACAD_REACTORS
330
D
102
}
330
D
100
AcDbGroup
300

 70
     1
 71
     1
  0
GROUP
  5
CCD2F
102
{ACAD_REACTORS
330
D
102
}
330
D
100
AcDbGroup
300

 70
     1
 71
     1
  0
GROUP
  5
CF3F2
102
{ACAD_REACTORS
330
D
102
}
330
D
100
AcDbGroup
300

 70
     1
 71
     1
  0
GROUP
  5
1A649E
102
{ACAD_REACTORS
330
D
102
}
330
D
100
AcDbGroup
300

 70
     1
 71
     1
  0
GROUP
  5
3AC3E
102
{ACAD_REACTORS
330
D
102
}
330
D
100
AcDbGroup
300

 70
     1
 71
     1
  0
GROUP
  5
1AF9C8
102
{ACAD_REACTORS
330
D
102
}
330
D
100
AcDbGroup
300

 70
     1
 71
     1
  0
GROUP
  5
3AC3D
102
{ACAD_REACTORS
330
D
102
}
330
D
100
AcDbGroup
300

 70
     1
 71
     1
  0
GROUP
  5
1AF90C
102
{ACAD_REACTORS
330
D
102
}
330
D
100
AcDbGroup
300

 70
     1
 71
     1
  0
GROUP
  5
1C673
102
{ACAD_REACTORS
330
D
102
}
330
D
100
AcDbGroup
300

 70
     1
 71
     1
  0
GROUP
  5
33CE0
102
{ACAD_REACTORS
330
D
102
}
330
D
100
AcDbGroup
300

 70
     1
 71
     1
  0
GROUP
  5
16971E
102
{ACAD_REACTORS
330
D
102
}
330
D
100
AcDbGroup
300

 70
     1
 71
     1
  0
GROUP
  5
DCD6D
102
{ACAD_REACTORS
330
D
102
}
330
D
100
AcDbGroup
300

 70
     1
 71
     1
  0
GROUP
  5
1A8180
102
{ACAD_REACTORS
330
D
102
}
330
D
100
AcDbGroup
300

 70
     1
 71
     1
  0
GROUP
  5
31E63
102
{ACAD_REACTORS
330
D
102
}
330
D
100
AcDbGroup
300

 70
     1
 71
     1
  0
GROUP
  5
120900
102
{ACAD_REACTORS
330
D
102
}
330
D
100
AcDbGroup
300

 70
     1
 71
     1
  0
GROUP
  5
3616A
102
{ACAD_REACTORS
330
D
102
}
330
D
100
AcDbGroup
300

 70
     1
 71
     1
  0
GROUP
  5
E3E76
102
{ACAD_REACTORS
330
D
102
}
330
D
100
AcDbGroup
300

 70
     1
 71
     1
  0
GROUP
  5
1B0DED
102
{ACAD_REACTORS
330
D
102
}
330
D
100
AcDbGroup
300

 70
     1
 71
     1
  0
GROUP
  5
33672
102
{ACAD_REACTORS
330
D
102
}
330
D
100
AcDbGroup
300

 70
     1
 71
     1
  0
GROUP
  5
16CAD
102
{ACAD_REACTORS
330
D
102
}
330
D
100
AcDbGroup
300

 70
     1
 71
     1
  0
GROUP
  5
1928F
102
{ACAD_REACTORS
330
D
102
}
330
D
100
AcDbGroup
300

 70
     1
 71
     1
  0
GROUP
  5
3AC3F
102
{ACAD_REACTORS
330
D
102
}
330
D
100
AcDbGroup
300

 70
     1
 71
     1
  0
GROUP
  5
10639A
102
{ACAD_REACTORS
330
D
102
}
330
D
100
AcDbGroup
300

 70
     1
 71
     1
  0
GROUP
  5
E60AA
102
{ACAD_REACTORS
330
D
102
}
330
D
100
AcDbGroup
300

 70
     1
 71
     1
  0
GROUP
  5
31E64
102
{ACAD_REACTORS
330
D
102
}
330
D
100
AcDbGroup
300

 70
     1
 71
     1
  0
GROUP
  5
1AAD7C
102
{ACAD_REACTORS
330
D
102
}
330
D
100
AcDbGroup
300

 70
     1
 71
     1
  0
GROUP
  5
1AC8BF
102
{ACAD_REACTORS
330
D
102
}
330
D
100
AcDbGroup
300

 70
     1
 71
     1
  0
GROUP
  5
1ACF7
102
{ACAD_REACTORS
330
D
102
}
330
D
100
AcDbGroup
300

 70
     1
 71
     1
  0
GROUP
  5
D1E17
102
{ACAD_REACTORS
330
D
102
}
330
D
100
AcDbGroup
300

 70
     1
 71
     1
  0
GROUP
  5
EB499
102
{ACAD_REACTORS
330
D
102
}
330
D
100
AcDbGroup
300

 70
     1
 71
     1
  0
GROUP
  5
3AC40
102
{ACAD_REACTORS
330
D
102
}
330
D
100
AcDbGroup
300

 70
     1
 71
     1
  0
GROUP
  5
1AD39E
102
{ACAD_REACTORS
330
D
102
}
330
D
100
AcDbGroup
300

 70
     1
 71
     1
  0
GROUP
  5
DCD6E
102
{ACAD_REACTORS
330
D
102
}
330
D
100
AcDbGroup
300

 70
     1
 71
     1
  0
GROUP
  5
100CC9
102
{ACAD_REACTORS
330
D
102
}
330
D
100
AcDbGroup
300

 70
     1
 71
     1
  0
GROUP
  5
3FCA9
102
{ACAD_REACTORS
330
D
102
}
330
D
100
AcDbGroup
300

 70
     1
 71
     1
  0
GROUP
  5
DFCC4
102
{ACAD_REACTORS
330
D
102
}
330
D
100
AcDbGroup
300

 70
     1
 71
     1
  0
GROUP
  5
1CBABF
102
{ACAD_REACTORS
330
D
102
}
330
D
100
AcDbGroup
300

 70
     1
 71
     1
  0
GROUP
  5
1AEAF8
102
{ACAD_REACTORS
330
D
102
}
330
D
100
AcDbGroup
300

 70
     1
 71
     1
  0
GROUP
  5
F7F9E
102
{ACAD_REACTORS
330
D
102
}
330
D
100
AcDbGroup
300

 70
     1
 71
     1
  0
GROUP
  5
1C672
102
{ACAD_REACTORS
330
D
102
}
330
D
100
AcDbGroup
300

 70
     1
 71
     1
  0
GROUP
  5
26F38
102
{ACAD_REACTORS
330
D
102
}
330
D
100
AcDbGroup
300

 70
     1
 71
     1
  0
GROUP
  5
352E7
102
{ACAD_REACTORS
330
D
102
}
330
D
100
AcDbGroup
300

 70
     1
 71
     1
  0
GROUP
  5
1CA57C
102
{ACAD_REACTORS
330
D
102
}
330
D
100
AcDbGroup
300

 70
     1
 71
     1
  0
GROUP
  5
3543B
102
{ACAD_REACTORS
330
D
102
}
330
D
100
AcDbGroup
300

 70
     1
 71
     1
  0
GROUP
  5
3610C
102
{ACAD_REACTORS
330
D
102
}
330
D
100
AcDbGroup
300

 70
     1
 71
     1
  0
GROUP
  5
EBAAA
102
{ACAD_REACTORS
330
D
102
}
330
D
100
AcDbGroup
300

 70
     1
 71
     1
  0
GROUP
  5
1B20A2
102
{ACAD_REACTORS
330
D
102
}
330
D
100
AcDbGroup
300

 70
     1
 71
     1
  0
GROUP
  5
336CA
102
{ACAD_REACTORS
330
D
102
}
330
D
100
AcDbGroup
300

 70
     1
 71
     1
  0
GROUP
  5
1B301F
102
{ACAD_REACTORS
330
D
102
}
330
D
100
AcDbGroup
300

 70
     1
 71
     1
  0
GROUP
  5
18CA7
102
{ACAD_REACTORS
330
D
102
}
330
D
100
AcDbGroup
300

 70
     1
 71
     1
  0
GROUP
  5
18076
102
{ACAD_REACTORS
330
D
102
}
330
D
100
AcDbGroup
300

 70
     1
 71
     1
  0
GROUP
  5
31E65
102
{ACAD_REACTORS
330
D
102
}
330
D
100
AcDbGroup
300

 70
     1
 71
     1
  0
GROUP
  5
26F39
102
{ACAD_REACTORS
330
D
102
}
330
D
100
AcDbGroup
300

 70
     1
 71
     1
  0
GROUP
  5
31E62
102
{ACAD_REACTORS
330
D
102
}
330
D
100
AcDbGroup
300

 70
     1
 71
     1
  0
GROUP
  5
1B537F
102
{ACAD_REACTORS
330
D
102
}
330
D
100
AcDbGroup
300

 70
     1
 71
     1
  0
GROUP
  5
D1362
102
{ACAD_REACTORS
330
D
102
}
330
D
100
AcDbGroup
300

 70
     1
 71
     1
  0
GROUP
  5
26F37
102
{ACAD_REACTORS
330
D
102
}
330
D
100
AcDbGroup
300

 70
     1
 71
     1
  0
GROUP
  5
1A7EA7
102
{ACAD_REACTORS
330
D
102
}
330
D
100
AcDbGroup
300

 70
     1
 71
     1
  0
GROUP
  5
10FF7C
102
{ACAD_REACTORS
330
D
102
}
330
D
100
AcDbGroup
300

 70
     1
 71
     1
  0
GROUP
  5
1B5D10
102
{ACAD_REACTORS
330
D
102
}
330
D
100
AcDbGroup
300

 70
     1
 71
     1
  0
GROUP
  5
26F3A
102
{ACAD_REACTORS
330
D
102
}
330
D
100
AcDbGroup
300

 70
     1
 71
     1
  0
GROUP
  5
CC1E6
102
{ACAD_REACTORS
330
D
102
}
330
D
100
AcDbGroup
300

 70
     1
 71
     1
  0
GROUP
  5
33994
102
{ACAD_REACTORS
330
D
102
}
330
D
100
AcDbGroup
300

 70
     1
 71
     1
  0
GROUP
  5
3393C
102
{ACAD_REACTORS
330
D
102
}
330
D
100
AcDbGroup
300

 70
     1
 71
     1
  0
GROUP
  5
EE85E
102
{ACAD_REACTORS
330
D
102
}
330
D
100
AcDbGroup
300

 70
     1
 71
     1
  0
GROUP
  5
1AC846
102
{ACAD_REACTORS
330
D
102
}
330
D
100
AcDbGroup
300

 70
     1
 71
     1
  0
GROUP
  5
1ACF6
102
{ACAD_REACTORS
330
D
102
}
330
D
100
AcDbGroup
300

 70
     1
 71
     1
  0
GROUP
  5
3FCA8
102
{ACAD_REACTORS
330
D
102
}
330
D
100
AcDbGroup
300

 70
     1
 71
     1
  0
GROUP
  5
169CA2
102
{ACAD_REACTORS
330
D
102
}
330
D
100
AcDbGroup
300

 70
     1
 71
     1
  0
GROUP
  5
1AD795
102
{ACAD_REACTORS
330
D
102
}
330
D
100
AcDbGroup
300

 70
     1
 71
     1
  0
GROUP
  5
EE28F
102
{ACAD_REACTORS
330
D
102
}
330
D
100
AcDbGroup
300

 70
     1
 71
     1
  0
GROUP
  5
16CDD
102
{ACAD_REACTORS
330
D
102
}
330
D
100
AcDbGroup
300

 70
     1
 71
     1
  0
GROUP
  5
3BCF2
102
{ACAD_REACTORS
330
D
102
}
330
D
100
AcDbGroup
300

 70
     1
 71
     1
  0
LAYOUT
  5
619
102
{ACAD_XDICTIONARY
360
1CED7F
102
}
102
{ACAD_REACTORS
330
617
102
}
330
617
100
AcDbPlotSettings
  1

  2
JUST PDF 3
  4
A4
  6

 40
3.174999952316284
 41
3.174999952316284
 42
3.175003051757812
 43
3.17498779296875
 44
209.8886566162109
 45
297.0530090332031
 46
14.27171755861563
 47
9.855173074625582
 48
7751.065943437312
 49
-7470.740583858844
140
8626.04203591184
141
-6115.777208165511
142
1.0
143
5.0
 70
  3748
 72
     1
 73
     0
 74
     4
  7
spax form.ctb
 75
     0
147
1.312093568245777
148
-7751.065943437312
149
7470.740583858844
100
AcDbLayout
  1
Model
 70
     1
 71
     0
 10
0.0
 20
0.0
 11
12.0
 21
9.0
 12
0.0
 22
0.0
 32
0.0
 14
0.0
 24
0.0
 34
0.0
 15
0.0
 25
0.0
 35
0.0
146
0.0
 13
0.0
 23
0.0
 33
0.0
 16
1.0
 26
0.0
 36
0.0
 17
0.0
 27
1.0
 37
0.0
 76
     0
330
18
331
163677
1001
ACAD_PSEXT
1000
JUST PDF 3
1000
JUST PDF 3
1000
JUST PDF 3 Port:
1000

1070
     0
  0
LAYOUT
  5
61A
102
{ACAD_XDICTIONARY
360
1CED81
102
}
102
{ACAD_REACTORS
330
617
102
}
330
617
100
AcDbPlotSettings
  1

  2
Canon LASER SHOT LBP-750
  4

  6

 40
0.0
 41
0.0
 42
0.0
 43
0.0
 44
0.0
 45
0.0
 46
0.0
 47
0.0
 48
0.0
 49
0.0
140
0.0
141
0.0
142
1.0
143
1.0
 70
   688
 72
     0
 73
     0
 74
     5
  7
monochrome.ctb
 75
    16
147
1.0
148
0.0
149
0.0
100
AcDbLayout
  1
ﾚｲｱｳﾄ1
 70
     0
 71
     1
 10
0.0
 20
0.0
 11
12.0
 21
9.0
 12
0.0
 22
0.0
 32
0.0
 14
1.000000000000000E+20
 24
1.000000000000000E+20
 34
1.000000000000000E+20
 15
-1.000000000000000E+20
 25
-1.000000000000000E+20
 35
-1.000000000000000E+20
146
0.0
 13
0.0
 23
0.0
 33
0.0
 16
1.0
 26
0.0
 36
0.0
 17
0.0
 27
1.0
 37
0.0
 76
     0
330
15
  0
MATERIAL
  5
66C0E
102
{ACAD_XDICTIONARY
360
66C0F
102
}
102
{ACAD_REACTORS
330
6CF
102
}
330
6CF
100
AcDbMaterial
  1
ByBlock
 72
     0
 43
0.0208333333333333
 43
0.0
 43
0.0
 43
0.0
 43
0.0
 43
0.0208333333333333
 43
0.0
 43
0.0
 43
0.0
 43
0.0
 43
1.0
 43
0.0
 43
0.0
 43
0.0
 43
0.0
 43
1.0
 77
     0
 47
0.0208333333333333
 47
0.0
 47
0.0
 47
0.0
 47
0.0
 47
0.0208333333333333
 47
0.0
 47
0.0
 47
0.0
 47
0.0
 47
1.0
 47
0.0
 47
0.0
 47
0.0
 47
0.0
 47
1.0
171
     0
 49
0.0208333333333333
 49
0.0
 49
0.0
 49
0.0
 49
0.0
 49
0.0208333333333333
 49
0.0
 49
0.0
 49
0.0
 49
0.0
 49
1.0
 49
0.0
 49
0.0
 49
0.0
 49
0.0
 49
1.0
175
     0
142
0.0208333333333333
142
0.0
142
0.0
142
0.0
142
0.0
142
0.0208333333333333
142
0.0
142
0.0
142
0.0
142
0.0
142
1.0
142
0.0
142
0.0
142
0.0
142
0.0
142
1.0
179
     0
144
0.0208333333333333
144
0.0
144
0.0
144
0.0
144
0.0
144
0.0208333333333333
144
0.0
144
0.0
144
0.0
144
0.0
144
1.0
144
0.0
144
0.0
144
0.0
144
0.0
144
1.0
147
0.0208333333333333
147
0.0
147
0.0
147
0.0
147
0.0
147
0.0208333333333333
147
0.0
147
0.0
147
0.0
147
0.0
147
1.0
147
0.0
147
0.0
147
0.0
147
0.0
147
1.0
  0
MATERIAL
  5
66C06
102
{ACAD_XDICTIONARY
360
66C07
102
}
102
{ACAD_REACTORS
330
6CF
102
}
330
6CF
100
AcDbMaterial
  1
ByLayer
 72
     0
 43
0.0208333333333333
 43
0.0
 43
0.0
 43
0.0
 43
0.0
 43
0.0208333333333333
 43
0.0
 43
0.0
 43
0.0
 43
0.0
 43
1.0
 43
0.0
 43
0.0
 43
0.0
 43
0.0
 43
1.0
 77
     0
 47
0.0208333333333333
 47
0.0
 47
0.0
 47
0.0
 47
0.0
 47
0.0208333333333333
 47
0.0
 47
0.0
 47
0.0
 47
0.0
 47
1.0
 47
0.0
 47
0.0
 47
0.0
 47
0.0
 47
1.0
171
     0
 49
0.0208333333333333
 49
0.0
 49
0.0
 49
0.0
 49
0.0
 49
0.0208333333333333
 49
0.0
 49
0.0
 49
0.0
 49
0.0
 49
1.0
 49
0.0
 49
0.0
 49
0.0
 49
0.0
 49
1.0
175
     0
142
0.0208333333333333
142
0.0
142
0.0
142
0.0
142
0.0
142
0.0208333333333333
142
0.0
142
0.0
142
0.0
142
0.0
142
1.0
142
0.0
142
0.0
142
0.0
142
0.0
142
1.0
179
     0
144
0.0208333333333333
144
0.0
144
0.0
144
0.0
144
0.0
144
0.0208333333333333
144
0.0
144
0.0
144
0.0
144
0.0
144
1.0
144
0.0
144
0.0
144
0.0
144
0.0
144
1.0
147
0.0208333333333333
147
0.0
147
0.0
147
0.0
147
0.0
147
0.0208333333333333
147
0.0
147
0.0
147
0.0
147
0.0
147
1.0
147
0.0
147
0.0
147
0.0
147
0.0
147
1.0
  0
MATERIAL
  5
66C16
102
{ACAD_XDICTIONARY
360
66C17
102
}
102
{ACAD_REACTORS
330
6CF
102
}
330
6CF
100
AcDbMaterial
  1
Global
 72
     0
 43
0.0208333333333333
 43
0.0
 43
0.0
 43
0.0
 43
0.0
 43
0.0208333333333333
 43
0.0
 43
0.0
 43
0.0
 43
0.0
 43
1.0
 43
0.0
 43
0.0
 43
0.0
 43
0.0
 43
1.0
 77
     0
 47
0.0208333333333333
 47
0.0
 47
0.0
 47
0.0
 47
0.0
 47
0.0208333333333333
 47
0.0
 47
0.0
 47
0.0
 47
0.0
 47
1.0
 47
0.0
 47
0.0
 47
0.0
 47
0.0
 47
1.0
171
     0
 49
0.0208333333333333
 49
0.0
 49
0.0
 49
0.0
 49
0.0
 49
0.0208333333333333
 49
0.0
 49
0.0
 49
0.0
 49
0.0
 49
1.0
 49
0.0
 49
0.0
 49
0.0
 49
0.0
 49
1.0
175
     0
142
0.0208333333333333
142
0.0
142
0.0
142
0.0
142
0.0
142
0.0208333333333333
142
0.0
142
0.0
142
0.0
142
0.0
142
1.0
142
0.0
142
0.0
142
0.0
142
0.0
142
1.0
179
     0
144
0.0208333333333333
144
0.0
144
0.0
144
0.0
144
0.0
144
0.0208333333333333
144
0.0
144
0.0
144
0.0
144
0.0
144
1.0
144
0.0
144
0.0
144
0.0
144
0.0
144
1.0
147
0.0208333333333333
147
0.0
147
0.0
147
0.0
147
0.0
147
0.0208333333333333
147
0.0
147
0.0
147
0.0
147
0.0
147
1.0
147
0.0
147
0.0
147
0.0
147
0.0
147
1.0
  0
MLEADERSTYLE
  5
66C54
102
{ACAD_REACTORS
330
66C53
102
}
330
66C53
100
AcDbMLeaderStyle
170
     2
171
     1
172
     0
 90
        2
 40
0.0
 41
0.0
173
     1
 91
-1056964608
340
12
 92
       -2
290
     1
 42
0.09
291
     1
 43
0.36
  3
Standard
 44
0.18
300

342
10
174
     1
178
     6
175
     1
176
     0
 93
-1056964608
 45
0.18
292
     0
297
     0
 46
0.18
 94
-1056964608
 47
1.0
 49
1.0
140
1.0
293
     1
141
0.0
294
     1
177
     0
142
1.0
295
     0
296
     0
143
0.125
1001
ACAD
1000
AcRTDxfName
1000
MLEADERSTYLE
1001
ACAD_MLEADERVER
1070
     2
  0
MLINESTYLE
  5
1B
102
{ACAD_REACTORS
330
E
102
}
330
E
100
AcDbMlineStyle
  2
STANDARD
 70
     0
  3

 62
     0
 51
90.0
 52
90.0
 71
     2
 49
0.5
 62
   256
  6
BYLAYER
 49
-0.5
 62
   256
  6
BYLAYER
  0
ACDBPLACEHOLDER
  5
616
102
{ACAD_REACTORS
330
615
102
}
330
615
  0
SCALE
  5
66C32
102
{ACAD_REACTORS
330
66C31
102
}
330
66C31
100
AcDbScale
 70
     0
300
1:1
140
1.0
141
1.0
290
     1
1001
ACAD
1000
AcRTDxfName
1000
SCALE
  0
SCALE
  5
66C33
102
{ACAD_REACTORS
330
66C31
102
}
330
66C31
100
AcDbScale
 70
     0
300
1:2
140
1.0
141
2.0
290
     0
1001
ACAD
1000
AcRTDxfName
1000
SCALE
  0
SCALE
  5
66C34
102
{ACAD_REACTORS
330
66C31
102
}
330
66C31
100
AcDbScale
 70
     0
300
1:4
140
1.0
141
4.0
290
     0
1001
ACAD
1000
AcRTDxfName
1000
SCALE
  0
SCALE
  5
66C35
102
{ACAD_REACTORS
330
66C31
102
}
330
66C31
100
AcDbScale
 70
     0
300
1:5
140
1.0
141
5.0
290
     0
1001
ACAD
1000
AcRTDxfName
1000
SCALE
  0
SCALE
  5
66C36
102
{ACAD_REACTORS
330
66C31
102
}
330
66C31
100
AcDbScale
 70
     0
300
1:8
140
1.0
141
8.0
290
     0
1001
ACAD
1000
AcRTDxfName
1000
SCALE
  0
SCALE
  5
66C37
102
{ACAD_REACTORS
330
66C31
102
}
330
66C31
100
AcDbScale
 70
     0
300
1:10
140
1.0
141
10.0
290
     0
1001
ACAD
1000
AcRTDxfName
1000
SCALE
  0
SCALE
  5
66C38
102
{ACAD_REACTORS
330
66C31
102
}
330
66C31
100
AcDbScale
 70
     0
300
1:16
140
1.0
141
16.0
290
     0
1001
ACAD
1000
AcRTDxfName
1000
SCALE
  0
SCALE
  5
66C39
102
{ACAD_REACTORS
330
66C31
102
}
330
66C31
100
AcDbScale
 70
     0
300
1:20
140
1.0
141
20.0
290
     0
1001
ACAD
1000
AcRTDxfName
1000
SCALE
  0
SCALE
  5
66C3A
102
{ACAD_REACTORS
330
66C31
102
}
330
66C31
100
AcDbScale
 70
     0
300
1:30
140
1.0
141
30.0
290
     0
1001
ACAD
1000
AcRTDxfName
1000
SCALE
  0
SCALE
  5
66C3B
102
{ACAD_REACTORS
330
66C31
102
}
330
66C31
100
AcDbScale
 70
     0
300
1:40
140
1.0
141
40.0
290
     0
1001
ACAD
1000
AcRTDxfName
1000
SCALE
  0
SCALE
  5
66C3C
102
{ACAD_REACTORS
330
66C31
102
}
330
66C31
100
AcDbScale
 70
     0
300
1:50
140
1.0
141
50.0
290
     0
1001
ACAD
1000
AcRTDxfName
1000
SCALE
  0
SCALE
  5
66C3D
102
{ACAD_REACTORS
330
66C31
102
}
330
66C31
100
AcDbScale
 70
     0
300
1:100
140
1.0
141
100.0
290
     0
1001
ACAD
1000
AcRTDxfName
1000
SCALE
  0
SCALE
  5
66C3E
102
{ACAD_REACTORS
330
66C31
102
}
330
66C31
100
AcDbScale
 70
     0
300
2:1
140
2.0
141
1.0
290
     0
1001
ACAD
1000
AcRTDxfName
1000
SCALE
  0
SCALE
  5
66C3F
102
{ACAD_REACTORS
330
66C31
102
}
330
66C31
100
AcDbScale
 70
     0
300
4:1
140
4.0
141
1.0
290
     0
1001
ACAD
1000
AcRTDxfName
1000
SCALE
  0
SCALE
  5
66C40
102
{ACAD_REACTORS
330
66C31
102
}
330
66C31
100
AcDbScale
 70
     0
300
8:1
140
8.0
141
1.0
290
     0
1001
ACAD
1000
AcRTDxfName
1000
SCALE
  0
SCALE
  5
66C41
102
{ACAD_REACTORS
330
66C31
102
}
330
66C31
100
AcDbScale
 70
     0
300
10:1
140
10.0
141
1.0
290
     0
1001
ACAD
1000
AcRTDxfName
1000
SCALE
  0
SCALE
  5
66C42
102
{ACAD_REACTORS
330
66C31
102
}
330
66C31
100
AcDbScale
 70
     0
300
100:1
140
100.0
141
1.0
290
     0
1001
ACAD
1000
AcRTDxfName
1000
SCALE
  0
SCALE
  5
66C43
102
{ACAD_REACTORS
330
66C31
102
}
330
66C31
100
AcDbScale
 70
     0
300
1/128" = 1'-0"
140
0.0078125
141
12.0
290
     0
1001
ACAD
1000
AcRTDxfName
1000
SCALE
  0
SCALE
  5
66C44
102
{ACAD_REACTORS
330
66C31
102
}
330
66C31
100
AcDbScale
 70
     0
300
1/64" = 1'-0"
140
0.015625
141
12.0
290
     0
1001
ACAD
1000
AcRTDxfName
1000
SCALE
  0
SCALE
  5
66C45
102
{ACAD_REACTORS
330
66C31
102
}
330
66C31
100
AcDbScale
 70
     0
300
1/32" = 1'-0"
140
0.03125
141
12.0
290
     0
1001
ACAD
1000
AcRTDxfName
1000
SCALE
  0
SCALE
  5
66C46
102
{ACAD_REACTORS
330
66C31
102
}
330
66C31
100
AcDbScale
 70
     0
300
1/16" = 1'-0"
140
0.0625
141
12.0
290
     0
1001
ACAD
1000
AcRTDxfName
1000
SCALE
  0
SCALE
  5
66C47
102
{ACAD_REACTORS
330
66C31
102
}
330
66C31
100
AcDbScale
 70
     0
300
3/32" = 1'-0"
140
0.09375
141
12.0
290
     0
1001
ACAD
1000
AcRTDxfName
1000
SCALE
  0
SCALE
  5
66C48
102
{ACAD_REACTORS
330
66C31
102
}
330
66C31
100
AcDbScale
 70
     0
300
1/8" = 1'-0"
140
0.125
141
12.0
290
     0
1001
ACAD
1000
AcRTDxfName
1000
SCALE
  0
SCALE
  5
66C49
102
{ACAD_REACTORS
330
66C31
102
}
330
66C31
100
AcDbScale
 70
     0
300
3/16" = 1'-0"
140
0.1875
141
12.0
290
     0
1001
ACAD
1000
AcRTDxfName
1000
SCALE
  0
SCALE
  5
66C4A
102
{ACAD_REACTORS
330
66C31
102
}
330
66C31
100
AcDbScale
 70
     0
300
1/4" = 1'-0"
140
0.25
141
12.0
290
     0
1001
ACAD
1000
AcRTDxfName
1000
SCALE
  0
SCALE
  5
66C4B
102
{ACAD_REACTORS
330
66C31
102
}
330
66C31
100
AcDbScale
 70
     0
300
3/8" = 1'-0"
140
0.375
141
12.0
290
     0
1001
ACAD
1000
AcRTDxfName
1000
SCALE
  0
SCALE
  5
66C4C
102
{ACAD_REACTORS
330
66C31
102
}
330
66C31
100
AcDbScale
 70
     0
300
1/2" = 1'-0"
140
0.5
141
12.0
290
     0
1001
ACAD
1000
AcRTDxfName
1000
SCALE
  0
SCALE
  5
66C4D
102
{ACAD_REACTORS
330
66C31
102
}
330
66C31
100
AcDbScale
 70
     0
300
3/4" = 1'-0"
140
0.75
141
12.0
290
     0
1001
ACAD
1000
AcRTDxfName
1000
SCALE
  0
SCALE
  5
66C4E
102
{ACAD_REACTORS
330
66C31
102
}
330
66C31
100
AcDbScale
 70
     0
300
1" = 1'-0"
140
1.0
141
12.0
290
     0
1001
ACAD
1000
AcRTDxfName
1000
SCALE
  0
SCALE
  5
66C4F
102
{ACAD_REACTORS
330
66C31
102
}
330
66C31
100
AcDbScale
 70
     0
300
1-1/2" = 1'-0"
140
1.5
141
12.0
290
     0
1001
ACAD
1000
AcRTDxfName
1000
SCALE
  0
SCALE
  5
66C50
102
{ACAD_REACTORS
330
66C31
102
}
330
66C31
100
AcDbScale
 70
     0
300
3" = 1'-0"
140
3.0
141
12.0
290
     0
1001
ACAD
1000
AcRTDxfName
1000
SCALE
  0
SCALE
  5
66C51
102
{ACAD_REACTORS
330
66C31
102
}
330
66C31
100
AcDbScale
 70
     0
300
6" = 1'-0"
140
6.0
141
12.0
290
     0
1001
ACAD
1000
AcRTDxfName
1000
SCALE
  0
SCALE
  5
66C52
102
{ACAD_REACTORS
330
66C31
102
}
330
66C31
100
AcDbScale
 70
     0
300
1'-0" = 1'-0"
140
12.0
141
12.0
290
     0
1001
ACAD
1000
AcRTDxfName
1000
SCALE
  0
TABLESTYLE
  5
66C30
102
{ACAD_XDICTIONARY
360
66C8F
102
}
102
{ACAD_REACTORS
330
66C2F
102
}
330
66C2F
100
AcDbTableStyle
  3
Standard
 70
     0
 71
     0
 40
0.06
 41
0.06
280
     0
281
     0
  7
STANDARD
140
0.18
170
     2
 62
     0
 63
     7
283
     0
274
    -2
284
     1
 64
     0
275
    -2
285
     1
 65
     0
276
    -2
286
     1
 66
     0
277
    -2
287
     1
 67
     0
278
    -2
288
     1
 68
     0
279
    -2
289
     1
 69
     0
  7
STANDARD
140
0.25
170
     5
 62
     0
 63
     7
283
     0
274
    -2
284
     1
 64
     0
275
    -2
285
     1
 65
     0
276
    -2
286
     1
 66
     0
277
    -2
287
     1
 67
     0
278
    -2
288
     1
 68
     0
279
    -2
289
     1
 69
     0
  7
STANDARD
140
0.18
170
     5
 62
     0
 63
     7
283
     0
274
    -2
284
     1
 64
     0
275
    -2
285
     1
 65
     0
276
    -2
286
     1
 66
     0
277
    -2
287
     1
 67
     0
278
    -2
288
     1
 68
     0
279
    -2
289
     1
 69
     0
1001
ACAD
1000
AcRTDxfName
1000
TABLESTYLE
  0
VISUALSTYLE
  5
66C24
102
{ACAD_REACTORS
330
66C1E
102
}
330
66C1E
100
AcDbVisualStyle
  2
2dWireframe
 70
     4
 71
     0
 72
     2
 73
     0
 90
        0
 40
-0.6
 41
-30.0
 62
     5
 63
     7
 74
     1
 91
        4
 64
     7
 65
   257
 75
     1
175
     1
 42
1.0
 92
        0
 66
   257
 43
1.0
 76
     1
 77
     6
 78
     2
 67
     7
 79
     5
170
     0
171
     0
290
     0
174
     0
 93
        1
 44
0.0
173
     0
291
     0
 45
0.0
1001
ACAD
1000
AcRTDxfName
1000
VISUALSTYLE
1000
AcDbSavedByObjectVersion
1070
     0
  0
VISUALSTYLE
  5
66C26
102
{ACAD_REACTORS
330
66C1E
102
}
330
66C1E
100
AcDbVisualStyle
  2
3D Hidden
 70
     6
 71
     1
 72
     2
 73
     2
 90
        0
 40
-0.6
 41
-30.0
 62
     5
 63
     7
 74
     2
 91
        2
 64
     7
 65
   257
 75
     2
175
     1
 42
40.0
 92
        0
 66
   257
 43
1.0
 76
     1
 77
     6
 78
     2
 67
     7
 79
     3
170
     0
171
     0
290
     0
174
     0
 93
        1
 44
0.0
173
     0
291
     0
 45
0.0
1001
ACAD
1000
AcRTDxfName
1000
VISUALSTYLE
1000
AcDbSavedByObjectVersion
1070
     0
  0
VISUALSTYLE
  5
66C25
102
{ACAD_REACTORS
330
66C1E
102
}
330
66C1E
100
AcDbVisualStyle
  2
3dWireframe
 70
     5
 71
     0
 72
     2
 73
     0
 90
        0
 40
-0.6
 41
-30.0
 62
     5
 63
     7
 74
     1
 91
        4
 64
     7
 65
   257
 75
     1
175
     1
 42
1.0
 92
        0
 66
   257
 43
1.0
 76
     1
 77
     6
 78
     2
 67
     7
 79
     5
170
     0
171
     0
290
     0
174
     0
 93
        1
 44
0.0
173
     0
291
     0
 45
0.0
1001
ACAD
1000
AcRTDxfName
1000
VISUALSTYLE
1000
AcDbSavedByObjectVersion
1070
     0
  0
VISUALSTYLE
  5
66C23
102
{ACAD_REACTORS
330
66C1E
102
}
330
66C1E
100
AcDbVisualStyle
  2
Basic
 70
     7
 71
     1
 72
     0
 73
     1
 90
        0
 40
-0.6
 41
-30.0
 62
     5
 63
     7
 74
     0
 91
        4
 64
     7
 65
   257
 75
     1
175
     1
 42
1.0
 92
        8
 66
     7
 43
1.0
 76
     1
 77
     6
 78
     2
 67
     7
 79
     5
170
     0
171
     0
290
     0
174
     0
 93
        1
 44
0.0
173
     0
291
     1
 45
0.0
1001
ACAD
1000
AcRTDxfName
1000
VISUALSTYLE
1000
AcDbSavedByObjectVersion
1070
     0
  0
VISUALSTYLE
  5
66C2A
102
{ACAD_REACTORS
330
66C1E
102
}
330
66C1E
100
AcDbVisualStyle
  2
Brighten
 70
    12
 71
     2
 72
     2
 73
     0
 90
        0
 40
-0.6
 41
-30.0
 62
     5
 63
     7
 74
     1
 91
        4
 64
     7
 65
   257
 75
     1
175
     1
 42
1.0
 92
        8
 66
     7
 43
1.0
 76
     1
 77
     6
 78
     2
 67
     7
 79
     5
170
     0
171
     0
290
     0
174
     0
 93
        1
 44
50.0
173
     0
291
     1
 45
0.0
1001
ACAD
1000
AcRTDxfName
1000
VISUALSTYLE
1000
AcDbSavedByObjectVersion
1070
     0
  0
VISUALSTYLE
  5
66C2E
102
{ACAD_REACTORS
330
66C1E
102
}
330
66C1E
100
AcDbVisualStyle
  2
ColorChange
 70
    16
 71
     2
 72
     2
 73
     3
 90
        0
 40
-0.6
 41
-30.0
 62
     5
 63
     8
 74
     1
 91
        4
 64
     7
 65
   257
 75
     1
175
     1
 42
1.0
 92
        8
 66
     8
 43
1.0
 76
     1
 77
     6
 78
     2
 67
     7
 79
     5
170
     0
171
     0
290
     0
174
     0
 93
        1
 44
0.0
173
     0
291
     1
 45
0.0
1001
ACAD
1000
AcRTDxfName
1000
VISUALSTYLE
1000
AcDbSavedByObjectVersion
1070
     0
  0
VISUALSTYLE
  5
66C27
102
{ACAD_REACTORS
330
66C1E
102
}
330
66C1E
100
AcDbVisualStyle
  2
Conceptual
 70
     9
 71
     3
 72
     2
 73
     0
 90
        0
 40
-0.6
 41
-30.0
 62
     5
 63
     7
 74
     2
 91
        2
 64
     7
 65
   257
 75
     1
175
     1
 42
40.0
 92
        8
 66
     7
 43
1.0
 76
     1
 77
     6
 78
     2
 67
     7
 79
     3
170
     0
171
     0
290
     0
174
     0
 93
        1
 44
0.0
173
     0
291
     0
 45
0.0
1001
ACAD
1000
AcRTDxfName
1000
VISUALSTYLE
1000
AcDbSavedByObjectVersion
1070
     0
  0
VISUALSTYLE
  5
66C29
102
{ACAD_REACTORS
330
66C1E
102
}
330
66C1E
100
AcDbVisualStyle
  2
Dim
 70
    11
 71
     2
 72
     2
 73
     0
 90
        0
 40
-0.6
 41
-30.0
 62
     5
 63
     7
 74
     1
 91
        4
 64
     7
 65
   257
 75
     1
175
     1
 42
1.0
 92
        8
 66
     7
 43
1.0
 76
     1
 77
     6
 78
     2
 67
     7
 79
     5
170
     0
171
     0
290
     0
174
     0
 93
        1
 44
-50.0
173
     0
291
     1
 45
0.0
1001
ACAD
1000
AcRTDxfName
1000
VISUALSTYLE
1000
AcDbSavedByObjectVersion
1070
     0
  0
VISUALSTYLE
  5
66C2D
102
{ACAD_REACTORS
330
66C1E
102
}
330
66C1E
100
AcDbVisualStyle
  2
Facepattern
 70
    15
 71
     2
 72
     2
 73
     0
 90
        0
 40
-0.6
 41
-30.0
 62
     5
 63
     7
 74
     1
 91
        4
 64
     7
 65
   257
 75
     1
175
     1
 42
1.0
 92
        8
 66
     7
 43
1.0
 76
     1
 77
     6
 78
     2
 67
     7
 79
     5
170
     0
171
     0
290
     0
174
     0
 93
        1
 44
0.0
173
     0
291
     1
 45
0.0
1001
ACAD
1000
AcRTDxfName
1000
VISUALSTYLE
1000
AcDbSavedByObjectVersion
1070
     0
  0
VISUALSTYLE
  5
66C1F
102
{ACAD_REACTORS
330
66C1E
102
}
330
66C1E
100
AcDbVisualStyle
  2
Flat
 70
     0
 71
     2
 72
     1
 73
     1
 90
        2
 40
-0.6
 41
30.0
 62
     5
 63
     7
 74
     0
 91
        4
 64
     7
 65
   257
 75
     1
175
     1
 42
1.0
 92
        8
 66
     7
 43
1.0
 76
     1
 77
     6
 78
     2
 67
     7
 79
     5
170
     0
171
     0
290
     0
174
     0
 93
       13
 44
0.0
173
     0
291
     1
 45
0.0
1001
ACAD
1000
AcRTDxfName
1000
VISUALSTYLE
1000
AcDbSavedByObjectVersion
1070
     0
  0
VISUALSTYLE
  5
66C20
102
{ACAD_REACTORS
330
66C1E
102
}
330
66C1E
100
AcDbVisualStyle
  2
FlatWithEdges
 70
     1
 71
     2
 72
     1
 73
     1
 90
        2
 40
-0.6
 41
30.0
 62
     5
 63
     7
 74
     1
 91
        4
 64
     7
 65
   257
 75
     1
175
     1
 42
1.0
 92
        0
 66
   257
 43
1.0
 76
     1
 77
     6
 78
     2
 67
     7
 79
     5
170
     0
171
     0
290
     0
174
     0
 93
       13
 44
0.0
173
     0
291
     1
 45
0.0
1001
ACAD
1000
AcRTDxfName
1000
VISUALSTYLE
1000
AcDbSavedByObjectVersion
1070
     0
  0
VISUALSTYLE
  5
66C21
102
{ACAD_REACTORS
330
66C1E
102
}
330
66C1E
100
AcDbVisualStyle
  2
Gouraud
 70
     2
 71
     2
 72
     2
 73
     1
 90
        2
 40
-0.6
 41
30.0
 62
     5
 63
     7
 74
     0
 91
        4
 64
     7
 65
   257
 75
     1
175
     1
 42
1.0
 92
        0
 66
     7
 43
1.0
 76
     1
 77
     6
 78
     2
 67
     7
 79
     5
170
     0
171
     0
290
     0
174
     0
 93
       13
 44
0.0
173
     0
291
     1
 45
0.0
1001
ACAD
1000
AcRTDxfName
1000
VISUALSTYLE
1000
AcDbSavedByObjectVersion
1070
     0
  0
VISUALSTYLE
  5
66C22
102
{ACAD_REACTORS
330
66C1E
102
}
330
66C1E
100
AcDbVisualStyle
  2
GouraudWithEdges
 70
     3
 71
     2
 72
     2
 73
     1
 90
        2
 40
-0.6
 41
30.0
 62
     5
 63
     7
 74
     1
 91
        4
 64
     7
 65
   257
 75
     1
175
     1
 42
1.0
 92
        0
 66
   257
 43
1.0
 76
     1
 77
     6
 78
     2
 67
     7
 79
     5
170
     0
171
     0
290
     0
174
     0
 93
       13
 44
0.0
173
     0
291
     1
 45
0.0
1001
ACAD
1000
AcRTDxfName
1000
VISUALSTYLE
1000
AcDbSavedByObjectVersion
1070
     0
  0
VISUALSTYLE
  5
66C2C
102
{ACAD_REACTORS
330
66C1E
102
}
330
66C1E
100
AcDbVisualStyle
  2
Linepattern
 70
    14
 71
     2
 72
     2
 73
     0
 90
        0
 40
-0.6
 41
-30.0
 62
     5
 63
     7
 74
     1
 91
        4
 64
     7
 65
   257
 75
     7
175
     7
 42
1.0
 92
        8
 66
     7
 43
1.0
 76
     1
 77
     6
 78
     2
 67
     7
 79
     5
170
     0
171
     0
290
     0
174
     0
 93
        1
 44
0.0
173
     0
291
     1
 45
0.0
1001
ACAD
1000
AcRTDxfName
1000
VISUALSTYLE
1000
AcDbSavedByObjectVersion
1070
     0
  0
VISUALSTYLE
  5
66C28
102
{ACAD_REACTORS
330
66C1E
102
}
330
66C1E
100
AcDbVisualStyle
  2
Realistic
 70
     8
 71
     2
 72
     2
 73
     0
 90
        0
 40
-0.6
 41
-30.0
 62
     5
 63
     7
 74
     1
 91
        0
 64
     7
 65
   257
 75
     1
175
     1
 42
1.0
 92
        8
 66
     8
 43
1.0
 76
     1
 77
     6
 78
     2
 67
     7
 79
     5
170
     0
171
     0
290
     0
174
     0
 93
       13
 44
0.0
173
     0
291
     0
 45
0.0
1001
ACAD
1000
AcRTDxfName
1000
VISUALSTYLE
1000
AcDbSavedByObjectVersion
1070
     0
  0
VISUALSTYLE
  5
66C2B
102
{ACAD_REACTORS
330
66C1E
102
}
330
66C1E
100
AcDbVisualStyle
  2
Thicken
 70
    13
 71
     2
 72
     2
 73
     0
 90
        0
 40
-0.6
 41
-30.0
 62
     5
 63
     7
 74
     1
 91
        4
 64
     7
 65
   257
 75
     1
175
     1
 42
1.0
 92
       12
 66
     7
 43
1.0
 76
     1
 77
     6
 78
     2
 67
     7
 79
     5
170
     0
171
     0
290
     0
174
     0
 93
        1
 44
0.0
173
     0
291
     1
 45
0.0
1001
ACAD
1000
AcRTDxfName
1000
VISUALSTYLE
1000
AcDbSavedByObjectVersion
1070
     0
  0
DICTIONARYVAR
  5
66CB7
102
{ACAD_REACTORS
330
6DE
102
}
330
6DE
100
DictionaryVariables
280
     0
  1
1:1
  0
DICTIONARYVAR
  5
66CB6
102
{ACAD_REACTORS
330
6DE
102
}
330
6DE
100
DictionaryVariables
280
     0
  1
STANDARD
  0
DICTIONARYVAR
  5
66CB5
102
{ACAD_REACTORS
330
6DE
102
}
330
6DE
100
DictionaryVariables
280
     0
  1
STANDARD
  0
DICTIONARYVAR
  5
6DF
102
{ACAD_REACTORS
330
6DE
102
}
330
6DE
100
DictionaryVariables
280
     0
  1
1
  0
DICTIONARYVAR
  5
66CB9
102
{ACAD_REACTORS
330
6DE
102
}
330
6DE
100
DictionaryVariables
280
     0
  1
0
  0
DICTIONARYVAR
  5
69E00
102
{ACAD_REACTORS
330
6DE
102
}
330
6DE
100
DictionaryVariables
280
     0
  1
1
  0
DICTIONARYVAR
  5
69E01
102
{ACAD_REACTORS
330
6DE
102
}
330
6DE
100
DictionaryVariables
280
     0
  1
15
  0
DICTIONARYVAR
  5
69DFF
102
{ACAD_REACTORS
330
6DE
102
}
330
6DE
100
DictionaryVariables
280
     0
  1
0
  0
DICTIONARYVAR
  5
69DFE
102
{ACAD_REACTORS
330
6DE
102
}
330
6DE
100
DictionaryVariables
280
     0
  1
0
  0
DICTIONARYVAR
  5
6E0
102
{ACAD_REACTORS
330
6DE
102
}
330
6DE
100
DictionaryVariables
280
     0
  1

  0
DICTIONARYVAR
  5
66CB8
102
{ACAD_REACTORS
330
6DE
102
}
330
6DE
100
DictionaryVariables
280
     0
  1
127
  0
DICTIONARY
  5
1CED7F
330
619
100
AcDbDictionary
280
     1
281
     1
  3
ACAD_XREC_ROUNDTRIP
360
1CED80
  0
DICTIONARY
  5
1CED81
330
61A
100
AcDbDictionary
280
     1
281
     1
  3
ACAD_XREC_ROUNDTRIP
360
1CED82
  0
DICTIONARY
  5
66C0F
330
66C0E
100
AcDbDictionary
280
     1
281
     1
  3
ACAD_XREC_ROUNDTRIP
360
1CED84
  3
BUMPTILE
360
66C11
  3
DIFFUSETILE
360
66C10
  3
OPACITYTILE
360
66C14
  3
REFLECTIONTILE
360
66C13
  3
REFRACTIONTILE
360
66C15
  3
SPECULARTILE
360
66C12
  0
DICTIONARY
  5
66C07
330
66C06
100
AcDbDictionary
280
     1
281
     1
  3
ACAD_XREC_ROUNDTRIP
360
1CED83
  3
BUMPTILE
360
66C09
  3
DIFFUSETILE
360
66C08
  3
OPACITYTILE
360
66C0C
  3
REFLECTIONTILE
360
66C0B
  3
REFRACTIONTILE
360
66C0D
  3
SPECULARTILE
360
66C0A
  0
DICTIONARY
  5
66C17
330
66C16
100
AcDbDictionary
280
     1
281
     1
  3
ACAD_XREC_ROUNDTRIP
360
1CED85
  3
BUMPTILE
360
66C19
  3
DIFFUSETILE
360
66C18
  3
OPACITYTILE
360
66C1C
  3
REFLECTIONTILE
360
66C1B
  3
REFRACTIONTILE
360
66C1D
  3
SPECULARTILE
360
66C1A
  0
DICTIONARY
  5
66C8F
330
66C30
100
AcDbDictionary
280
     1
281
     1
  3
ACAD_ROUNDTRIP_2008_TABLESTYLE_CELLSTYLEMAP
360
1CED7D
  3
ACAD_XREC_ROUNDTRIP
360
1CED86
  0
XRECORD
  5
1CED80
102
{ACAD_REACTORS
330
1CED7F
102
}
330
1CED7F
100
AcDbXrecord
280
     1
102
SHADEPLOT
 70
     0
102
SHADEPLOTRESLEVEL
 70
     2
102
SHADEPLOTCUSTOMDPI
 70
   300
  0
XRECORD
  5
1CED82
102
{ACAD_REACTORS
330
1CED81
102
}
330
1CED81
100
AcDbXrecord
280
     1
102
SHADEPLOT
 70
     0
102
SHADEPLOTRESLEVEL
 70
     2
102
SHADEPLOTCUSTOMDPI
 70
   300
  0
XRECORD
  5
1CED84
102
{ACAD_REACTORS
330
66C0F
102
}
330
66C0F
100
AcDbXrecord
280
     1
102
MATERIAL
148
0.0
149
0.0
149
0.0
 93
        0
 94
      127
282
     0
 72
     0
 77
     0
171
     0
175
     0
179
     0
273
     0
  0
XRECORD
  5
66C11
102
{ACAD_REACTORS
330
66C0F
102
}
330
66C0F
100
AcDbXrecord
280
     1
270
     1
271
     1
  0
XRECORD
  5
66C10
102
{ACAD_REACTORS
330
66C0F
102
}
330
66C0F
100
AcDbXrecord
280
     1
270
     1
271
     1
  0
XRECORD
  5
66C14
102
{ACAD_REACTORS
330
66C0F
102
}
330
66C0F
100
AcDbXrecord
280
     1
270
     1
271
     1
  0
XRECORD
  5
66C13
102
{ACAD_REACTORS
330
66C0F
102
}
330
66C0F
100
AcDbXrecord
280
     1
270
     1
271
     1
  0
XRECORD
  5
66C15
102
{ACAD_REACTORS
330
66C0F
102
}
330
66C0F
100
AcDbXrecord
280
     1
270
     1
271
     1
  0
XRECORD
  5
66C12
102
{ACAD_REACTORS
330
66C0F
102
}
330
66C0F
100
AcDbXrecord
280
     1
270
     1
271
     1
  0
XRECORD
  5
1CED83
102
{ACAD_REACTORS
330
66C07
102
}
330
66C07
100
AcDbXrecord
280
     1
102
MATERIAL
148
0.0
149
0.0
149
0.0
 93
        0
 94
      127
282
     0
 72
     0
 77
     0
171
     0
175
     0
179
     0
273
     0
  0
XRECORD
  5
66C09
102
{ACAD_REACTORS
330
66C07
102
}
330
66C07
100
AcDbXrecord
280
     1
270
     1
271
     1
  0
XRECORD
  5
66C08
102
{ACAD_REACTORS
330
66C07
102
}
330
66C07
100
AcDbXrecord
280
     1
270
     1
271
     1
  0
XRECORD
  5
66C0C
102
{ACAD_REACTORS
330
66C07
102
}
330
66C07
100
AcDbXrecord
280
     1
270
     1
271
     1
  0
XRECORD
  5
66C0B
102
{ACAD_REACTORS
330
66C07
102
}
330
66C07
100
AcDbXrecord
280
     1
270
     1
271
     1
  0
XRECORD
  5
66C0D
102
{ACAD_REACTORS
330
66C07
102
}
330
66C07
100
AcDbXrecord
280
     1
270
     1
271
     1
  0
XRECORD
  5
66C0A
102
{ACAD_REACTORS
330
66C07
102
}
330
66C07
100
AcDbXrecord
280
     1
270
     1
271
     1
  0
XRECORD
  5
1CED85
102
{ACAD_REACTORS
330
66C17
102
}
330
66C17
100
AcDbXrecord
280
     1
102
MATERIAL
148
0.0
149
0.0
149
0.0
 93
        0
 94
      127
282
     0
 72
     0
 77
     0
171
     0
175
     0
179
     0
273
     0
  0
XRECORD
  5
66C19
102
{ACAD_REACTORS
330
66C17
102
}
330
66C17
100
AcDbXrecord
280
     1
270
     1
271
     1
  0
XRECORD
  5
66C18
102
{ACAD_REACTORS
330
66C17
102
}
330
66C17
100
AcDbXrecord
280
     1
270
     1
271
     1
  0
XRECORD
  5
66C1C
102
{ACAD_REACTORS
330
66C17
102
}
330
66C17
100
AcDbXrecord
280
     1
270
     1
271
     1
  0
XRECORD
  5
66C1B
102
{ACAD_REACTORS
330
66C17
102
}
330
66C17
100
AcDbXrecord
280
     1
270
     1
271
     1
  0
XRECORD
  5
66C1D
102
{ACAD_REACTORS
330
66C17
102
}
330
66C17
100
AcDbXrecord
280
     1
270
     1
271
     1
  0
XRECORD
  5
66C1A
102
{ACAD_REACTORS
330
66C17
102
}
330
66C17
100
AcDbXrecord
280
     1
270
     1
271
     1
  0
CELLSTYLEMAP
  5
1CED7D
102
{ACAD_REACTORS
330
66C8F
102
}
330
66C8F
100
AcDbCellStyleMap
 90
        3
300
CELLSTYLE
  1
TABLEFORMAT_BEGIN
 90
        5
170
     1
 91
        0
 92
    32768
 62
   257
 93
        1
300
CONTENTFORMAT
  1
CONTENTFORMAT_BEGIN
 90
        0
 91
        0
 92
      512
 93
        0
300

 40
0.0
140
1.0
 94
        5
 62
     0
340
10
144
0.25
309
CONTENTFORMAT_END
171
     1
301
MARGIN
  1
CELLMARGIN_BEGIN
 40
0.06
 40
0.06
 40
0.06
 40
0.06
 40
0.18
 40
0.18
309
CELLMARGIN_END
 94
        6
 95
        1
302
GRIDFORMAT
  1
GRIDFORMAT_BEGIN
 90
        0
 91
        1
 62
     0
 92
       -2
340
0
 93
        0
 40
0.045
309
GRIDFORMAT_END
 95
        2
302
GRIDFORMAT
  1
GRIDFORMAT_BEGIN
 90
        0
 91
        1
 62
     0
 92
       -2
340
0
 93
        0
 40
0.045
309
GRIDFORMAT_END
 95
        4
302
GRIDFORMAT
  1
GRIDFORMAT_BEGIN
 90
        0
 91
        1
 62
     0
 92
       -2
340
0
 93
        0
 40
0.045
309
GRIDFORMAT_END
 95
        8
302
GRIDFORMAT
  1
GRIDFORMAT_BEGIN
 90
        0
 91
        1
 62
     0
 92
       -2
340
0
 93
        0
 40
0.045
309
GRIDFORMAT_END
 95
       16
302
GRIDFORMAT
  1
GRIDFORMAT_BEGIN
 90
        0
 91
        1
 62
     0
 92
       -2
340
0
 93
        0
 40
0.045
309
GRIDFORMAT_END
 95
       32
302
GRIDFORMAT
  1
GRIDFORMAT_BEGIN
 90
        0
 91
        1
 62
     0
 92
       -2
340
0
 93
        0
 40
0.045
309
GRIDFORMAT_END
309
TABLEFORMAT_END
  1
CELLSTYLE_BEGIN
 90
        1
 91
        1
300
_TITLE
309
CELLSTYLE_END
300
CELLSTYLE
  1
TABLEFORMAT_BEGIN
 90
        5
170
     1
 91
        0
 92
        0
 62
   257
 93
        1
300
CONTENTFORMAT
  1
CONTENTFORMAT_BEGIN
 90
        0
 91
        0
 92
      512
 93
        0
300

 40
0.0
140
1.0
 94
        5
 62
     0
340
10
144
0.18
309
CONTENTFORMAT_END
171
     1
301
MARGIN
  1
CELLMARGIN_BEGIN
 40
0.06
 40
0.06
 40
0.06
 40
0.06
 40
0.18
 40
0.18
309
CELLMARGIN_END
 94
        6
 95
        1
302
GRIDFORMAT
  1
GRIDFORMAT_BEGIN
 90
        0
 91
        1
 62
     0
 92
       -2
340
0
 93
        0
 40
0.045
309
GRIDFORMAT_END
 95
        2
302
GRIDFORMAT
  1
GRIDFORMAT_BEGIN
 90
        0
 91
        1
 62
     0
 92
       -2
340
0
 93
        0
 40
0.045
309
GRIDFORMAT_END
 95
        4
302
GRIDFORMAT
  1
GRIDFORMAT_BEGIN
 90
        0
 91
        1
 62
     0
 92
       -2
340
0
 93
        0
 40
0.045
309
GRIDFORMAT_END
 95
        8
302
GRIDFORMAT
  1
GRIDFORMAT_BEGIN
 90
        0
 91
        1
 62
     0
 92
       -2
340
0
 93
        0
 40
0.045
309
GRIDFORMAT_END
 95
       16
302
GRIDFORMAT
  1
GRIDFORMAT_BEGIN
 90
        0
 91
        1
 62
     0
 92
       -2
340
0
 93
        0
 40
0.045
309
GRIDFORMAT_END
 95
       32
302
GRIDFORMAT
  1
GRIDFORMAT_BEGIN
 90
        0
 91
        1
 62
     0
 92
       -2
340
0
 93
        0
 40
0.045
309
GRIDFORMAT_END
309
TABLEFORMAT_END
  1
CELLSTYLE_BEGIN
 90
        2
 91
        1
300
_HEADER
309
CELLSTYLE_END
300
CELLSTYLE
  1
TABLEFORMAT_BEGIN
 90
        5
170
     1
 91
        0
 92
        0
 62
   257
 93
        1
300
CONTENTFORMAT
  1
CONTENTFORMAT_BEGIN
 90
        0
 91
        0
 92
      512
 93
        0
300

 40
0.0
140
1.0
 94
        2
 62
     0
340
10
144
0.18
309
CONTENTFORMAT_END
171
     1
301
MARGIN
  1
CELLMARGIN_BEGIN
 40
0.06
 40
0.06
 40
0.06
 40
0.06
 40
0.18
 40
0.18
309
CELLMARGIN_END
 94
        6
 95
        1
302
GRIDFORMAT
  1
GRIDFORMAT_BEGIN
 90
        0
 91
        1
 62
     0
 92
       -2
340
0
 93
        0
 40
0.045
309
GRIDFORMAT_END
 95
        2
302
GRIDFORMAT
  1
GRIDFORMAT_BEGIN
 90
        0
 91
        1
 62
     0
 92
       -2
340
0
 93
        0
 40
0.045
309
GRIDFORMAT_END
 95
        4
302
GRIDFORMAT
  1
GRIDFORMAT_BEGIN
 90
        0
 91
        1
 62
     0
 92
       -2
340
0
 93
        0
 40
0.045
309
GRIDFORMAT_END
 95
        8
302
GRIDFORMAT
  1
GRIDFORMAT_BEGIN
 90
        0
 91
        1
 62
     0
 92
       -2
340
0
 93
        0
 40
0.045
309
GRIDFORMAT_END
 95
       16
302
GRIDFORMAT
  1
GRIDFORMAT_BEGIN
 90
        0
 91
        1
 62
     0
 92
       -2
340
0
 93
        0
 40
0.045
309
GRIDFORMAT_END
 95
       32
302
GRIDFORMAT
  1
GRIDFORMAT_BEGIN
 90
        0
 91
        1
 62
     0
 92
       -2
340
0
 93
        0
 40
0.045
309
GRIDFORMAT_END
309
TABLEFORMAT_END
  1
CELLSTYLE_BEGIN
 90
        3
 91
        2
300
_DATA
309
CELLSTYLE_END
  0
XRECORD
  5
1CED86
102
{ACAD_REACTORS
330
66C8F
102
}
330
66C8F
100
AcDbXrecord
280
     1
102
ACAD_ROUNDTRIP_PRE2007_TABLESTYLE
 90
      512
 91
        0
  1

 92
      512
 93
        0
  2

 94
      512
 95
        0
  3

  0
ENDSEC
  0
EOF
