  0
SECTION
  2
HEADER
  9
$ACADVER
  1
AC1015
  9
$ACADMAINTVER
 70
     6
  9
$DWGCODEPAGE
  3
ANSI_932
  9
$INSBASE
 10
0.0
 20
0.0
 30
0.0
  9
$EXTMIN
 10
34.0337837837838
 20
72.24324324324326
 30
0.0
  9
$EXTMAX
 10
177.4337837837838
 20
237.2652368941949
 30
0.0
  9
$LIMMIN
 10
0.0
 20
0.0
  9
$LIMMAX
 10
210.0
 20
297.0
  9
$ORTHOMODE
 70
     0
  9
$REGENMODE
 70
     1
  9
$FILLMODE
 70
     1
  9
$QTEXTMODE
 70
     0
  9
$MIRRTEXT
 70
     1
  9
$LTSCALE
 40
1.0
  9
$ATTMODE
 70
     1
  9
$TEXTSIZE
 40
3.5
  9
$TRACEWID
 40
1.0
  9
$TEXTSTYLE
  7
Standard
  9
$CLAYER
  8
0
  9
$CELTYPE
  6
ByLayer
  9
$CECOLOR
 62
   256
  9
$CELTSCALE
 40
1.0
  9
$DISPSILH
 70
     0
  9
$DIMSCALE
 40
1.0
  9
$DIMASZ
 40
3.302
  9
$DIMEXO
 40
1.0
  9
$DIMDLI
 40
3.75
  9
$DIMRND
 40
0.0
  9
$DIMDLE
 40
0.0
  9
$DIMEXE
 40
1.0
  9
$DIMTP
 40
0.0
  9
$DIMTM
 40
0.0
  9
$DIMTXT
 40
3.5
  9
$DIMCEN
 40
2.5
  9
$DIMTSZ
 40
0.0
  9
$DIMTOL
 70
     0
  9
$DIMLIM
 70
     0
  9
$DIMTIH
 70
     1
  9
$DIMTOH
 70
     1
  9
$DIMSE1
 70
     0
  9
$DIMSE2
 70
     0
  9
$DIMTAD
 70
     1
  9
$DIMZIN
 70
     0
  9
$DIMBLK
  1

  9
$DIMASO
 70
     1
  9
$DIMSHO
 70
     1
  9
$DIMPOST
  1

  9
$DIMAPOST
  1

  9
$DIMALT
 70
     0
  9
$DIMALTD
 70
     3
  9
$DIMALTF
 40
0.0393700787401575
  9
$DIMLFAC
 40
2.0
  9
$DIMTOFL
 70
     1
  9
$DIMTVP
 40
0.0
  9
$DIMTIX
 70
     0
  9
$DIMSOXD
 70
     0
  9
$DIMSAH
 70
     0
  9
$DIMBLK1
  1

  9
$DIMBLK2
  1

  9
$DIMSTYLE
  2
ISO-25
  9
$DIMCLRD
 70
     0
  9
$DIMCLRE
 70
     0
  9
$DIMCLRT
 70
     0
  9
$DIMTFAC
 40
1.0
  9
$DIMGAP
 40
1.524
  9
$DIMJUST
 70
     0
  9
$DIMSD1
 70
     0
  9
$DIMSD2
 70
     0
  9
$DIMTOLJ
 70
     0
  9
$DIMTZIN
 70
     0
  9
$DIMALTZ
 70
     0
  9
$DIMALTTZ
 70
     0
  9
$DIMUPT
 70
     0
  9
$DIMDEC
 70
     2
  9
$DIMTDEC
 70
     2
  9
$DIMALTU
 70
     2
  9
$DIMALTTD
 70
     3
  9
$DIMTXSTY
  7
Standard
  9
$DIMAUNIT
 70
     0
  9
$DIMADEC
 70
     2
  9
$DIMALTRND
 40
0.0
  9
$DIMAZIN
 70
     0
  9
$DIMDSEP
 70
    44
  9
$DIMATFIT
 70
     3
  9
$DIMFRAC
 70
     0
  9
$DIMLDRBLK
  1

  9
$DIMLUNIT
 70
     2
  9
$DIMLWD
 70
    -2
  9
$DIMLWE
 70
    -2
  9
$DIMTMOVE
 70
     0
  9
$LUNITS
 70
     2
  9
$LUPREC
 70
     2
  9
$SKETCHINC
 40
1.0
  9
$FILLETRAD
 40
10.0
  9
$AUNITS
 70
     0
  9
$AUPREC
 70
     2
  9
$MENU
  1
.
  9
$ELEVATION
 40
0.0
  9
$PELEVATION
 40
0.0
  9
$THICKNESS
 40
0.0
  9
$LIMCHECK
 70
     0
  9
$CHAMFERA
 40
0.0
  9
$CHAMFERB
 40
0.0
  9
$CHAMFERC
 40
0.0
  9
$CHAMFERD
 40
0.0
  9
$SKPOLY
 70
     0
  9
$TDCREATE
 40
2458025.909678241
  9
$TDUCREATE
 40
2458025.534678241
  9
$TDUPDATE
 40
2458025.910243357
  9
$TDUUPDATE
 40
2458025.535243357
  9
$TDINDWG
 40
0.0002038194
  9
$TDUSRTIMER
 40
2458025.535039074
  9
$USRTIMER
 70
     1
  9
$ANGBASE
 50
0.0
  9
$ANGDIR
 70
     0
  9
$PDMODE
 70
     0
  9
$PDSIZE
 40
-1.0
  9
$PLINEWID
 40
0.0
  9
$SPLFRAME
 70
     0
  9
$SPLINETYPE
 70
     6
  9
$SPLINESEGS
 70
     8
  9
$HANDSEED
  5
495
  9
$SURFTAB1
 70
     6
  9
$SURFTAB2
 70
     6
  9
$SURFTYPE
 70
     6
  9
$SURFU
 70
     6
  9
$SURFV
 70
     6
  9
$UCSBASE
  2

  9
$UCSNAME
  2

  9
$UCSORG
 10
0.0
 20
0.0
 30
0.0
  9
$UCSXDIR
 10
1.0
 20
0.0
 30
0.0
  9
$UCSYDIR
 10
0.0
 20
1.0
 30
0.0
  9
$UCSORTHOREF
  2

  9
$UCSORTHOVIEW
 70
     0
  9
$UCSORGTOP
 10
0.0
 20
0.0
 30
0.0
  9
$UCSORGBOTTOM
 10
0.0
 20
0.0
 30
0.0
  9
$UCSORGLEFT
 10
0.0
 20
0.0
 30
0.0
  9
$UCSORGRIGHT
 10
0.0
 20
0.0
 30
0.0
  9
$UCSORGFRONT
 10
0.0
 20
0.0
 30
0.0
  9
$UCSORGBACK
 10
0.0
 20
0.0
 30
0.0
  9
$PUCSBASE
  2

  9
$PUCSNAME
  2

  9
$PUCSORG
 10
0.0
 20
0.0
 30
0.0
  9
$PUCSXDIR
 10
1.0
 20
0.0
 30
0.0
  9
$PUCSYDIR
 10
0.0
 20
1.0
 30
0.0
  9
$PUCSORTHOREF
  2

  9
$PUCSORTHOVIEW
 70
     0
  9
$PUCSORGTOP
 10
0.0
 20
0.0
 30
0.0
  9
$PUCSORGBOTTOM
 10
0.0
 20
0.0
 30
0.0
  9
$PUCSORGLEFT
 10
0.0
 20
0.0
 30
0.0
  9
$PUCSORGRIGHT
 10
0.0
 20
0.0
 30
0.0
  9
$PUCSORGFRONT
 10
0.0
 20
0.0
 30
0.0
  9
$PUCSORGBACK
 10
0.0
 20
0.0
 30
0.0
  9
$USERI1
 70
     0
  9
$USERI2
 70
     0
  9
$USERI3
 70
     0
  9
$USERI4
 70
     0
  9
$USERI5
 70
     0
  9
$USERR1
 40
0.0
  9
$USERR2
 40
0.0
  9
$USERR3
 40
0.0
  9
$USERR4
 40
0.0
  9
$USERR5
 40
0.0
  9
$WORLDVIEW
 70
     1
  9
$SHADEDGE
 70
     3
  9
$SHADEDIF
 70
    70
  9
$TILEMODE
 70
     1
  9
$MAXACTVP
 70
    64
  9
$PINSBASE
 10
0.0
 20
0.0
 30
0.0
  9
$PLIMCHECK
 70
     0
  9
$PEXTMIN
 10
1.000000000000000E+20
 20
1.000000000000000E+20
 30
1.000000000000000E+20
  9
$PEXTMAX
 10
-1.000000000000000E+20
 20
-1.000000000000000E+20
 30
-1.000000000000000E+20
  9
$PLIMMIN
 10
0.0
 20
0.0
  9
$PLIMMAX
 10
0.0
 20
0.0
  9
$UNITMODE
 70
     0
  9
$VISRETAIN
 70
     1
  9
$PLINEGEN
 70
     0
  9
$PSLTSCALE
 70
     1
  9
$TREEDEPTH
 70
  3020
  9
$CMLSTYLE
  2
Standard
  9
$CMLJUST
 70
     0
  9
$CMLSCALE
 40
20.0
  9
$PROXYGRAPHICS
 70
     1
  9
$MEASUREMENT
 70
     1
  9
$CELWEIGHT
370
    -1
  9
$ENDCAPS
280
     0
  9
$JOINSTYLE
280
     0
  9
$LWDISPLAY
290
     1
  9
$INSUNITS
 70
     4
  9
$HYPERLINKBASE
  1

  9
$STYLESHEET
  1

  9
$XEDIT
290
     1
  9
$CEPSNTYPE
380
     0
  9
$PSTYLEMODE
290
     1
  9
$FINGERPRINTGUID
  2
{445AD801-D9A4-4A22-BFD7-D1D433BFD82F}
  9
$VERSIONGUID
  2
{FAEB1C32-E019-11D5-929B-00C0DF256EC4}
  9
$EXTNAMES
290
     1
  9
$PSVPSCALE
 40
0.0
  9
$OLESTARTUP
290
     0
  0
ENDSEC
  0
SECTION
  2
CLASSES
  0
CLASS
  1
ACDBDICTIONARYWDFLT
  2
AcDbDictionaryWithDefault
  3
ObjectDBX Classes
 90
        0
280
     0
281
     0
  0
CLASS
  1
VISUALSTYLE
  2
AcDbVisualStyle
  3
ObjectDBX Classes
 90
     4095
280
     0
281
     0
  0
CLASS
  1
MATERIAL
  2
AcDbMaterial
  3
ObjectDBX Classes
 90
     1153
280
     0
281
     0
  0
CLASS
  1
SCALE
  2
AcDbScale
  3
ObjectDBX Classes
 90
     1153
280
     0
281
     0
  0
CLASS
  1
TABLESTYLE
  2
AcDbTableStyle
  3
ObjectDBX Classes
 90
     4095
280
     0
281
     0
  0
CLASS
  1
MLEADERSTYLE
  2
AcDbMLeaderStyle
  3
ACDB_MLEADERSTYLE_CLASS
 90
     4095
280
     0
281
     0
  0
CLASS
  1
SUN
  2
AcDbSun
  3
SCENEOE
 90
     1153
280
     0
281
     0
  0
CLASS
  1
ACDBPLACEHOLDER
  2
AcDbPlaceHolder
  3
ObjectDBX Classes
 90
        0
280
     0
281
     0
  0
CLASS
  1
LAYOUT
  2
AcDbLayout
  3
ObjectDBX Classes
 90
        0
280
     0
281
     0
  0
CLASS
  1
RASTERVARIABLES
  2
AcDbRasterVariables
  3
ISM
 90
        0
280
     0
281
     0
  0
ENDSEC
  0
SECTION
  2
TABLES
  0
TABLE
  2
VPORT
  5
8
330
0
100
AcDbSymbolTable
 70
     1
  0
VPORT
  5
29
330
8
100
AcDbSymbolTableRecord
100
AcDbViewportTableRecord
  2
*Active
 70
     0
 10
0.0
 20
0.0
 11
1.0
 21
1.0
 12
105.0
 22
148.5
 13
0.0
 23
0.0
 14
10.0
 24
10.0
 15
10.0
 25
10.0
 16
0.0
 26
0.0
 36
1.0
 17
0.0
 27
0.0
 37
0.0
 40
297.0
 41
0.7070707070707071
 42
50.0
 43
0.0
 44
0.0
 50
0.0
 51
0.0
 71
     0
 72
  2000
 73
     1
 74
     3
 75
     0
 76
     0
 77
     0
 78
     0
281
     0
 65
     1
110
0.0
120
0.0
130
0.0
111
1.0
121
0.0
131
0.0
112
0.0
122
1.0
132
0.0
 79
     0
146
0.0
  0
ENDTAB
  0
TABLE
  2
LTYPE
  5
5
330
0
100
AcDbSymbolTable
 70
     6
  0
LTYPE
  5
14
330
5
100
AcDbSymbolTableRecord
100
AcDbLinetypeTableRecord
  2
ByBlock
 70
     0
  3

 72
    65
 73
     0
 40
0.0
  0
LTYPE
  5
15
330
5
100
AcDbSymbolTableRecord
100
AcDbLinetypeTableRecord
  2
ByLayer
 70
     0
  3

 72
    65
 73
     0
 40
0.0
  0
LTYPE
  5
16
330
5
100
AcDbSymbolTableRecord
100
AcDbLinetypeTableRecord
  2
Continuous
 70
     0
  3
Solid line
 72
    65
 73
     0
 40
0.0
  0
LTYPE
  5
6E
330
5
100
AcDbSymbolTableRecord
100
AcDbLinetypeTableRecord
  2
HIDDEN
 70
     0
  3
Hidden __ __ __ __ __ __ __ __ __ __ __ __ __ __
 72
    65
 73
     2
 40
1.905
 49
1.27
 74
     0
 49
-0.635
 74
     0
  0
LTYPE
  5
6F
330
5
100
AcDbSymbolTableRecord
100
AcDbLinetypeTableRecord
  2
PHANTOM
 70
     0
  3
Phantom ______  __  __  ______  __  __  ______
 72
    65
 73
     6
 40
12.7
 49
6.35
 74
     0
 49
-1.27
 74
     0
 49
1.27
 74
     0
 49
-1.27
 74
     0
 49
1.27
 74
     0
 49
-1.27
 74
     0
  0
LTYPE
  5
70
330
5
100
AcDbSymbolTableRecord
100
AcDbLinetypeTableRecord
  2
CENTER
 70
     0
  3
Center ____ _ ____ _ ____ _ ____ _ ____ _ ____
 72
    65
 73
     4
 40
10.16
 49
6.35
 74
     0
 49
-1.27
 74
     0
 49
1.27
 74
     0
 49
-1.27
 74
     0
  0
LTYPE
  5
71
330
5
100
AcDbSymbolTableRecord
100
AcDbLinetypeTableRecord
  2
CENTERX2
 70
     0
  3
Center (2x) ________  __  ________  __  _____
 72
    65
 73
     4
 40
20.32
 49
12.7
 74
     0
 49
-2.54
 74
     0
 49
2.54
 74
     0
 49
-2.54
 74
     0
  0
LTYPE
  5
72
330
5
100
AcDbSymbolTableRecord
100
AcDbLinetypeTableRecord
  2
DOT2
 70
     0
  3
Dot (.5x) ........................................
 72
    65
 73
     2
 40
0.635
 49
0.0
 74
     0
 49
-0.635
 74
     0
  0
ENDTAB
  0
TABLE
  2
LAYER
  5
2
102
{ACAD_XDICTIONARY
360
48D
102
}
330
0
100
AcDbSymbolTable
 70
    13
  0
LAYER
  5
10
330
2
100
AcDbSymbolTableRecord
100
AcDbLayerTableRecord
  2
0
 70
     0
 62
     7
  6
Continuous
370
    -3
390
F
  0
LAYER
  5
73
330
2
100
AcDbSymbolTableRecord
100
AcDbLayerTableRecord
  2
SLD-0
 70
     0
 62
   179
  6
Continuous
370
    -3
390
F
  0
LAYER
  5
74
330
2
100
AcDbSymbolTableRecord
100
AcDbLayerTableRecord
  2
中心線
 70
     0
 62
     1
  6
CENTER
370
    -3
390
F
  0
LAYER
  5
75
330
2
100
AcDbSymbolTableRecord
100
AcDbLayerTableRecord
  2
破線
 70
     0
 62
     3
  6
HIDDEN
370
    -3
390
F
  0
LAYER
  5
76
330
2
100
AcDbSymbolTableRecord
100
AcDbLayerTableRecord
  2
寸法線
 70
     0
 62
     7
  6
Continuous
370
    -3
390
F
  0
LAYER
  5
77
330
2
100
AcDbSymbolTableRecord
100
AcDbLayerTableRecord
  2
実線
 70
     0
 62
     4
  6
Continuous
370
    25
390
F
  0
LAYER
  5
78
330
2
100
AcDbSymbolTableRecord
100
AcDbLayerTableRecord
  2
ﾊｯﾁﾝｸﾞ
 70
     0
 62
     8
  6
Continuous
370
    -3
390
F
  0
LAYER
  5
79
330
2
100
AcDbSymbolTableRecord
100
AcDbLayerTableRecord
  2
輪郭線
 70
     0
 62
     6
  6
Continuous
370
    25
390
F
  0
LAYER
  5
7A
330
2
100
AcDbSymbolTableRecord
100
AcDbLayerTableRecord
  2
文字
 70
     0
 62
   179
  6
Continuous
370
    -3
390
F
  0
LAYER
  5
7B
330
2
100
AcDbSymbolTableRecord
100
AcDbLayerTableRecord
  2
想像線
 70
     0
 62
     3
  6
PHANTOM
370
    -3
390
F
  0
LAYER
  5
7C
330
2
100
AcDbSymbolTableRecord
100
AcDbLayerTableRecord
  2
姿図
 70
     0
 62
     8
  6
Continuous
370
    -3
390
F
  0
LAYER
  5
7D
330
2
100
AcDbSymbolTableRecord
100
AcDbLayerTableRecord
  2
注記
 70
     0
 62
     7
  6
Continuous
370
    25
390
F
  0
LAYER
  5
7E
330
2
100
AcDbSymbolTableRecord
100
AcDbLayerTableRecord
  2
ロゴ：MODULEX
 70
     0
 62
     7
  6
Continuous
370
    -3
390
F
  0
ENDTAB
  0
TABLE
  2
STYLE
  5
3
330
0
100
AcDbSymbolTable
 70
     1
  0
STYLE
  5
11
330
3
100
AcDbSymbolTableRecord
100
AcDbTextStyleTableRecord
  2
Standard
 70
     0
 40
0.0
 41
1.0
 50
0.0
 71
     0
 42
3.5
  3
txt
  4
bigfont
  0
ENDTAB
  0
TABLE
  2
VIEW
  5
6
330
0
100
AcDbSymbolTable
 70
     0
  0
ENDTAB
  0
TABLE
  2
UCS
  5
7
330
0
100
AcDbSymbolTable
 70
     0
  0
ENDTAB
  0
TABLE
  2
APPID
  5
9
330
0
100
AcDbSymbolTable
 70
     1
  0
APPID
  5
12
330
9
100
AcDbSymbolTableRecord
100
AcDbRegAppTableRecord
  2
ACAD
 70
     0
  0
ENDTAB
  0
TABLE
  2
DIMSTYLE
  5
A
330
0
100
AcDbSymbolTable
 70
     1
100
AcDbDimStyleTable
  0
DIMSTYLE
105
27
330
A
100
AcDbSymbolTableRecord
100
AcDbDimStyleTableRecord
  2
ISO-25
 70
     0
 41
2.5
 42
0.625
 43
3.75
 44
1.25
 73
     0
 74
     0
 77
     1
 78
     8
140
2.5
141
2.5
143
0.03937007874016
147
0.625
171
     3
172
     1
178
     0
271
     2
272
     2
274
     3
278
    44
283
     0
284
     8
340
11
  0
ENDTAB
  0
TABLE
  2
BLOCK_RECORD
  5
1
330
0
100
AcDbSymbolTable
 70
     2
  0
BLOCK_RECORD
  5
1F
330
1
100
AcDbSymbolTableRecord
100
AcDbBlockTableRecord
  2
*Model_Space
340
22
  0
BLOCK_RECORD
  5
1B
330
1
100
AcDbSymbolTableRecord
100
AcDbBlockTableRecord
  2
*Paper_Space
340
1E
  0
BLOCK_RECORD
  5
23
330
1
100
AcDbSymbolTableRecord
100
AcDbBlockTableRecord
  2
*Paper_Space0
340
26
  0
ENDTAB
  0
ENDSEC
  0
SECTION
  2
BLOCKS
  0
BLOCK
  5
20
330
1F
100
AcDbEntity
  8
0
100
AcDbBlockBegin
  2
*Model_Space
 70
     0
 10
0.0
 20
0.0
 30
0.0
  3
*Model_Space
  1
*Model_Space
  0
ENDBLK
  5
21
330
1F
100
AcDbEntity
  8
0
100
AcDbBlockEnd
  0
BLOCK
  5
1C
330
1B
100
AcDbEntity
 67
     1
  8
0
100
AcDbBlockBegin
  2
*Paper_Space
 70
     0
 10
0.0
 20
0.0
 30
0.0
  3
*Paper_Space
  1
*Paper_Space
  0
ENDBLK
  5
1D
330
1B
100
AcDbEntity
 67
     1
  8
0
100
AcDbBlockEnd
  0
BLOCK
  5
24
330
23
100
AcDbEntity
  8
0
100
AcDbBlockBegin
  2
*Paper_Space0
 70
     0
 10
0.0
 20
0.0
 30
0.0
  3
*Paper_Space0
  1
*Paper_Space0
  0
ENDBLK
  5
25
330
23
100
AcDbEntity
  8
0
100
AcDbBlockEnd
  0
ENDSEC
  0
SECTION
  2
ENTITIES
  0
LINE
  5
7F
330
1F
100
AcDbEntity
  8
0
  6
Continuous
 62
     8
370
    15
100
AcDbLine
 10
131.6683865788958
 20
217.8279116216714
 30
0.0
 11
131.6683865788958
 21
231.1025507402222
 31
0.0
  0
LINE
  5
80
330
1F
100
AcDbEntity
  8
0
  6
Continuous
 62
     8
370
    15
100
AcDbLine
 10
86.66838608463252
 20
231.1025507402222
 30
0.0
 11
86.66838608463252
 21
214.9715891810337
 31
0.0
  0
LINE
  5
81
330
1F
100
AcDbEntity
  8
0
  6
Continuous
 62
     8
370
    15
100
AcDbLine
 10
88.65234229407258
 20
161.6597302372186
 30
0.0
 11
45.7734939036865
 21
138.9401097788013
 31
0.0
  0
LINE
  5
82
330
1F
100
AcDbEntity
  8
0
  6
Continuous
 62
     8
370
    15
100
AcDbLine
 10
66.84223985894879
 20
99.17695658425376
 30
0.0
 11
109.7210887432432
 21
121.8965841115464
 31
0.0
  0
LINE
  5
83
330
1F
100
AcDbEntity
  8
0
  6
Continuous
 62
     8
370
    15
100
AcDbLine
 10
110.1497495221961
 20
122.1237111033802
 30
0.0
 11
124.3091925319484
 21
129.6261744988558
 31
0.0
  0
LINE
  5
84
330
1F
100
AcDbEntity
  8
0
  6
Continuous
 62
     8
370
    15
100
AcDbLine
 10
103.2404455888693
 20
169.389324350715
 30
0.0
 11
89.08100340229771
 21
161.8868571438305
 31
0.0
  0
LINE
  5
85
330
1F
100
AcDbEntity
  8
0
  6
Continuous
 62
     8
370
    15
100
AcDbLine
 10
114.3770466530663
 20
151.5866687310051
 30
0.0
 11
114.1008570376854
 21
151.5420947965393
 31
0.0
  0
LINE
  5
86
330
1F
100
AcDbEntity
  8
0
  6
Continuous
 62
     8
370
    15
100
AcDbLine
 10
126.8062800365634
 20
130.9492742930338
 30
0.0
 11
146.2184849408645
 21
141.2349503836529
 31
0.0
  0
LINE
  5
87
330
1F
100
AcDbEntity
  8
0
  6
Continuous
 62
     8
370
    15
100
AcDbLine
 10
122.9976892904996
 20
179.8578197604787
 30
0.0
 11
105.7375335050747
 21
170.7124204400115
 31
0.0
  0
SPLINE
  5
88
330
1F
100
AcDbEntity
  8
0
  6
Continuous
 62
     8
370
    15
100
AcDbSpline
210
0.0
220
0.0
230
1.0
 70
     8
 71
     3
 72
    26
 73
    22
 74
     0
 42
0.000000001
 43
0.00000001
 40
0.0
 40
0.0
 40
0.0
 40
0.0
 40
0.0077746702871453
 40
0.063362980376597
 40
0.1190397878568868
 40
0.1747873824863291
 40
0.2305863606069203
 40
0.2864191080855357
 40
0.3422716704204085
 40
0.3981336683115632
 40
0.4539974956770342
 40
0.5098598452596156
 40
0.5657199246761898
 40
0.6215783909378447
 40
0.6774364944773589
 40
0.7332964641665131
 40
0.7891601382160794
 40
0.8450294752960588
 40
0.9009064649686642
 40
0.9567926433047695
 40
1.0
 40
1.0
 40
1.0
 40
1.0
 10
151.6442219468775
 20
146.9122217931334
 30
0.0
 10
151.6809121420131
 20
146.9770415318551
 30
0.0
 10
151.9799344836084
 20
147.5053175462645
 30
0.0
 10
152.4153835808003
 20
148.6083946285917
 30
0.0
 10
152.9353918034909
 20
150.2143518811651
 30
0.0
 10
153.3008568381617
 20
151.9216860672082
 30
0.0
 10
153.5248249294344
 20
153.7017637851281
 30
0.0
 10
153.6011272290044
 20
155.5436569974661
 30
0.0
 10
153.5303606385472
 20
157.4310339173921
 30
0.0
 10
153.3129302547395
 20
159.3485536025392
 30
0.0
 10
152.9508326167988
 20
161.2803417582352
 30
0.0
 10
152.4471605269768
 20
163.2105830433439
 30
0.0
 10
151.8061383908942
 20
165.123503153205
 30
0.0
 10
151.0330788112664
 20
167.003518704084
 30
0.0
 10
150.1343158342965
 20
168.8352881875932
 30
0.0
 10
149.1172191798244
 20
170.6039838713397
 30
0.0
 10
147.9898854912202
 20
172.2947929737516
 30
0.0
 10
146.762082301039
 20
173.8953574726849
 30
0.0
 10
145.4412717577959
 20
175.3871130431768
 30
0.0
 10
144.1527410567916
 20
176.6729112142896
 30
0.0
 10
143.2785503276831
 20
177.3963473802374
 30
0.0
 10
142.8973804497459
 20
177.711784350555
 30
0.0
  0
LINE
  5
89
330
1F
100
AcDbEntity
  8
0
  6
Continuous
 62
     8
370
    15
100
AcDbLine
 10
128.5844753315733
 20
139.3869599524715
 30
0.0
 11
129.6451350186644
 21
139.6614788798631
 31
0.0
  0
LINE
  5
8A
330
1F
100
AcDbEntity
  8
0
  6
Continuous
 62
     8
370
    15
100
AcDbLine
 10
122.9976892904997
 20
163.3515859939243
 30
0.0
 11
122.4206304457567
 21
163.20223217476
 31
0.0
  0
LINE
  5
8B
330
1F
100
AcDbEntity
  8
0
  6
Continuous
 62
     8
370
    15
100
AcDbLine
 10
122.3970795770623
 20
154.9670776129853
 30
0.0
 11
122.3779014439008
 21
154.9325130714455
 31
0.0
  0
LINE
  5
8C
330
1F
100
AcDbEntity
  8
0
  6
Continuous
 62
     8
370
    15
100
AcDbLine
 10
122.1595741831693
 20
154.0889594140112
 30
0.0
 11
122.1595741831693
 21
154.0494287102836
 31
0.0
  0
LINE
  5
8D
330
1F
100
AcDbEntity
  8
0
  6
Continuous
 62
     8
370
    15
100
AcDbLine
 10
122.7702016756622
 20
152.9993737194269
 30
0.0
 11
123.2444814790443
 21
152.8766210736042
 31
0.0
  0
LINE
  5
8E
330
1F
100
AcDbEntity
  8
0
  6
Continuous
 62
     8
370
    15
100
AcDbLine
 10
123.91824692624
 20
155.4653818433571
 30
0.0
 11
123.4404577391748
 21
155.5890427845136
 31
0.0
  0
LINE
  5
8F
330
1F
100
AcDbEntity
  8
0
  6
Continuous
 62
     8
370
    15
100
AcDbLine
 10
122.3619126417915
 20
151.3877681072387
 30
0.0
 11
122.9382220628843
 21
151.2386082531879
 31
0.0
  0
LINE
  5
90
330
1F
100
AcDbEntity
  8
0
  6
Continuous
 62
     8
370
    15
100
AcDbLine
 10
95.19719798315022
 20
214.3005143882545
 30
0.0
 11
95.18211731391743
 21
211.5184105316704
 31
0.0
  0
LINE
  5
91
330
1F
100
AcDbEntity
  8
0
  6
Continuous
 62
     8
370
    15
100
AcDbLine
 10
95.16838600238148
 20
211.3602346677212
 30
0.0
 11
95.16838600238148
 21
201.3586600216411
 31
0.0
  0
ARC
  5
92
330
1F
100
AcDbEntity
  8
0
  6
Continuous
 62
     8
370
    15
100
AcDbCircle
 10
119.8758143153113
 20
217.4760681141236
 30
0.0
 40
18.68018817242615
100
AcDbArc
 50
63.92351585913718
 51
76.74455202095241
  0
LWPOLYLINE
  5
93
330
1F
100
AcDbEntity
  8
0
  6
Continuous
 62
     8
370
    15
100
AcDbPolyline
 90
       20
 70
   128
 43
0.0
 10
90.24969764519558
 20
234.2547637673699
 10
91.21783380454859
 20
234.697940133371
 10
92.43006689441114
 20
235.1460207231873
 10
93.8086539246184
 20
235.5606350870623
 10
95.33989305350123
 20
235.9376628724959
 10
97.00856630529687
 20
236.2733569564323
 10
98.79808840120789
 20
236.5643812837968
 10
100.6906748528879
 20
236.8078434648839
 10
102.6675181230972
 20
237.0013233247045
 10
104.7089692193512
 20
237.1428987678414
 10
106.7947390439034
 20
237.2311624393365
 10
108.9041005669096
 20
237.2652368941949
 10
111.0160883654136
 20
237.2447836309092
 10
113.1097126503125
 20
237.1700063298931
 10
115.1641653907876
 20
237.0416472741599
 10
117.1590310485469
 20
236.8609829177825
 10
119.0744811777272
 20
236.6298086311677
 10
120.891479890781
 20
236.3504216566702
 10
122.5919695680269
 20
236.0255989508907
 10
124.1590496524846
 20
235.6585686353291
  0
LWPOLYLINE
  5
94
330
1F
100
AcDbEntity
  8
0
  6
Continuous
 62
     8
370
    15
100
AcDbPolyline
 90
       25
 70
   128
 43
0.0
 10
124.9368671075749
 20
218.8595871999372
 10
123.3413770837708
 20
219.2344259748677
 10
121.61355583381
 20
219.5676595738418
 10
119.7695383566828
 20
219.8561775668454
 10
117.8265409814612
 20
220.0972857477723
 10
115.8027052922513
 20
220.28873289411
 10
113.7169255895315
 20
220.4287315610914
 10
111.5886770100364
 20
220.5159746147485
 10
109.4378317928388
 20
220.5496473334273
 10
107.2844702770763
 20
220.5294357595361
 10
105.1486991436665
 20
220.4555284039851
 10
103.0504578032221
 20
220.3286152235223
 10
101.0093386134001
 20
220.1498809734236
 10
99.04439820590036
 20
219.9209948956388
 10
97.17398231362611
 20
219.6440940152937
 10
95.41555603083752
 20
219.321763070925
 10
93.78553436141763
 20
218.9570124739587
 10
92.29913993209975
 20
218.5532469363874
 10
90.97024806987193
 20
218.114236964034
 10
89.81126735846678
 20
217.6440811245425
 10
88.83302056528271
 20
217.1471690930181
 10
88.04463676356161
 20
216.6281407774591
 10
87.45348177362526
 20
216.0918417263816
 10
87.06507222281705
 20
215.5432797508575
 10
86.96462311192543
 20
215.3140320764222
  0
LWPOLYLINE
  5
95
330
1F
100
AcDbEntity
  8
0
  6
Continuous
 62
     8
370
    15
100
AcDbPolyline
 90
       10
 70
   128
 43
0.0
 10
87.06701229493756
 20
214.0097830413961
 10
87.1429358912629
 20
213.8755165718944
 10
87.58244652025702
 20
213.3295438090583
 10
88.22349876901869
 20
212.7970986641155
 10
89.06010877287613
 20
212.2831523879294
 10
90.08446454760339
 20
211.7925037421766
 10
91.28699991104135
 20
211.3297332777807
 10
92.65649112450436
 20
210.8991626414412
 10
94.18014843046676
 20
210.5048111124486
 10
95.1683858377453
 20
210.2858986850064
  0
LWPOLYLINE
  5
96
330
1F
100
AcDbEntity
  8
0
  6
Continuous
 62
     8
370
    15
100
AcDbPolyline
 90
        3
 70
   128
 43
0.0
 10
127.1662972640906
 20
218.1862285732016
 10
126.3851329211745
 20
218.4466439955056
 10
124.9368671075749
 20
218.8595871999372
  0
LWPOLYLINE
  5
97
330
1F
100
AcDbEntity
  8
0
  6
Continuous
 62
     8
370
    15
100
AcDbPolyline
 90
        3
 70
   128
 43
0.0
 10
125.5701618255097
 20
218.9580051587438
 10
126.5395433336863
 20
218.6727281450989
 10
127.6279094699533
 20
218.3011734398657
  0
LWPOLYLINE
  5
98
330
1F
100
AcDbEntity
  8
0
  6
Continuous
 62
     8
370
    15
100
AcDbPolyline
 90
       29
 70
   128
 43
0.0
 10
87.5904807632544
 20
213.3215485842638
 10
87.3888508985228
 20
213.5097347986584
 10
86.9453988806484
 20
214.0606042431689
 10
86.70943645653762
 20
214.6199793476606
 10
86.68316777465868
 20
215.1826372009097
 10
86.86683649647958
 20
215.7433247231289
 10
87.25872974773502
 20
216.2968067311365
 10
87.85518667950514
 20
216.8379155375194
 10
88.65063995651944
 20
217.3615988453583
 10
89.63766218454464
 20
217.8629672168431
 10
90.80703670391927
 20
218.3373396670048
 10
92.14784641074418
 20
218.7802871055955
 10
93.64757266203586
 20
219.1876736164602
 10
95.29221130303686
 20
219.5556960324712
 10
97.06640972679165
 20
219.88091736383
 10
98.95360006477321
 20
220.1603019521134
 10
100.9361631233066
 20
220.3912408557566
 10
102.995589191906
 20
220.5715777894775
 10
105.112648441666
 20
220.6996293644861
 10
107.267574000635
 20
220.7741997466553
 10
109.4402479926386
 20
220.7945926728142
 10
111.6103839541085
 20
220.7606177571705
 10
113.7577191290785
 20
220.6725921957488
 10
115.8622054470921
 20
220.5313380392894
 10
117.9041925985755
 20
220.338173671055
 10
119.8646160492951
 20
220.094903324533
 10
121.7251718839235
 20
219.803797738058
 10
123.4684891800655
 20
219.4675754485972
 10
124.5349491213877
 20
219.225355004299
  0
LWPOLYLINE
  5
99
330
1F
100
AcDbEntity
  8
0
  6
Continuous
 62
     8
370
    15
100
AcDbPolyline
 90
       26
 70
   128
 43
0.0
 10
124.5391941404452
 20
235.3552894581301
 10
122.8918057056921
 20
235.7173585364049
 10
121.1177995769336
 20
236.0368495451665
 10
119.2335433840073
 20
236.3108147856766
 10
117.2564212201989
 20
236.5367259363164
 10
115.2046744391071
 20
236.7124988947791
 10
113.0972352075197
 20
236.8365123138396
 10
110.9535463934905
 20
236.9076214925292
 10
108.7933860642275
 20
236.9251703924283
 10
106.636686386354
 20
236.8889972623129
 10
104.5033452821787
 20
236.7994360017063
 10
102.4130466470451
 20
236.6573125815572
 10
100.3850746397805
 20
236.4639385673741
 10
98.43814180257921
 20
236.221097995047
 10
96.59021125398553
 20
235.9310313491249
 10
94.8583313942221
 20
235.5964152799965
 10
93.2584831228641
 20
235.2203366964232
 10
91.80542705651351
 20
234.8062654945214
 10
90.51256984426381
 20
234.3580220029852
 10
89.39183838569907
 20
233.8797423829824
 10
88.45357446377265
 20
233.3758390851792
 10
87.706434646042
 20
232.8509613067644
 10
87.15731191787215
 20
232.30995221004
 10
86.81127377925208
 20
231.7578029025794
 10
86.67151153686738
 20
231.1996079513792
 10
86.66838608463252
 20
231.1025507402222
  0
LWPOLYLINE
  5
9A
330
1F
100
AcDbEntity
  8
0
  6
Continuous
 62
     8
370
    15
100
AcDbPolyline
 90
        3
 70
   128
 43
0.0
 10
124.5391941404452
 20
235.3552894581301
 10
124.5579756651767
 20
233.9269182600796
 10
124.5773982006687
 20
232.4482398908944
  0
ARC
  5
9B
330
1F
100
AcDbEntity
  8
0
  6
Continuous
 62
     8
370
    15
100
AcDbCircle
 10
116.587424637283
 20
199.5439473175036
 30
0.0
 40
33.86048061234375
100
AcDbArc
 50
74.62702409469055
 51
76.35133850716838
  0
LINE
  5
9C
330
1F
100
AcDbEntity
  8
0
  6
Continuous
 62
     8
370
    15
100
AcDbLine
 10
125.5638842088283
 20
232.1929185242555
 30
0.0
 11
125.599706972111
 21
235.0808085397194
 31
0.0
  0
LWPOLYLINE
  5
9D
330
1F
100
AcDbEntity
  8
0
  6
Continuous
 62
     8
370
    15
100
AcDbPolyline
 90
        9
 70
   128
 43
0.0
 10
131.6683865788958
 20
231.1025507402222
 10
131.6329772992461
 20
231.4291336197513
 10
131.3967942627251
 20
232.0046339065735
 10
130.9410715850334
 20
232.5712245814647
 10
130.2703097593386
 20
233.1233099724776
 10
129.3911334141187
 20
233.6554373248421
 10
128.3122254587115
 20
234.1623506612254
 10
127.0442414725282
 20
234.6390436193288
 10
125.599706972111
 20
235.0808085397194
  0
LINE
  5
9E
330
1F
100
AcDbEntity
  8
0
  6
Continuous
 62
     8
370
    15
100
AcDbLine
 10
94.85488508675516
 20
211.1705785051893
 30
0.0
 11
95.16838629049468
 21
211.089438422999
 31
0.0
  0
LINE
  5
9F
330
1F
100
AcDbEntity
  8
0
  6
Continuous
 62
     8
370
    15
100
AcDbLine
 10
95.16838651686935
 20
211.2517186459698
 30
0.0
 11
94.85488508675516
 21
211.1705785051893
 31
0.0
  0
LINE
  5
A0
330
1F
100
AcDbEntity
  8
0
  6
Continuous
 62
     8
370
    15
100
AcDbLine
 10
120.5150217909192
 20
217.8119105841612
 30
0.0
 11
120.8891991247751
 21
217.7150663639136
 31
0.0
  0
LINE
  5
A1
330
1F
100
AcDbEntity
  8
0
  6
Continuous
 62
     8
370
    15
100
AcDbLine
 10
120.8891991247751
 20
217.7150663639136
 30
0.0
 11
123.4826185200179
 21
218.3862926953407
 31
0.0
  0
LINE
  5
A2
330
1F
100
AcDbEntity
  8
0
  6
Continuous
 62
     8
370
    15
100
AcDbLine
 10
123.4826185200179
 20
218.3862926953407
 30
0.0
 11
123.1084411861621
 21
218.4831369155883
 31
0.0
  0
LINE
  5
A3
330
1F
100
AcDbEntity
  8
0
  6
Continuous
 62
     8
370
    15
100
AcDbLine
 10
123.1084411861621
 20
218.4831369155883
 30
0.0
 11
120.5150217909192
 21
217.8119105841612
 31
0.0
  0
LINE
  5
A4
330
1F
100
AcDbEntity
  8
0
  6
Continuous
 62
     8
370
    15
100
AcDbLine
 10
94.85476327660075
 20
218.3861980936717
 30
0.0
 11
97.44769534890766
 21
217.7150978907015
 31
0.0
  0
LINE
  5
A5
330
1F
100
AcDbEntity
  8
0
  6
Continuous
 62
     8
370
    15
100
AcDbLine
 10
97.44769534890766
 20
217.7150978907015
 30
0.0
 11
97.82187268276353
 21
217.8119421109491
 31
0.0
  0
LINE
  5
A6
330
1F
100
AcDbEntity
  8
0
  6
Continuous
 62
     8
370
    15
100
AcDbLine
 10
97.82187268276353
 20
217.8119421109491
 30
0.0
 11
95.22894061045663
 21
218.4830423139192
 31
0.0
  0
LINE
  5
A7
330
1F
100
AcDbEntity
  8
0
  6
Continuous
 62
     8
370
    15
100
AcDbLine
 10
95.22894061045663
 20
218.4830423139192
 30
0.0
 11
94.85476327660075
 21
218.3861980936717
 31
0.0
  0
LINE
  5
A8
330
1F
100
AcDbEntity
  8
0
  6
Continuous
 62
     8
370
    15
100
AcDbLine
 10
121.8909026765276
 20
218.7263822121891
 30
0.0
 11
121.429027464452
 21
218.5838900580529
 31
0.0
  0
LINE
  5
A9
330
1F
100
AcDbEntity
  8
0
  6
Continuous
 62
     8
370
    15
100
AcDbLine
 10
121.429027464452
 20
218.5838900580529
 30
0.0
 11
121.5196488686968
 21
218.5642186846728
 31
0.0
  0
LINE
  5
AA
330
1F
100
AcDbEntity
  8
0
  6
Continuous
 62
     8
370
    15
100
AcDbLine
 10
121.5196488686968
 20
218.5642186846728
 30
0.0
 11
121.9807931786866
 21
218.706647753275
 31
0.0
  0
LINE
  5
AB
330
1F
100
AcDbEntity
  8
0
  6
Continuous
 62
     8
370
    15
100
AcDbLine
 10
121.9807931786866
 20
218.706647753275
 30
0.0
 11
121.8909026765276
 21
218.7263822121891
 31
0.0
  0
LINE
  5
AC
330
1F
100
AcDbEntity
  8
0
  6
Continuous
 62
     8
370
    15
100
AcDbLine
 10
119.0487623805125
 20
219.2380299250805
 30
0.0
 11
118.688958686042
 21
219.0769383190043
 31
0.0
  0
LINE
  5
AD
330
1F
100
AcDbEntity
  8
0
  6
Continuous
 62
     8
370
    15
100
AcDbLine
 10
118.688958686042
 20
219.0769383190043
 30
0.0
 11
118.7912727949802
 21
219.0618063130501
 31
0.0
  0
LINE
  5
AE
330
1F
100
AcDbEntity
  8
0
  6
Continuous
 62
     8
370
    15
100
AcDbLine
 10
118.7912727949802
 20
219.0618063130501
 30
0.0
 11
119.1505904836038
 21
219.2227721315572
 31
0.0
  0
LINE
  5
AF
330
1F
100
AcDbEntity
  8
0
  6
Continuous
 62
     8
370
    15
100
AcDbLine
 10
119.1505904836038
 20
219.2227721315572
 30
0.0
 11
119.0487623805125
 21
219.2380299250805
 31
0.0
  0
LINE
  5
B0
330
1F
100
AcDbEntity
  8
0
  6
Continuous
 62
     8
370
    15
100
AcDbLine
 10
115.906501784877
 20
219.6144994216484
 30
0.0
 11
115.6609483185519
 21
219.4397257755411
 31
0.0
  0
LINE
  5
B1
330
1F
100
AcDbEntity
  8
0
  6
Continuous
 62
     8
370
    15
100
AcDbLine
 10
115.6609483185519
 20
219.4397257755411
 30
0.0
 11
115.7715449417671
 21
219.4292596702739
 31
0.0
  0
LINE
  5
B2
330
1F
100
AcDbEntity
  8
0
  6
Continuous
 62
     8
370
    15
100
AcDbLine
 10
115.7715449417671
 20
219.4292596702739
 30
0.0
 11
116.0170990666366
 21
219.6040331459374
 31
0.0
  0
LINE
  5
B3
330
1F
100
AcDbEntity
  8
0
  6
Continuous
 62
     8
370
    15
100
AcDbLine
 10
116.0170990666366
 20
219.6040331459374
 30
0.0
 11
115.906501784877
 21
219.6144994216484
 31
0.0
  0
LINE
  5
B4
330
1F
100
AcDbEntity
  8
0
  6
Continuous
 62
     8
370
    15
100
AcDbLine
 10
112.5598556450163
 20
219.8438737358721
 30
0.0
 11
112.4356166137738
 21
219.660651528477
 31
0.0
  0
LINE
  5
B5
330
1F
100
AcDbEntity
  8
0
  6
Continuous
 62
     8
370
    15
100
AcDbLine
 10
112.4356166137738
 20
219.660651528477
 30
0.0
 11
112.5510858078034
 21
219.6552293683799
 31
0.0
  0
LINE
  5
B6
330
1F
100
AcDbEntity
  8
0
  6
Continuous
 62
     8
370
    15
100
AcDbLine
 10
112.5510858078034
 20
219.6552293683799
 30
0.0
 11
112.6755685005139
 21
219.8383885115466
 31
0.0
  0
LINE
  5
B7
330
1F
100
AcDbEntity
  8
0
  6
Continuous
 62
     8
370
    15
100
AcDbLine
 10
112.6755685005139
 20
219.8383885115466
 30
0.0
 11
112.5598556450163
 21
219.8438737358721
 31
0.0
  0
LINE
  5
B8
330
1F
100
AcDbEntity
  8
0
  6
Continuous
 62
     8
370
    15
100
AcDbLine
 10
109.1094340859541
 20
219.9192811678413
 30
0.0
 11
109.1091897659416
 21
219.7332217519407
 31
0.0
  0
LINE
  5
B9
330
1F
100
AcDbEntity
  8
0
  6
Continuous
 62
     8
370
    15
100
AcDbLine
 10
109.1091897659416
 20
219.7332217519407
 30
0.0
 11
109.2278265590547
 21
219.7332848161692
 31
0.0
  0
LINE
  5
BA
330
1F
100
AcDbEntity
  8
0
  6
Continuous
 62
     8
370
    15
100
AcDbLine
 10
109.2278265590547
 20
219.7332848161692
 30
0.0
 11
109.2275822390422
 21
219.9192181036128
 31
0.0
  0
LINE
  5
BB
330
1F
100
AcDbEntity
  8
0
  6
Continuous
 62
     8
370
    15
100
AcDbLine
 10
109.2275822390422
 20
219.9192181036128
 30
0.0
 11
109.1094340859541
 21
219.9192811678413
 31
0.0
  0
LINE
  5
BC
330
1F
100
AcDbEntity
  8
0
  6
Continuous
 62
     8
370
    15
100
AcDbLine
 10
105.6614478244824
 20
219.8384515757751
 30
0.0
 11
105.7861741786608
 21
219.6553554968368
 31
0.0
  0
LINE
  5
BD
330
1F
100
AcDbEntity
  8
0
  6
Continuous
 62
     8
370
    15
100
AcDbLine
 10
105.7861741786608
 20
219.6553554968368
 30
0.0
 11
105.9021306956264
 21
219.660651528477
 31
0.0
  0
LINE
  5
BE
330
1F
100
AcDbEntity
  8
0
  6
Continuous
 62
     8
370
    15
100
AcDbLine
 10
105.9021306956264
 20
219.660651528477
 30
0.0
 11
105.777404341448
 21
219.8437476074152
 31
0.0
  0
LINE
  5
BF
330
1F
100
AcDbEntity
  8
0
  6
Continuous
 62
     8
370
    15
100
AcDbLine
 10
105.777404341448
 20
219.8437476074152
 30
0.0
 11
105.6614478244824
 21
219.8384515757751
 31
0.0
  0
LINE
  5
C0
330
1F
100
AcDbEntity
  8
0
  6
Continuous
 62
     8
370
    15
100
AcDbLine
 10
102.3196735968917
 20
219.6040331459374
 30
0.0
 11
102.5654713832292
 21
219.4291966060455
 31
0.0
  0
LINE
  5
C1
330
1F
100
AcDbEntity
  8
0
  6
Continuous
 62
     8
370
    15
100
AcDbLine
 10
102.5654713832292
 20
219.4291966060455
 30
0.0
 11
102.6767989908482
 21
219.4397257755411
 31
0.0
  0
LINE
  5
C2
330
1F
100
AcDbEntity
  8
0
  6
Continuous
 62
     8
370
    15
100
AcDbLine
 10
102.6767989908482
 20
219.4397257755411
 30
0.0
 11
102.4305145401193
 21
219.6144363574199
 31
0.0
  0
LINE
  5
C3
330
1F
100
AcDbEntity
  8
0
  6
Continuous
 62
     8
370
    15
100
AcDbLine
 10
102.4305145401193
 20
219.6144363574199
 30
0.0
 11
102.3196735968917
 21
219.6040331459374
 31
0.0
  0
LINE
  5
C4
330
1F
100
AcDbEntity
  8
0
  6
Continuous
 62
     8
370
    15
100
AcDbLine
 10
99.18642584139248
 20
219.2228351957856
 30
0.0
 11
99.54549986854809
 21
219.0618063130501
 31
0.0
  0
LINE
  5
C5
330
1F
100
AcDbEntity
  8
0
  6
Continuous
 62
     8
370
    15
100
AcDbLine
 10
99.54549986854809
 20
219.0618063130501
 30
0.0
 11
99.64830130042222
 21
219.0770644474612
 31
0.0
  0
LINE
  5
C6
330
1F
100
AcDbEntity
  8
0
  6
Continuous
 62
     8
370
    15
100
AcDbLine
 10
99.64830130042222
 20
219.0770644474612
 30
0.0
 11
99.28849727667952
 21
219.2380298398586
 31
0.0
  0
LINE
  5
C7
330
1F
100
AcDbEntity
  8
0
  6
Continuous
 62
     8
370
    15
100
AcDbLine
 10
99.28849727667952
 20
219.2380298398586
 30
0.0
 11
99.18642584139248
 21
219.2228351957856
 31
0.0
  0
LINE
  5
C8
330
1F
100
AcDbEntity
  8
0
  6
Continuous
 62
     8
370
    15
100
AcDbLine
 10
96.35646672545957
 20
218.7066477319696
 30
0.0
 11
96.81809827606718
 21
218.5642186420619
 31
0.0
  0
LINE
  5
C9
330
1F
100
AcDbEntity
  8
0
  6
Continuous
 62
     8
370
    15
100
AcDbLine
 10
96.81809827606718
 20
218.5642186420619
 30
0.0
 11
96.90798886054425
 21
218.5838269938245
 31
0.0
  0
LINE
  5
CA
330
1F
100
AcDbEntity
  8
0
  6
Continuous
 62
     8
370
    15
100
AcDbLine
 10
96.90798886054425
 20
218.5838269938245
 30
0.0
 11
96.44635730993664
 21
218.7262560837322
 31
0.0
  0
LINE
  5
CB
330
1F
100
AcDbEntity
  8
0
  6
Continuous
 62
     8
370
    15
100
AcDbLine
 10
96.44635730993664
 20
218.7262560837322
 30
0.0
 11
96.35646672545957
 21
218.7066477319696
 31
0.0
  0
LINE
  5
CC
330
1F
100
AcDbEntity
  8
0
  6
Continuous
 62
     8
370
    15
100
AcDbLine
 10
93.99142727286262
 20
218.0945304792186
 30
0.0
 11
93.915179178731
 21
218.0711389768291
 31
0.0
  0
LINE
  5
CD
330
1F
100
AcDbEntity
  8
0
  6
Continuous
 62
     8
370
    15
100
AcDbLine
 10
93.915179178731
 20
218.0711389768291
 30
0.0
 11
94.4656047548918
 21
217.9516914718259
 31
0.0
  0
LINE
  5
CE
330
1F
100
AcDbEntity
  8
0
  6
Continuous
 62
     8
370
    15
100
AcDbLine
 10
94.4656047548918
 20
217.9516914718259
 30
0.0
 11
94.54160918755548
 21
217.975019909987
 31
0.0
  0
LINE
  5
CF
330
1F
100
AcDbEntity
  8
0
  6
Continuous
 62
     8
370
    15
100
AcDbLine
 10
94.54160918755548
 20
217.975019909987
 30
0.0
 11
93.99142727286262
 21
218.0945304792186
 31
0.0
  0
LINE
  5
D0
330
1F
100
AcDbEntity
  8
0
  6
Continuous
 62
     8
370
    15
100
AcDbLine
 10
91.99666673527042
 20
217.361988609422
 30
0.0
 11
91.93783730801105
 21
217.3355390458945
 31
0.0
  0
LINE
  5
D1
330
1F
100
AcDbEntity
  8
0
  6
Continuous
 62
     8
370
    15
100
AcDbLine
 10
91.93783730801105
 20
217.3355390458945
 30
0.0
 11
92.56036898030248
 21
217.2425725726165
 31
0.0
  0
LINE
  5
D2
330
1F
100
AcDbEntity
  8
0
  6
Continuous
 62
     8
370
    15
100
AcDbLine
 10
92.56036898030248
 20
217.2425725726165
 30
0.0
 11
92.61895606318292
 21
217.2690848594848
 31
0.0
  0
LINE
  5
D3
330
1F
100
AcDbEntity
  8
0
  6
Continuous
 62
     8
370
    15
100
AcDbLine
 10
92.61895606318292
 20
217.2690848594848
 30
0.0
 11
91.99666673527042
 21
217.361988609422
 31
0.0
  0
LINE
  5
D4
330
1F
100
AcDbEntity
  8
0
  6
Continuous
 62
     8
370
    15
100
AcDbLine
 10
90.52395278608427
 20
216.5510759493883
 30
0.0
 11
90.48375786349506
 21
216.5223882023039
 31
0.0
  0
LINE
  5
D5
330
1F
100
AcDbEntity
  8
0
  6
Continuous
 62
     8
370
    15
100
AcDbLine
 10
90.48375786349506
 20
216.5223882023039
 30
0.0
 11
91.15915320834803
 21
216.4587396922853
 31
0.0
  0
LINE
  5
D6
330
1F
100
AcDbEntity
  8
0
  6
Continuous
 62
     8
370
    15
100
AcDbLine
 10
91.15915320834803
 20
216.4587396922853
 30
0.0
 11
91.19946930312672
 21
216.4874588010401
 31
0.0
  0
LINE
  5
D7
330
1F
100
AcDbEntity
  8
0
  6
Continuous
 62
     8
370
    15
100
AcDbLine
 10
91.19946930312672
 20
216.4874588010401
 30
0.0
 11
90.52395278608427
 21
216.5510759493883
 31
0.0
  0
LINE
  5
D8
330
1F
100
AcDbEntity
  8
0
  6
Continuous
 62
     8
370
    15
100
AcDbLine
 10
89.61835135466478
 20
215.6861926669693
 30
0.0
 11
89.59740173677685
 21
215.6560547835179
 31
0.0
  0
LINE
  5
D9
330
1F
100
AcDbEntity
  8
0
  6
Continuous
 62
     8
370
    15
100
AcDbLine
 10
89.59740173677685
 20
215.6560547835179
 30
0.0
 11
90.30519615433354
 21
215.623867823973
 31
0.0
  0
LINE
  5
DA
330
1F
100
AcDbEntity
  8
0
  6
Continuous
 62
     8
370
    15
100
AcDbLine
 10
90.30519615433354
 20
215.623867823973
 30
0.0
 11
90.32578028001957
 21
215.6539111110817
 31
0.0
  0
LINE
  5
DB
330
1F
100
AcDbEntity
  8
0
  6
Continuous
 62
     8
370
    15
100
AcDbLine
 10
90.32578028001957
 20
215.6539111110817
 30
0.0
 11
89.61835135466478
 21
215.6861926669693
 31
0.0
  0
LINE
  5
DC
330
1F
100
AcDbEntity
  8
0
  6
Continuous
 62
     8
370
    15
100
AcDbLine
 10
89.30592796191017
 20
214.7937566231343
 30
0.0
 11
89.30604979264415
 21
214.7631460988572
 31
0.0
  0
LINE
  5
DD
330
1F
100
AcDbEntity
  8
0
  6
Continuous
 62
     8
370
    15
100
AcDbLine
 10
89.30604979264415
 20
214.7631460988572
 30
0.0
 11
90.02480634208074
 21
214.7631774605276
 31
0.0
  0
LINE
  5
DE
330
1F
100
AcDbEntity
  8
0
  6
Continuous
 62
     8
370
    15
100
AcDbLine
 10
90.02480634208074
 20
214.7631774605276
 30
0.0
 11
90.02456268061277
 21
214.7937567935782
 31
0.0
  0
LINE
  5
DF
330
1F
100
AcDbEntity
  8
0
  6
Continuous
 62
     8
370
    15
100
AcDbLine
 10
90.02456268061277
 20
214.7937567935782
 30
0.0
 11
89.30592796191017
 21
214.7937566231343
 31
0.0
  0
LINE
  5
E0
330
1F
100
AcDbEntity
  8
0
  6
Continuous
 62
     8
370
    15
100
AcDbLine
 10
89.5975229089663
 20
213.9007847038013
 30
0.0
 11
89.6182301824753
 21
213.8707102254661
 31
0.0
  0
LINE
  5
E1
330
1F
100
AcDbEntity
  8
0
  6
Continuous
 62
     8
370
    15
100
AcDbLine
 10
89.6182301824753
 20
213.8707102254661
 30
0.0
 11
90.32590145220904
 21
213.9029283762375
 31
0.0
  0
LINE
  5
E2
330
1F
100
AcDbEntity
  8
0
  6
Continuous
 62
     8
370
    15
100
AcDbLine
 10
90.32590145220904
 20
213.9029283762375
 30
0.0
 11
90.305439157257
 21
213.9330662596889
 31
0.0
  0
LINE
  5
E3
330
1F
100
AcDbEntity
  8
0
  6
Continuous
 62
     8
370
    15
100
AcDbLine
 10
90.305439157257
 20
213.9330662596889
 30
0.0
 11
89.5975229089663
 21
213.9007847038013
 31
0.0
  0
LINE
  5
E4
330
1F
100
AcDbEntity
  8
0
  6
Continuous
 62
     8
370
    15
100
AcDbLine
 10
90.48363603276105
 20
213.0345775839161
 30
0.0
 11
90.52370978316081
 21
213.0058584751613
 31
0.0
  0
LINE
  5
E5
330
1F
100
AcDbEntity
  8
0
  6
Continuous
 62
     8
370
    15
100
AcDbLine
 10
90.52370978316081
 20
213.0058584751613
 30
0.0
 11
91.19934747239272
 21
213.0695069851799
 31
0.0
  0
LINE
  5
E6
330
1F
100
AcDbEntity
  8
0
  6
Continuous
 62
     8
370
    15
100
AcDbLine
 10
91.19934747239272
 20
213.0695069851799
 30
0.0
 11
91.15903203615854
 21
213.0981632001501
 31
0.0
  0
LINE
  5
E7
330
1F
100
AcDbEntity
  8
0
  6
Continuous
 62
     8
370
    15
100
AcDbLine
 10
91.15903203615854
 20
213.0981632001501
 30
0.0
 11
90.48363603276105
 21
213.0345775839161
 31
0.0
  0
LINE
  5
E8
330
1F
100
AcDbEntity
  8
0
  6
Continuous
 62
     8
370
    15
100
AcDbLine
 10
91.9377151480048
 20
212.2211745686336
 30
0.0
 11
91.9966667352704
 21
212.1948195162269
 31
0.0
  0
LINE
  5
E9
330
1F
100
AcDbEntity
  8
0
  6
Continuous
 62
     8
370
    15
100
AcDbLine
 10
91.9966667352704
 20
212.1948195162269
 30
0.0
 11
92.61883456172116
 21
212.2878808415133
 31
0.0
  0
LINE
  5
EA
330
1F
100
AcDbEntity
  8
0
  6
Continuous
 62
     8
370
    15
100
AcDbLine
 10
92.61883456172116
 20
212.2878808415133
 30
0.0
 11
92.56000414664503
 21
212.3142672555904
 31
0.0
  0
LINE
  5
EB
330
1F
100
AcDbEntity
  8
0
  6
Continuous
 62
     8
370
    15
100
AcDbLine
 10
92.56000414664503
 20
212.3142672555904
 30
0.0
 11
91.9377151480048
 21
212.2211745686336
 31
0.0
  0
LINE
  5
EC
330
1F
100
AcDbEntity
  8
0
  6
Continuous
 62
     8
370
    15
100
AcDbLine
 10
123.7958943780586
 20
217.9750829955209
 30
0.0
 11
123.8718988107223
 21
217.9516284289029
 31
0.0
  0
LINE
  5
ED
330
1F
100
AcDbEntity
  8
0
  6
Continuous
 62
     8
370
    15
100
AcDbLine
 10
123.8718988107223
 20
217.9516284289029
 30
0.0
 11
124.4219589769993
 21
218.0712966374003
 31
0.0
  0
LINE
  5
EE
330
1F
100
AcDbEntity
  8
0
  6
Continuous
 62
     8
370
    15
100
AcDbLine
 10
124.4219589769993
 20
218.0712966374003
 30
0.0
 11
124.3459544620175
 21
218.0944989684099
 31
0.0
  0
LINE
  5
EF
330
1F
100
AcDbEntity
  8
0
  6
Continuous
 62
     8
370
    15
100
AcDbLine
 10
124.3459544620175
 20
218.0944989684099
 30
0.0
 11
123.7958943780586
 21
217.9750829955209
 31
0.0
  0
LINE
  5
F0
330
1F
100
AcDbEntity
  8
0
  6
Continuous
 62
     8
370
    15
100
AcDbLine
 10
93.91517860250451
 20
211.4857320212988
 30
0.0
 11
93.99057462236087
 21
211.4623722001619
 31
0.0
  0
LINE
  5
F1
330
1F
100
AcDbEntity
  8
0
  6
Continuous
 62
     8
370
    15
100
AcDbLine
 10
93.99057462236087
 20
211.4623722001619
 30
0.0
 11
94.54148678059502
 21
211.5818826202552
 31
0.0
  0
LINE
  5
F2
330
1F
100
AcDbEntity
  8
0
  6
Continuous
 62
     8
370
    15
100
AcDbLine
 10
94.54148678059502
 20
211.5818826202552
 30
0.0
 11
94.46572600939929
 21
211.6052741226447
 31
0.0
  0
LINE
  5
F3
330
1F
100
AcDbEntity
  8
0
  6
Continuous
 62
     8
370
    15
100
AcDbLine
 10
94.46572600939929
 20
211.6052741226447
 30
0.0
 11
93.91517860250451
 21
211.4857320212988
 31
0.0
  0
LINE
  5
F4
330
1F
100
AcDbEntity
  8
0
  6
Continuous
 62
     8
370
    15
100
AcDbLine
 10
120.4485178300205
 20
219.0099165545383
 30
0.0
 11
119.1615527801198
 21
218.5342071853442
 31
0.0
  0
LINE
  5
F5
330
1F
100
AcDbEntity
  8
0
  6
Continuous
 62
     8
370
    15
100
AcDbLine
 10
119.1615527801198
 20
218.5342071853442
 30
0.0
 11
119.3866436222206
 21
218.4933510249337
 31
0.0
  0
LINE
  5
F6
330
1F
100
AcDbEntity
  8
0
  6
Continuous
 62
     8
370
    15
100
AcDbLine
 10
119.3866436222206
 20
218.4933510249337
 30
0.0
 11
120.6738523335892
 21
218.9689973298995
 31
0.0
  0
LINE
  5
F7
330
1F
100
AcDbEntity
  8
0
  6
Continuous
 62
     8
370
    15
100
AcDbLine
 10
120.6738523335892
 20
218.9689973298995
 30
0.0
 11
120.4485178300205
 21
219.0099165545383
 31
0.0
  0
LINE
  5
F8
330
1F
100
AcDbEntity
  8
0
  6
Continuous
 62
     8
370
    15
100
AcDbLine
 10
117.4380464784115
 20
219.4526508743867
 30
0.0
 11
116.4799471959047
 21
218.9256190264601
 31
0.0
  0
LINE
  5
F9
330
1F
100
AcDbEntity
  8
0
  6
Continuous
 62
     8
370
    15
100
AcDbLine
 10
116.4799471959047
 20
218.9256190264601
 30
0.0
 11
116.7298872271974
 21
218.8954814838965
 31
0.0
  0
LINE
  5
FA
330
1F
100
AcDbEntity
  8
0
  6
Continuous
 62
     8
370
    15
100
AcDbLine
 10
116.7298872271974
 20
218.8954814838965
 30
0.0
 11
117.6879848633429
 21
219.4225130761572
 31
0.0
  0
LINE
  5
FB
330
1F
100
AcDbEntity
  8
0
  6
Continuous
 62
     8
370
    15
100
AcDbLine
 10
117.6879848633429
 20
219.4225130761572
 30
0.0
 11
117.4380464784115
 21
219.4526508743867
 31
0.0
  0
LINE
  5
FC
330
1F
100
AcDbEntity
  8
0
  6
Continuous
 62
     8
370
    15
100
AcDbLine
 10
114.1766627545438
 20
219.753271574608
 30
0.0
 11
113.5898179384122
 21
219.1954715418332
 31
0.0
  0
LINE
  5
FD
330
1F
100
AcDbEntity
  8
0
  6
Continuous
 62
     8
370
    15
100
AcDbLine
 10
113.5898179384122
 20
219.1954715418332
 30
0.0
 11
113.8553476938424
 21
219.1769349197613
 31
0.0
  0
LINE
  5
FE
330
1F
100
AcDbEntity
  8
0
  6
Continuous
 62
     8
370
    15
100
AcDbLine
 10
113.8553476938424
 20
219.1769349197613
 30
0.0
 11
114.441948848506
 21
219.7347980167646
 31
0.0
  0
LINE
  5
FF
330
1F
100
AcDbEntity
  8
0
  6
Continuous
 62
     8
370
    15
100
AcDbLine
 10
114.441948848506
 20
219.7347980167646
 30
0.0
 11
114.1766627545438
 21
219.753271574608
 31
0.0
  0
LINE
  5
100
330
1F
100
AcDbEntity
  8
0
  6
Continuous
 62
     8
370
    15
100
AcDbLine
 10
110.7622938731156
 20
219.9028251539771
 30
0.0
 11
110.558396639643
 21
219.3258580272896
 31
0.0
  0
LINE
  5
101
330
1F
100
AcDbEntity
  8
0
  6
Continuous
 62
     8
370
    15
100
AcDbLine
 10
110.558396639643
 20
219.3258580272896
 30
0.0
 11
110.8324519122736
 21
219.3194900742095
 31
0.0
  0
LINE
  5
102
330
1F
100
AcDbEntity
  8
0
  6
Continuous
 62
     8
370
    15
100
AcDbLine
 10
110.8324519122736
 20
219.3194900742095
 30
0.0
 11
111.03708013015
 21
219.8965202651255
 31
0.0
  0
LINE
  5
103
330
1F
100
AcDbEntity
  8
0
  6
Continuous
 62
     8
370
    15
100
AcDbLine
 10
111.03708013015
 20
219.8965202651255
 30
0.0
 11
110.7622938731156
 21
219.9028251539771
 31
0.0
  0
LINE
  5
104
330
1F
100
AcDbEntity
  8
0
  6
Continuous
 62
     8
370
    15
100
AcDbLine
 10
107.3001798563142
 20
219.8965202651255
 30
0.0
 11
107.5067567073898
 21
219.3189857308256
 31
0.0
  0
LINE
  5
105
330
1F
100
AcDbEntity
  8
0
  6
Continuous
 62
     8
370
    15
100
AcDbLine
 10
107.5067567073898
 20
219.3189857308256
 30
0.0
 11
107.7808119800203
 21
219.3252275554488
 31
0.0
  0
LINE
  5
106
330
1F
100
AcDbEntity
  8
0
  6
Continuous
 62
     8
370
    15
100
AcDbLine
 10
107.7808119800203
 20
219.3252275554488
 30
0.0
 11
107.5747224518807
 21
219.9028882182056
 31
0.0
  0
LINE
  5
107
330
1F
100
AcDbEntity
  8
0
  6
Continuous
 62
     8
370
    15
100
AcDbLine
 10
107.5747224518807
 20
219.9028882182056
 30
0.0
 11
107.3001798563142
 21
219.8965202651255
 31
0.0
  0
LINE
  5
108
330
1F
100
AcDbEntity
  8
0
  6
Continuous
 62
     8
370
    15
100
AcDbLine
 10
103.8948238150223
 20
219.7347980167646
 30
0.0
 11
104.4850792331607
 21
219.176241383692
 31
0.0
  0
LINE
  5
109
330
1F
100
AcDbEntity
  8
0
  6
Continuous
 62
     8
370
    15
100
AcDbLine
 10
104.4850792331607
 20
219.176241383692
 30
0.0
 11
104.750365327123
 21
219.1945888130785
 31
0.0
  0
LINE
  5
10A
330
1F
100
AcDbEntity
  8
0
  6
Continuous
 62
     8
370
    15
100
AcDbLine
 10
104.750365327123
 20
219.1945888130785
 30
0.0
 11
104.1605972319204
 21
219.753271574608
 31
0.0
  0
LINE
  5
10B
330
1F
100
AcDbEntity
  8
0
  6
Continuous
 62
     8
370
    15
100
AcDbLine
 10
104.1605972319204
 20
219.753271574608
 30
0.0
 11
103.8948238150223
 21
219.7347980167646
 31
0.0
  0
LINE
  5
10C
330
1F
100
AcDbEntity
  8
0
  6
Continuous
 62
     8
370
    15
100
AcDbLine
 10
100.6492751231213
 20
219.4225130761573
 30
0.0
 11
101.6020131947887
 21
218.8944727119068
 31
0.0
  0
LINE
  5
10D
330
1F
100
AcDbEntity
  8
0
  6
Continuous
 62
     8
370
    15
100
AcDbLine
 10
101.6020131947887
 20
218.8944727119068
 30
0.0
 11
101.8519532260814
 21
218.9246102544705
 31
0.0
  0
LINE
  5
10E
330
1F
100
AcDbEntity
  8
0
  6
Continuous
 62
     8
370
    15
100
AcDbLine
 10
101.8519532260814
 20
218.9246102544705
 30
0.0
 11
100.8992135080527
 21
219.4526508743867
 31
0.0
  0
LINE
  5
10F
330
1F
100
AcDbEntity
  8
0
  6
Continuous
 62
     8
370
    15
100
AcDbLine
 10
100.8992135080527
 20
219.4526508743867
 30
0.0
 11
100.6492751231213
 21
219.4225130761573
 31
0.0
  0
LINE
  5
110
330
1F
100
AcDbEntity
  8
0
  6
Continuous
 62
     8
370
    15
100
AcDbLine
 10
97.66292032993915
 20
218.9689973298995
 30
0.0
 11
98.94866723713618
 21
218.4932249390878
 31
0.0
  0
LINE
  5
111
330
1F
100
AcDbEntity
  8
0
  6
Continuous
 62
     8
370
    15
100
AcDbLine
 10
98.94866723713618
 20
218.4932249390878
 30
0.0
 11
99.17424540217283
 21
218.5342072279551
 31
0.0
  0
LINE
  5
112
330
1F
100
AcDbEntity
  8
0
  6
Continuous
 62
     8
370
    15
100
AcDbLine
 10
99.17424540217283
 20
218.5342072279551
 30
0.0
 11
97.88849833033969
 21
219.0099795761559
 31
0.0
  0
LINE
  5
113
330
1F
100
AcDbEntity
  8
0
  6
Continuous
 62
     8
370
    15
100
AcDbLine
 10
97.88849833033969
 20
219.0099795761559
 30
0.0
 11
97.66292032993915
 21
218.9689973298995
 31
0.0
  0
LINE
  5
114
330
1F
100
AcDbEntity
  8
0
  6
Continuous
 62
     8
370
    15
100
AcDbLine
 10
92.97754276740262
 20
217.756206254762
 30
0.0
 11
92.81919936245298
 21
217.6979484579482
 31
0.0
  0
LINE
  5
115
330
1F
100
AcDbEntity
  8
0
  6
Continuous
 62
     8
370
    15
100
AcDbLine
 10
92.81919936245298
 20
217.6979484579482
 30
0.0
 11
94.65451993617167
 21
217.3631549141499
 31
0.0
  0
LINE
  5
116
330
1F
100
AcDbEntity
  8
0
  6
Continuous
 62
     8
370
    15
100
AcDbLine
 10
94.65451993617167
 20
217.3631549141499
 30
0.0
 11
94.81274151038734
 21
217.4215073073064
 31
0.0
  0
LINE
  5
117
330
1F
100
AcDbEntity
  8
0
  6
Continuous
 62
     8
370
    15
100
AcDbLine
 10
94.81274151038734
 20
217.4215073073064
 30
0.0
 11
92.97754276740262
 21
217.756206254762
 31
0.0
  0
LINE
  5
118
330
1F
100
AcDbEntity
  8
0
  6
Continuous
 62
     8
370
    15
100
AcDbLine
 10
91.225292479646
 20
216.9834068873103
 30
0.0
 11
91.10884896901675
 21
216.9187180731878
 31
0.0
  0
LINE
  5
119
330
1F
100
AcDbEntity
  8
0
  6
Continuous
 62
     8
370
    15
100
AcDbLine
 10
91.10884896901675
 20
216.9187180731878
 30
0.0
 11
93.13332838548325
 21
216.6718472705522
 31
0.0
  0
LINE
  5
11A
330
1F
100
AcDbEntity
  8
0
  6
Continuous
 62
     8
370
    15
100
AcDbLine
 10
93.13332838548325
 20
216.6718472705522
 30
0.0
 11
93.2497718961125
 21
216.7365360846746
 31
0.0
  0
LINE
  5
11B
330
1F
100
AcDbEntity
  8
0
  6
Continuous
 62
     8
370
    15
100
AcDbLine
 10
93.2497718961125
 20
216.7365360846746
 30
0.0
 11
91.225292479646
 21
216.9834068873103
 31
0.0
  0
LINE
  5
11C
330
1F
100
AcDbEntity
  8
0
  6
Continuous
 62
     8
370
    15
100
AcDbLine
 10
90.01859363319244
 20
216.1433653714806
 30
0.0
 11
89.94685245303731
 21
216.0746098520635
 31
0.0
  0
LINE
  5
11D
330
1F
100
AcDbEntity
  8
0
  6
Continuous
 62
     8
370
    15
100
AcDbLine
 10
89.94685245303731
 20
216.0746098520635
 30
0.0
 11
92.10166079108389
 21
215.923007026157
 31
0.0
  0
LINE
  5
11E
330
1F
100
AcDbEntity
  8
0
  6
Continuous
 62
     8
370
    15
100
AcDbLine
 10
92.10166079108389
 20
215.923007026157
 30
0.0
 11
92.17315962686007
 21
215.9918256098026
 31
0.0
  0
LINE
  5
11F
330
1F
100
AcDbEntity
  8
0
  6
Continuous
 62
     8
370
    15
100
AcDbLine
 10
92.17315962686007
 20
215.9918256098026
 30
0.0
 11
90.01859363319244
 21
216.1433653714806
 31
0.0
  0
LINE
  5
120
330
1F
100
AcDbEntity
  8
0
  6
Continuous
 62
     8
370
    15
100
AcDbLine
 10
89.39362567549372
 20
215.2619630109689
 30
0.0
 11
89.36963094780086
 21
215.1910638191156
 31
0.0
  0
LINE
  5
121
330
1F
100
AcDbEntity
  8
0
  6
Continuous
 62
     8
370
    15
100
AcDbLine
 10
89.36963094780086
 20
215.1910638191156
 30
0.0
 11
91.59727694260836
 21
215.1385120566489
 31
0.0
  0
LINE
  5
122
330
1F
100
AcDbEntity
  8
0
  6
Continuous
 62
     8
370
    15
100
AcDbLine
 10
91.59727694260836
 20
215.1385120566489
 30
0.0
 11
91.62151533176916
 21
215.2094743127306
 31
0.0
  0
LINE
  5
123
330
1F
100
AcDbEntity
  8
0
  6
Continuous
 62
     8
370
    15
100
AcDbLine
 10
91.62151533176916
 20
215.2094743127306
 30
0.0
 11
89.39362567549372
 21
215.2619630109689
 31
0.0
  0
LINE
  5
124
330
1F
100
AcDbEntity
  8
0
  6
Continuous
 62
     8
370
    15
100
AcDbLine
 10
89.3693866277884
 20
214.3659333287747
 30
0.0
 11
89.3937475062277
 21
214.2948135825657
 31
0.0
  0
LINE
  5
125
330
1F
100
AcDbEntity
  8
0
  6
Continuous
 62
     8
370
    15
100
AcDbLine
 10
89.3937475062277
 20
214.2948135825657
 30
0.0
 11
91.63052883044992
 21
214.3456315900813
 31
0.0
  0
LINE
  5
126
330
1F
100
AcDbEntity
  8
0
  6
Continuous
 62
     8
370
    15
100
AcDbLine
 10
91.63052883044992
 20
214.3456315900813
 30
0.0
 11
91.60653410275705
 21
214.41671997462
 31
0.0
  0
LINE
  5
127
330
1F
100
AcDbEntity
  8
0
  6
Continuous
 62
     8
370
    15
100
AcDbLine
 10
91.60653410275705
 20
214.41671997462
 30
0.0
 11
89.3693866277884
 21
214.3659333287747
 31
0.0
  0
LINE
  5
128
330
1F
100
AcDbEntity
  8
0
  6
Continuous
 62
     8
370
    15
100
AcDbLine
 10
89.94746160670717
 20
213.4822928699281
 30
0.0
 11
90.01847311954745
 21
213.4135373505109
 31
0.0
  0
LINE
  5
129
330
1F
100
AcDbEntity
  8
0
  6
Continuous
 62
     8
370
    15
100
AcDbLine
 10
90.01847311954745
 20
213.4135373505109
 30
0.0
 11
92.1729159653921
 21
213.5652347727601
 31
0.0
  0
LINE
  5
12A
330
1F
100
AcDbEntity
  8
0
  6
Continuous
 62
     8
370
    15
100
AcDbLine
 10
92.1729159653921
 20
213.5652347727601
 30
0.0
 11
92.1019044525518
 21
213.6339902921772
 31
0.0
  0
LINE
  5
12B
330
1F
100
AcDbEntity
  8
0
  6
Continuous
 62
     8
370
    15
100
AcDbLine
 10
92.1019044525518
 20
213.6339902921772
 30
0.0
 11
89.94746160670717
 21
213.4822928699281
 31
0.0
  0
LINE
  5
12C
330
1F
100
AcDbEntity
  8
0
  6
Continuous
 62
     8
370
    15
100
AcDbLine
 10
91.10884831047223
 20
212.6381529462456
 30
0.0
 11
91.22541431037995
 21
212.5734958346813
 31
0.0
  0
LINE
  5
12D
330
1F
100
AcDbEntity
  8
0
  6
Continuous
 62
     8
370
    15
100
AcDbLine
 10
91.22541431037995
 20
212.5734958346813
 30
0.0
 11
93.2610988616498
 21
212.8172770014538
 31
0.0
  0
LINE
  5
12E
330
1F
100
AcDbEntity
  8
0
  6
Continuous
 62
     8
370
    15
100
AcDbLine
 10
93.2610988616498
 20
212.8172770014538
 30
0.0
 11
93.14453417883107
 21
212.8819344539058
 31
0.0
  0
LINE
  5
12F
330
1F
100
AcDbEntity
  8
0
  6
Continuous
 62
     8
370
    15
100
AcDbLine
 10
93.14453417883107
 20
212.8819344539058
 30
0.0
 11
91.10884831047223
 21
212.6381529462456
 31
0.0
  0
LINE
  5
130
330
1F
100
AcDbEntity
  8
0
  6
Continuous
 62
     8
370
    15
100
AcDbLine
 10
123.5191585823264
 20
217.4245335380534
 30
0.0
 11
123.6772583258081
 21
217.366212677011
 31
0.0
  0
LINE
  5
131
330
1F
100
AcDbEntity
  8
0
  6
Continuous
 62
     8
370
    15
100
AcDbLine
 10
123.6772583258081
 20
217.366212677011
 30
0.0
 11
124.385930583194
 21
217.4938964341681
 31
0.0
  0
LINE
  5
132
330
1F
100
AcDbEntity
  8
0
  6
Continuous
 62
     8
370
    15
100
AcDbLine
 10
125.3918311419934
 20
217.744373189732
 30
0.0
 11
125.3598388851594
 21
217.7561747652588
 31
0.0
  0
LINE
  5
133
330
1F
100
AcDbEntity
  8
0
  6
Continuous
 62
     8
370
    15
100
AcDbLine
 10
125.3598388851594
 20
217.7561747652588
 30
0.0
 11
123.5191585823264
 21
217.4245335380534
 31
0.0
  0
LINE
  5
134
330
1F
100
AcDbEntity
  8
0
  6
Continuous
 62
     8
370
    15
100
AcDbLine
 10
92.81932119318691
 20
211.8589542640433
 30
0.0
 11
92.97729976447913
 21
211.8006020413306
 31
0.0
  0
LINE
  5
135
330
1F
100
AcDbEntity
  8
0
  6
Continuous
 62
     8
370
    15
100
AcDbLine
 10
92.97729976447913
 20
211.8006020413306
 30
0.0
 11
94.8148126328649
 21
212.131549519412
 31
0.0
  0
LINE
  5
136
330
1F
100
AcDbEntity
  8
0
  6
Continuous
 62
     8
370
    15
100
AcDbLine
 10
94.8148126328649
 20
212.131549519412
 30
0.0
 11
94.65683406157267
 21
212.1899017421246
 31
0.0
  0
LINE
  5
137
330
1F
100
AcDbEntity
  8
0
  6
Continuous
 62
     8
370
    15
100
AcDbLine
 10
94.65683406157267
 20
212.1899017421246
 30
0.0
 11
92.81932119318691
 21
211.8589542640433
 31
0.0
  0
LINE
  5
138
330
1F
100
AcDbEntity
  8
0
  6
Continuous
 62
     8
370
    15
100
AcDbLine
 10
107.5067567073898
 20
219.3286449501903
 30
0.0
 11
107.7773941340239
 21
219.334809052413
 31
0.0
  0
LINE
  5
139
330
1F
100
AcDbEntity
  8
0
  6
Continuous
 62
     8
370
    15
100
AcDbLine
 10
107.3036062633893
 20
219.8965996872987
 30
0.0
 11
107.5067567073898
 21
219.3286449501903
 31
0.0
  0
LINE
  5
13A
330
1F
100
AcDbEntity
  8
0
  6
Continuous
 62
     8
370
    15
100
AcDbLine
 10
110.8324519122736
 20
219.3291492935741
 30
0.0
 11
111.0336826990333
 21
219.8965983237479
 31
0.0
  0
LINE
  5
13B
330
1F
100
AcDbEntity
  8
0
  6
Continuous
 62
     8
370
    15
100
AcDbLine
 10
110.5617822169586
 20
219.3354386720345
 30
0.0
 11
110.8324519122736
 21
219.3291492935741
 31
0.0
  0
LINE
  5
13C
330
1F
100
AcDbEntity
  8
0
  6
Continuous
 62
     8
370
    15
100
AcDbLine
 10
109.1091897659416
 20
219.7428809713054
 30
0.0
 11
109.2278265590547
 21
219.7429440355338
 31
0.0
  0
LINE
  5
13D
330
1F
100
AcDbEntity
  8
0
  6
Continuous
 62
     8
370
    15
100
AcDbLine
 10
107.5067567073898
 20
219.3286449501903
 30
0.0
 11
107.5067567073898
 21
219.3189857308256
 31
0.0
  0
LINE
  5
13E
330
1F
100
AcDbEntity
  8
0
  6
Continuous
 62
     8
370
    15
100
AcDbLine
 10
110.8324519122736
 20
219.3291492935741
 30
0.0
 11
110.8324519122736
 21
219.3194900742095
 31
0.0
  0
LINE
  5
13F
330
1F
100
AcDbEntity
  8
0
  6
Continuous
 62
     8
370
    15
100
AcDbLine
 10
105.7861741786608
 20
219.6650147162015
 30
0.0
 11
105.895749399344
 21
219.6700192888398
 31
0.0
  0
LINE
  5
140
330
1F
100
AcDbEntity
  8
0
  6
Continuous
 62
     8
370
    15
100
AcDbLine
 10
105.6678297793093
 20
219.8387430301111
 30
0.0
 11
105.7861741786608
 21
219.6650147162015
 31
0.0
  0
LINE
  5
141
330
1F
100
AcDbEntity
  8
0
  6
Continuous
 62
     8
370
    15
100
AcDbLine
 10
112.5510858078034
 20
219.6648885877446
 30
0.0
 11
112.6692082776558
 21
219.8386900220704
 31
0.0
  0
LINE
  5
142
330
1F
100
AcDbEntity
  8
0
  6
Continuous
 62
     8
370
    15
100
AcDbLine
 10
112.4419649828307
 20
219.6700128119731
 30
0.0
 11
112.5510858078034
 21
219.6648885877446
 31
0.0
  0
LINE
  5
143
330
1F
100
AcDbEntity
  8
0
  6
Continuous
 62
     8
370
    15
100
AcDbLine
 10
105.7861741786608
 20
219.6650147162015
 30
0.0
 11
105.7861741786608
 21
219.6553554968368
 31
0.0
  0
LINE
  5
144
330
1F
100
AcDbEntity
  8
0
  6
Continuous
 62
     8
370
    15
100
AcDbLine
 10
112.5510858078034
 20
219.6648885877446
 30
0.0
 11
112.5510858078034
 21
219.6552293683799
 31
0.0
  0
LINE
  5
145
330
1F
100
AcDbEntity
  8
0
  6
Continuous
 62
     8
370
    15
100
AcDbLine
 10
104.4850792331607
 20
219.1859006030567
 30
0.0
 11
104.7408625298728
 21
219.2035908009163
 31
0.0
  0
LINE
  5
146
330
1F
100
AcDbEntity
  8
0
  6
Continuous
 62
     8
370
    15
100
AcDbLine
 10
103.9043325391731
 20
219.7354589933906
 30
0.0
 11
104.4850792331607
 21
219.1859006030567
 31
0.0
  0
LINE
  5
147
330
1F
100
AcDbEntity
  8
0
  6
Continuous
 62
     8
370
    15
100
AcDbLine
 10
113.8553476938424
 20
219.186594139126
 30
0.0
 11
114.4324842468373
 21
219.7354571185082
 31
0.0
  0
LINE
  5
148
330
1F
100
AcDbEntity
  8
0
  6
Continuous
 62
     8
370
    15
100
AcDbLine
 10
113.5992845157145
 20
219.2044699503499
 30
0.0
 11
113.8553476938424
 21
219.186594139126
 31
0.0
  0
LINE
  5
149
330
1F
100
AcDbEntity
  8
0
  6
Continuous
 62
     8
370
    15
100
AcDbLine
 10
104.4850792331607
 20
219.1859006030567
 30
0.0
 11
104.4850792331607
 21
219.176241383692
 31
0.0
  0
LINE
  5
14A
330
1F
100
AcDbEntity
  8
0
  6
Continuous
 62
     8
370
    15
100
AcDbLine
 10
113.8553476938424
 20
219.186594139126
 30
0.0
 11
113.8553476938424
 21
219.1769349197613
 31
0.0
  0
LINE
  5
14B
330
1F
100
AcDbEntity
  8
0
  6
Continuous
 62
     8
370
    15
100
AcDbLine
 10
102.5654713832292
 20
219.4388558254102
 30
0.0
 11
102.6647851633891
 21
219.4482486456864
 31
0.0
  0
LINE
  5
14C
330
1F
100
AcDbEntity
  8
0
  6
Continuous
 62
     8
370
    15
100
AcDbLine
 10
102.3316709607381
 20
219.6051589229716
 30
0.0
 11
102.5654713832292
 21
219.4388558254102
 31
0.0
  0
LINE
  5
14D
330
1F
100
AcDbEntity
  8
0
  6
Continuous
 62
     8
370
    15
100
AcDbLine
 10
115.7715449417671
 20
219.4389188896386
 30
0.0
 11
116.0051194834919
 21
219.6051665929453
 31
0.0
  0
LINE
  5
14E
330
1F
100
AcDbEntity
  8
0
  6
Continuous
 62
     8
370
    15
100
AcDbLine
 10
115.6729259260631
 20
219.4482512023443
 30
0.0
 11
115.7715449417671
 21
219.4389188896386
 31
0.0
  0
LINE
  5
14F
330
1F
100
AcDbEntity
  8
0
  6
Continuous
 62
     8
370
    15
100
AcDbLine
 10
102.5654713832292
 20
219.4388558254102
 30
0.0
 11
102.5654713832292
 21
219.4291966060455
 31
0.0
  0
LINE
  5
150
330
1F
100
AcDbEntity
  8
0
  6
Continuous
 62
     8
370
    15
100
AcDbLine
 10
115.7715449417671
 20
219.4389188896386
 30
0.0
 11
115.7715449417671
 21
219.4292596702739
 31
0.0
  0
LINE
  5
151
330
1F
100
AcDbEntity
  8
0
  6
Continuous
 62
     8
370
    15
100
AcDbLine
 10
101.6020131947887
 20
218.9041319312715
 30
0.0
 11
101.8376381148391
 21
218.9325436445235
 31
0.0
  0
LINE
  5
152
330
1F
100
AcDbEntity
  8
0
  6
Continuous
 62
     8
370
    15
100
AcDbLine
 10
100.6635889172746
 20
219.4242390712469
 30
0.0
 11
101.6020131947887
 21
218.9041319312715
 31
0.0
  0
LINE
  5
153
330
1F
100
AcDbEntity
  8
0
  6
Continuous
 62
     8
370
    15
100
AcDbLine
 10
116.7298872271974
 20
218.9051407032612
 30
0.0
 11
117.6735824949534
 21
219.4242497239883
 31
0.0
  0
LINE
  5
154
330
1F
100
AcDbEntity
  8
0
  6
Continuous
 62
     8
370
    15
100
AcDbLine
 10
116.4943508813833
 20
218.9335417637719
 30
0.0
 11
116.7298872271974
 21
218.9051407032612
 31
0.0
  0
LINE
  5
155
330
1F
100
AcDbEntity
  8
0
  6
Continuous
 62
     8
370
    15
100
AcDbLine
 10
101.6020131947887
 20
218.9041319312715
 30
0.0
 11
101.6020131947887
 21
218.8944727119068
 31
0.0
  0
LINE
  5
156
330
1F
100
AcDbEntity
  8
0
  6
Continuous
 62
     8
370
    15
100
AcDbLine
 10
116.7298872271974
 20
218.9051407032612
 30
0.0
 11
116.7298872271974
 21
218.8954814838965
 31
0.0
  0
LINE
  5
157
330
1F
100
AcDbEntity
  8
0
  6
Continuous
 62
     8
370
    15
100
AcDbLine
 10
99.54549986854809
 20
219.0714655324148
 30
0.0
 11
99.63208892245245
 21
219.0843172551784
 31
0.0
  0
LINE
  5
158
330
1F
100
AcDbEntity
  8
0
  6
Continuous
 62
     8
370
    15
100
AcDbLine
 10
99.20259706033049
 20
219.2252423697647
 30
0.0
 11
99.54549986854809
 21
219.0714655324148
 31
0.0
  0
LINE
  5
159
330
1F
100
AcDbEntity
  8
0
  6
Continuous
 62
     8
370
    15
100
AcDbLine
 10
118.7912727949802
 20
219.0714655324148
 30
0.0
 11
119.1344321062837
 21
219.225193026267
 31
0.0
  0
LINE
  5
15A
330
1F
100
AcDbEntity
  8
0
  6
Continuous
 62
     8
370
    15
100
AcDbLine
 10
118.7051753445511
 20
219.0841988819172
 30
0.0
 11
118.7912727949802
 21
219.0714655324148
 31
0.0
  0
LINE
  5
15B
330
1F
100
AcDbEntity
  8
0
  6
Continuous
 62
     8
370
    15
100
AcDbLine
 10
99.54549986854809
 20
219.0714655324148
 30
0.0
 11
99.54549986854809
 21
219.0618063130501
 31
0.0
  0
LINE
  5
15C
330
1F
100
AcDbEntity
  8
0
  6
Continuous
 62
     8
370
    15
100
AcDbLine
 10
118.7912727949802
 20
219.0714655324148
 30
0.0
 11
118.7912727949802
 21
219.0618063130501
 31
0.0
  0
LINE
  5
15D
330
1F
100
AcDbEntity
  8
0
  6
Continuous
 62
     8
370
    15
100
AcDbLine
 10
98.94866723713618
 20
218.5028841584524
 30
0.0
 11
99.15673766715585
 21
218.5406857092131
 31
0.0
  0
LINE
  5
15E
330
1F
100
AcDbEntity
  8
0
  6
Continuous
 62
     8
370
    15
100
AcDbLine
 10
97.68042822959227
 20
218.9721779355075
 30
0.0
 11
98.94866723713618
 21
218.5028841584524
 31
0.0
  0
LINE
  5
15F
330
1F
100
AcDbEntity
  8
0
  6
Continuous
 62
     8
370
    15
100
AcDbLine
 10
119.3866436222206
 20
218.5030102442984
 30
0.0
 11
120.6563256654176
 21
218.9721800660557
 31
0.0
  0
LINE
  5
160
330
1F
100
AcDbEntity
  8
0
  6
Continuous
 62
     8
370
    15
100
AcDbLine
 10
119.1790779665663
 20
218.5406852404925
 30
0.0
 11
119.3866436222206
 21
218.5030102442984
 31
0.0
  0
LINE
  5
161
330
1F
100
AcDbEntity
  8
0
  6
Continuous
 62
     8
370
    15
100
AcDbLine
 10
98.94866723713618
 20
218.5028841584524
 30
0.0
 11
98.94866723713618
 21
218.4932249390878
 31
0.0
  0
LINE
  5
162
330
1F
100
AcDbEntity
  8
0
  6
Continuous
 62
     8
370
    15
100
AcDbLine
 10
119.3866436222206
 20
218.5030102442984
 30
0.0
 11
119.3866436222206
 21
218.4933510249337
 31
0.0
  0
LINE
  5
163
330
1F
100
AcDbEntity
  8
0
  6
Continuous
 62
     8
370
    15
100
AcDbLine
 10
121.5196488686968
 20
218.5738779040375
 30
0.0
 11
121.9625129709618
 21
218.7106609345317
 31
0.0
  0
LINE
  5
164
330
1F
100
AcDbEntity
  8
0
  6
Continuous
 62
     8
370
    15
100
AcDbLine
 10
121.4474066184892
 20
218.5895600814685
 30
0.0
 11
121.5196488686968
 21
218.5738779040375
 31
0.0
  0
LINE
  5
165
330
1F
100
AcDbEntity
  8
0
  6
Continuous
 62
     8
370
    15
100
AcDbLine
 10
96.81809827606718
 20
218.5738778614266
 30
0.0
 11
96.88964781977049
 21
218.5894857466398
 31
0.0
  0
LINE
  5
166
330
1F
100
AcDbEntity
  8
0
  6
Continuous
 62
     8
370
    15
100
AcDbLine
 10
96.37480677841657
 20
218.7106484495189
 30
0.0
 11
96.81809827606718
 21
218.5738778614266
 31
0.0
  0
LINE
  5
167
330
1F
100
AcDbEntity
  8
0
  6
Continuous
 62
     8
370
    15
100
AcDbLine
 10
96.81809827606718
 20
218.5738778614266
 30
0.0
 11
96.81809827606718
 21
218.5642186420619
 31
0.0
  0
LINE
  5
168
330
1F
100
AcDbEntity
  8
0
  6
Continuous
 62
     8
370
    15
100
AcDbLine
 10
121.5196488686968
 20
218.5738779040375
 30
0.0
 11
121.5196488686968
 21
218.5642186846728
 31
0.0
  0
LINE
  5
169
330
1F
100
AcDbEntity
  8
0
  6
Continuous
 62
     8
370
    15
100
AcDbLine
 10
120.8891991247751
 20
217.7247255832783
 30
0.0
 11
123.4639580028397
 21
218.3911222174682
 31
0.0
  0
LINE
  5
16A
330
1F
100
AcDbEntity
  8
0
  6
Continuous
 62
     8
370
    15
100
AcDbLine
 10
120.533682030274
 20
217.8167401781947
 30
0.0
 11
120.8891991247751
 21
217.7247255832783
 31
0.0
  0
LINE
  5
16B
330
1F
100
AcDbEntity
  8
0
  6
Continuous
 62
     8
370
    15
100
AcDbLine
 10
97.44769534890766
 20
217.7247571100662
 30
0.0
 11
97.80321243311903
 21
217.8167717023194
 31
0.0
  0
LINE
  5
16C
330
1F
100
AcDbEntity
  8
0
  6
Continuous
 62
     8
370
    15
100
AcDbLine
 10
94.87342379377894
 20
218.3910276157991
 30
0.0
 11
97.44769534890766
 21
217.7247571100662
 31
0.0
  0
LINE
  5
16D
330
1F
100
AcDbEntity
  8
0
  6
Continuous
 62
     8
370
    15
100
AcDbLine
 10
120.8891991247751
 20
217.7247255832783
 30
0.0
 11
120.8891991247751
 21
217.7150663639136
 31
0.0
  0
LINE
  5
16E
330
1F
100
AcDbEntity
  8
0
  6
Continuous
 62
     8
370
    15
100
AcDbLine
 10
97.44769534890766
 20
217.7247571100662
 30
0.0
 11
97.44769534890766
 21
217.7150978907015
 31
0.0
  0
LINE
  5
16F
330
1F
100
AcDbEntity
  8
0
  6
Continuous
 62
     8
370
    15
100
AcDbLine
 10
94.4656047548918
 20
217.9613506911906
 30
0.0
 11
94.52318023108991
 21
217.9790230563613
 31
0.0
  0
LINE
  5
170
330
1F
100
AcDbEntity
  8
0
  6
Continuous
 62
     8
370
    15
100
AcDbLine
 10
93.93361965972547
 20
218.0767964939265
 30
0.0
 11
94.4656047548918
 21
217.9613506911906
 31
0.0
  0
LINE
  5
171
330
1F
100
AcDbEntity
  8
0
  6
Continuous
 62
     8
370
    15
100
AcDbLine
 10
123.8718988107223
 20
217.9612876482676
 30
0.0
 11
124.4034839224181
 21
218.0769365135581
 31
0.0
  0
LINE
  5
172
330
1F
100
AcDbEntity
  8
0
  6
Continuous
 62
     8
370
    15
100
AcDbLine
 10
123.8142694161926
 20
217.9790721441931
 30
0.0
 11
123.8718988107223
 21
217.9612876482676
 31
0.0
  0
LINE
  5
173
330
1F
100
AcDbEntity
  8
0
  6
Continuous
 62
     8
370
    15
100
AcDbLine
 10
94.4656047548918
 20
217.9613506911906
 30
0.0
 11
94.4656047548918
 21
217.9516914718259
 31
0.0
  0
LINE
  5
174
330
1F
100
AcDbEntity
  8
0
  6
Continuous
 62
     8
370
    15
100
AcDbLine
 10
123.8718988107223
 20
217.9612876482676
 30
0.0
 11
123.8718988107223
 21
217.9516284289029
 31
0.0
  0
ARC
  5
175
330
1F
100
AcDbEntity
  8
0
  6
Continuous
 62
     8
370
    15
100
AcDbCircle
 10
125.0790808680566
 20
237.3238124736422
 30
0.0
 40
2.302632881684783
100
AcDbArc
 50
256.4564635168281
 51
283.0675912220241
  0
LINE
  5
176
330
1F
100
AcDbEntity
  8
0
  6
Continuous
 62
     8
370
    15
100
AcDbLine
 10
123.6772583258081
 20
217.3758718963757
 30
0.0
 11
124.5262562104052
 21
217.5288385288337
 31
0.0
  0
LINE
  5
177
330
1F
100
AcDbEntity
  8
0
  6
Continuous
 62
     8
370
    15
100
AcDbLine
 10
123.5367511049488
 20
217.4277032352543
 30
0.0
 11
123.6772583258081
 21
217.3758718963757
 31
0.0
  0
LINE
  5
178
330
1F
100
AcDbEntity
  8
0
  6
Continuous
 62
     8
370
    15
100
AcDbLine
 10
94.65451993617167
 20
217.3728141335146
 30
0.0
 11
94.79521665321315
 21
217.4247033806948
 31
0.0
  0
LINE
  5
179
330
1F
100
AcDbEntity
  8
0
  6
Continuous
 62
     8
370
    15
100
AcDbLine
 10
92.83675072604359
 20
217.7044060172223
 30
0.0
 11
94.65451993617167
 21
217.3728141335146
 31
0.0
  0
LINE
  5
17A
330
1F
100
AcDbEntity
  8
0
  6
Continuous
 62
     8
370
    15
100
AcDbLine
 10
123.6772583258081
 20
217.3758718963757
 30
0.0
 11
123.6772583258081
 21
217.366212677011
 31
0.0
  0
LINE
  5
17B
330
1F
100
AcDbEntity
  8
0
  6
Continuous
 62
     8
370
    15
100
AcDbLine
 10
94.65451993617167
 20
217.3728141335146
 30
0.0
 11
94.65451993617167
 21
217.3631549141499
 31
0.0
  0
LINE
  5
17C
330
1F
100
AcDbEntity
  8
0
  6
Continuous
 62
     8
370
    15
100
AcDbLine
 10
92.56036898030248
 20
217.2522317919812
 30
0.0
 11
92.60290601643436
 21
217.2714811250567
 31
0.0
  0
LINE
  5
17D
330
1F
100
AcDbEntity
  8
0
  6
Continuous
 62
     8
370
    15
100
AcDbLine
 10
91.9539647337393
 20
217.3427898082854
 30
0.0
 11
92.56036898030248
 21
217.2522317919812
 31
0.0
  0
LINE
  5
17E
330
1F
100
AcDbEntity
  8
0
  6
Continuous
 62
     8
370
    15
100
AcDbLine
 10
92.56036898030248
 20
217.2522317919812
 30
0.0
 11
92.56036898030248
 21
217.2425725726165
 31
0.0
  0
LINE
  5
17F
330
1F
100
AcDbEntity
  8
0
  6
Continuous
 62
     8
370
    15
100
AcDbLine
 10
93.13332838548325
 20
216.6815064899168
 30
0.0
 11
93.23551407824243
 21
216.73827469261
 31
0.0
  0
LINE
  5
180
330
1F
100
AcDbEntity
  8
0
  6
Continuous
 62
     8
370
    15
100
AcDbLine
 10
91.12310546979782
 20
216.9266388503952
 30
0.0
 11
93.13332838548325
 21
216.6815064899168
 31
0.0
  0
LINE
  5
181
330
1F
100
AcDbEntity
  8
0
  6
Continuous
 62
     8
370
    15
100
AcDbLine
 10
93.13332838548325
 20
216.6815064899168
 30
0.0
 11
93.13332838548325
 21
216.6718472705522
 31
0.0
  0
LINE
  5
182
330
1F
100
AcDbEntity
  8
0
  6
Continuous
 62
     8
370
    15
100
AcDbLine
 10
91.15915320834803
 20
216.46839891165
 30
0.0
 11
91.18749301270455
 21
216.4885866234006
 31
0.0
  0
LINE
  5
183
330
1F
100
AcDbEntity
  8
0
  6
Continuous
 62
     8
370
    15
100
AcDbLine
 10
90.49571308049296
 20
216.5309207877492
 30
0.0
 11
91.15915320834803
 21
216.46839891165
 31
0.0
  0
LINE
  5
184
330
1F
100
AcDbEntity
  8
0
  6
Continuous
 62
     8
370
    15
100
AcDbLine
 10
91.15915320834803
 20
216.46839891165
 30
0.0
 11
91.15915320834803
 21
216.4587396922853
 31
0.0
  0
LINE
  5
185
330
1F
100
AcDbEntity
  8
0
  6
Continuous
 62
     8
370
    15
100
AcDbLine
 10
92.10166079108389
 20
215.9326662455217
 30
0.0
 11
92.1638069777577
 21
215.9924833479953
 31
0.0
  0
LINE
  5
186
330
1F
100
AcDbEntity
  8
0
  6
Continuous
 62
     8
370
    15
100
AcDbLine
 10
89.95624263917664
 20
216.0836082605802
 30
0.0
 11
92.10166079108389
 21
215.9326662455217
 31
0.0
  0
LINE
  5
187
330
1F
100
AcDbEntity
  8
0
  6
Continuous
 62
     8
370
    15
100
AcDbLine
 10
92.10166079108389
 20
215.9326662455217
 30
0.0
 11
92.10166079108389
 21
215.923007026157
 31
0.0
  0
LINE
  5
188
330
1F
100
AcDbEntity
  8
0
  6
Continuous
 62
     8
370
    15
100
AcDbLine
 10
90.30519615433354
 20
215.6335270433377
 30
0.0
 11
90.31936276378929
 21
215.6542039289686
 31
0.0
  0
LINE
  5
189
330
1F
100
AcDbEntity
  8
0
  6
Continuous
 62
     8
370
    15
100
AcDbLine
 10
89.60391013214924
 20
215.6654179418965
 30
0.0
 11
90.30519615433354
 21
215.6335270433377
 31
0.0
  0
LINE
  5
18A
330
1F
100
AcDbEntity
  8
0
  6
Continuous
 62
     8
370
    15
100
AcDbLine
 10
90.30519615433354
 20
215.6335270433377
 30
0.0
 11
90.30519615433354
 21
215.623867823973
 31
0.0
  0
LINE
  5
18B
330
1F
100
AcDbEntity
  8
0
  6
Continuous
 62
     8
370
    15
100
AcDbLine
 10
91.59727694260836
 20
215.1481712760136
 30
0.0
 11
91.61824236556448
 21
215.2095515191337
 31
0.0
  0
LINE
  5
18C
330
1F
100
AcDbEntity
  8
0
  6
Continuous
 62
     8
370
    15
100
AcDbLine
 10
89.37287362095816
 20
215.2006466796307
 30
0.0
 11
91.59727694260836
 21
215.1481712760136
 31
0.0
  0
LINE
  5
18D
330
1F
100
AcDbEntity
  8
0
  6
Continuous
 62
     8
370
    15
100
AcDbLine
 10
91.59727694260836
 20
215.1481712760136
 30
0.0
 11
91.59727694260836
 21
215.1385120566489
 31
0.0
  0
LINE
  5
18E
330
1F
100
AcDbEntity
  8
0
  6
Continuous
 62
     8
370
    15
100
AcDbLine
 10
89.30604979264415
 20
214.7728053182219
 30
0.0
 11
90.02472929237331
 21
214.7728368503361
 31
0.0
  0
LINE
  5
18F
330
1F
100
AcDbEntity
  8
0
  6
Continuous
 62
     8
370
    15
100
AcDbLine
 10
89.30596615749161
 20
214.7937564480247
 30
0.0
 11
89.30604979264415
 21
214.7728053182219
 31
0.0
  0
LINE
  5
190
330
1F
100
AcDbEntity
  8
0
  6
Continuous
 62
     8
370
    15
100
AcDbLine
 10
89.30604979264415
 20
214.7728053182219
 30
0.0
 11
89.30604979264415
 21
214.7631460988572
 31
0.0
  0
LINE
  5
191
330
1F
100
AcDbEntity
  8
0
  6
Continuous
 62
     8
370
    15
100
AcDbLine
 10
89.3937475062277
 20
214.3044728019303
 30
0.0
 11
91.6272927427377
 21
214.3552171776981
 31
0.0
  0
LINE
  5
192
330
1F
100
AcDbEntity
  8
0
  6
Continuous
 62
     8
370
    15
100
AcDbLine
 10
89.37267013070519
 20
214.366007808076
 30
0.0
 11
89.3937475062277
 21
214.3044728019303
 31
0.0
  0
LINE
  5
193
330
1F
100
AcDbEntity
  8
0
  6
Continuous
 62
     8
370
    15
100
AcDbLine
 10
89.3937475062277
 20
214.3044728019303
 30
0.0
 11
89.3937475062277
 21
214.2948135825657
 31
0.0
  0
LINE
  5
194
330
1F
100
AcDbEntity
  8
0
  6
Continuous
 62
     8
370
    15
100
AcDbLine
 10
89.6182301824753
 20
213.8803694448308
 30
0.0
 11
90.31954122935093
 21
213.9122981819267
 31
0.0
  0
LINE
  5
195
330
1F
100
AcDbEntity
  8
0
  6
Continuous
 62
     8
370
    15
100
AcDbLine
 10
89.60397005969945
 20
213.9010787147952
 30
0.0
 11
89.6182301824753
 21
213.8803694448308
 31
0.0
  0
LINE
  5
196
330
1F
100
AcDbEntity
  8
0
  6
Continuous
 62
     8
370
    15
100
AcDbLine
 10
89.6182301824753
 20
213.8803694448308
 30
0.0
 11
89.6182301824753
 21
213.8707102254661
 31
0.0
  0
LINE
  5
197
330
1F
100
AcDbEntity
  8
0
  6
Continuous
 62
     8
370
    15
100
AcDbLine
 10
90.01847311954745
 20
213.4231965698756
 30
0.0
 11
92.16361599985038
 21
213.5742391468119
 31
0.0
  0
LINE
  5
198
330
1F
100
AcDbEntity
  8
0
  6
Continuous
 62
     8
370
    15
100
AcDbLine
 10
89.95676091370439
 20
213.4829477105751
 30
0.0
 11
90.01847311954745
 21
213.4231965698756
 31
0.0
  0
LINE
  5
199
330
1F
100
AcDbEntity
  8
0
  6
Continuous
 62
     8
370
    15
100
AcDbLine
 10
90.01847311954745
 20
213.4231965698756
 30
0.0
 11
90.01847311954745
 21
213.4135373505109
 31
0.0
  0
LINE
  5
19A
330
1F
100
AcDbEntity
  8
0
  6
Continuous
 62
     8
370
    15
100
AcDbLine
 10
90.52370978316081
 20
213.015517694526
 30
0.0
 11
91.1873487914573
 21
213.0780358208603
 31
0.0
  0
LINE
  5
19B
330
1F
100
AcDbEntity
  8
0
  6
Continuous
 62
     8
370
    15
100
AcDbLine
 10
90.49554976145497
 20
213.0356990998538
 30
0.0
 11
90.52370978316081
 21
213.015517694526
 31
0.0
  0
LINE
  5
19C
330
1F
100
AcDbEntity
  8
0
  6
Continuous
 62
     8
370
    15
100
AcDbLine
 10
90.52370978316081
 20
213.015517694526
 30
0.0
 11
90.52370978316081
 21
213.0058584751613
 31
0.0
  0
LINE
  5
19D
330
1F
100
AcDbEntity
  8
0
  6
Continuous
 62
     8
370
    15
100
AcDbLine
 10
91.22541431037995
 20
212.583155054046
 30
0.0
 11
93.24677782350693
 21
212.8252212999139
 31
0.0
  0
LINE
  5
19E
330
1F
100
AcDbEntity
  8
0
  6
Continuous
 62
     8
370
    15
100
AcDbLine
 10
91.12317033643183
 20
212.6398681181502
 30
0.0
 11
91.22541431037995
 21
212.583155054046
 31
0.0
  0
LINE
  5
19F
330
1F
100
AcDbEntity
  8
0
  6
Continuous
 62
     8
370
    15
100
AcDbLine
 10
91.22541431037995
 20
212.583155054046
 30
0.0
 11
91.22541431037995
 21
212.5734958346813
 31
0.0
  0
LINE
  5
1A0
330
1F
100
AcDbEntity
  8
0
  6
Continuous
 62
     8
370
    15
100
AcDbLine
 10
91.9966667352704
 20
212.2044787355915
 30
0.0
 11
92.6026844162074
 21
212.295124530484
 31
0.0
  0
LINE
  5
1A1
330
1F
100
AcDbEntity
  8
0
  6
Continuous
 62
     8
370
    15
100
AcDbLine
 10
91.95390414764452
 20
212.2235962303408
 30
0.0
 11
91.9966667352704
 21
212.2044787355915
 31
0.0
  0
LINE
  5
1A2
330
1F
100
AcDbEntity
  8
0
  6
Continuous
 62
     8
370
    15
100
AcDbLine
 10
91.9966667352704
 20
212.2044787355915
 30
0.0
 11
91.9966667352704
 21
212.1948195162269
 31
0.0
  0
LINE
  5
1A3
330
1F
100
AcDbEntity
  8
0
  6
Continuous
 62
     8
370
    15
100
AcDbLine
 10
92.97729976447913
 20
211.8102612606953
 30
0.0
 11
94.7972327872243
 21
212.1380424031762
 31
0.0
  0
LINE
  5
1A4
330
1F
100
AcDbEntity
  8
0
  6
Continuous
 62
     8
370
    15
100
AcDbLine
 10
92.83690087419139
 20
211.8621204671451
 30
0.0
 11
92.97729976447913
 21
211.8102612606953
 31
0.0
  0
LINE
  5
1A5
330
1F
100
AcDbEntity
  8
0
  6
Continuous
 62
     8
370
    15
100
AcDbLine
 10
92.97729976447913
 20
211.8102612606953
 30
0.0
 11
92.97729976447913
 21
211.8006020413306
 31
0.0
  0
LINE
  5
1A6
330
1F
100
AcDbEntity
  8
0
  6
Continuous
 62
     8
370
    15
100
AcDbLine
 10
94.87354532610989
 20
211.1754080992228
 30
0.0
 11
95.16838629049468
 21
211.0990976423637
 31
0.0
  0
LINE
  5
1A7
330
1F
100
AcDbEntity
  8
0
  6
Continuous
 62
     8
370
    15
100
AcDbLine
 10
93.99057462236087
 20
211.4720314195266
 30
0.0
 11
94.52311223636941
 21
211.5875557968823
 31
0.0
  0
LINE
  5
1A8
330
1F
100
AcDbEntity
  8
0
  6
Continuous
 62
     8
370
    15
100
AcDbLine
 10
93.9335091888842
 20
211.4897122216684
 30
0.0
 11
93.99057462236087
 21
211.4720314195266
 31
0.0
  0
LINE
  5
1A9
330
1F
100
AcDbEntity
  8
0
  6
Continuous
 62
     8
370
    15
100
AcDbLine
 10
93.99057462236087
 20
211.4720314195266
 30
0.0
 11
93.99057462236087
 21
211.4623722001619
 31
0.0
  0
LWPOLYLINE
  5
1AA
330
1F
100
AcDbEntity
  8
0
  6
Continuous
 62
     8
370
    15
100
AcDbPolyline
 90
       66
 70
   128
 43
0.0
 10
40.75151777950728
 20
115.0322573600696
 10
40.07344215850681
 20
117.021532233041
 10
39.54693450728561
 20
119.0298230525189
 10
39.17692864129749
 20
121.0383813943108
 10
38.9668608457851
 20
123.0284580467855
 10
38.91870543718337
 20
124.9814633457134
 10
39.03290759157971
 20
126.8791725824196
 10
39.30840573522723
 20
128.7038561121084
 10
39.74261969074367
 20
130.4384899133985
 10
40.33149479959337
 20
132.0668697311701
 10
41.06954275184683
 20
133.5737973188733
 10
41.94986331814935
 20
134.9451962096825
 10
42.96424444848644
 20
136.1682698918125
 10
44.10320738248244
 20
137.2315893893943
 10
45.35612716304553
 20
138.1252396010324
 10
46.71129552736831
 20
138.840858378605
 10
48.15606331717758
 20
139.3717875484835
 10
49.67694930321426
 20
139.7130472154133
 10
51.25973863763746
 20
139.8614639669806
 10
52.88966658794207
 20
139.8156479761819
 10
54.55150628801449
 20
139.5760303331751
 10
56.2297457219692
 20
139.1448483246096
 10
57.90871416469426
 20
138.5261250547884
 10
59.57273759835516
 20
137.7256357341426
 10
61.20627832383055
 20
136.7508582107392
 10
62.79407720632596
 20
135.6108899425272
 10
64.32132226276788
 20
134.3163797419547
 10
65.7737461263908
 20
132.8794108100001
 10
67.13779199995344
 20
131.3133993004816
 10
68.40071836431534
 20
129.6329710476667
 10
69.55073990696162
 20
127.853807746363
 10
70.57711181570006
 20
125.9925255924761
 10
71.47026280465161
 20
124.066506766863
 10
72.22184121236607
 20
122.0937205402901
 10
72.82483485692241
 20
120.092606194973
 10
73.27361845113346
 20
118.0818304579559
 10
73.56399179812729
 20
116.0801765586311
 10
73.6932548654212
 20
114.1063319266995
 10
73.66019066276438
 20
112.1787244484527
 10
73.46511792569876
 20
110.3153492923963
 10
73.10984501744322
 20
108.5336103169143
 10
72.59770219757465
 20
106.8501344154238
 10
71.93346523086493
 20
105.2806482638711
 10
71.12333694803475
 20
103.8398085552326
 10
70.17487875712474
 20
102.5410500363087
 10
69.09694742322283
 20
101.3965185414671
 10
67.89960814058895
 20
100.4168909243791
 10
66.59403706806813
 20
99.61130740998696
 10
65.1924317670372
 20
98.98731765811152
 10
63.70787109606084
 20
98.55070602156023
 10
62.15422219147975
 20
98.30557792196716
 10
60.54598307527331
 20
98.25421760188773
 10
58.89817366594345
 20
98.39710658159842
 10
57.22618480718626
 20
98.73289549324888
 10
55.54561478421778
 20
99.25846721838421
 10
53.87216955428118
 20
99.96890015729353
 10
52.22145793930465
 20
100.8575740019285
 10
50.60890436875416
 20
101.9161794239347
 10
49.04955921881515
 20
103.1348421611954
 10
47.5579822500146
 20
104.5021757247578
 10
46.14810167869637
 20
106.0054233257372
 10
44.833080492486
 20
107.6305396338314
 10
43.62519659519032
 20
109.3623597485529
 10
42.53572558587501
 20
111.1847095360661
 10
41.57484461136644
 20
113.0805735396909
 10
40.75151777950728
 20
115.0322573600696
  0
LWPOLYLINE
  5
1AB
330
1F
100
AcDbEntity
  8
0
  6
Continuous
 62
     8
370
    15
100
AcDbPolyline
 90
       66
 70
   128
 43
0.0
 10
40.39796367241757
 20
114.9407508236806
 10
39.70447415866327
 20
116.9752357066885
 10
39.16600865626611
 20
119.0291695294997
 10
38.787587908555
 20
121.0833740363299
 10
38.57274829953776
 20
123.1186832899533
 10
38.52349970705278
 20
125.1160761662419
 10
38.64029652681057
 20
127.0569112689924
 10
38.92205084328393
 20
128.9230717725552
 10
39.36613242970799
 20
130.6971259452997
 10
39.96839640694949
 20
132.3625171797522
 10
40.72321551218773
 20
133.9036887029642
 10
41.62354792899883
 20
135.3062614290041
 10
42.66097745857082
 20
136.5571274582126
 10
43.82582975280913
 20
137.644616897999
 10
45.10722368080838
 20
138.5585681999113
 10
46.49319036077213
 20
139.2904624483798
 10
47.97079840694642
 20
139.8334513074032
 10
49.52624279196949
 20
140.1824666070047
 10
51.14501096472377
 20
140.3342541717938
 10
52.8119790801521
 20
140.287403423371
 10
54.51158861266311
 20
140.0423424875939
 10
56.22797028597568
 20
139.601358603667
 10
57.94509874876031
 20
138.9685669479679
 10
59.64693712515859
 20
138.1498867611109
 10
61.31760461436052
 20
137.1529567009764
 10
62.94149502861593
 20
135.9870836317138
 10
64.50344538062852
 20
134.6631500511317
 10
65.98888339752565
 20
133.1935242451898
 10
67.38392564399001
 20
131.5919191752484
 10
68.67555532927685
 20
129.8733003224777
 10
69.85171450344497
 20
128.0536961491651
 10
70.90141469283418
 20
126.1501202984744
 10
71.81486334061078
 20
124.1803177404652
 10
72.58352175868427
 20
122.162708561977
 10
73.20021971445173
 20
120.1161040003302
 10
73.65920284600242
 20
118.0596365977022
 10
73.95617612605527
 20
116.0124850979088
 10
74.08837761894377
 20
113.9937814204149
 10
74.05456267554787
 20
112.0223608970059
 10
73.85505134849844
 20
110.1166408379195
 10
73.4917099529311
 20
108.2944023585832
 10
72.96792604179491
 20
106.5726702712316
 10
72.28858930806165
 20
104.9675098925237
 10
71.46004943787729
 20
103.4939240937444
 10
70.49003708522103
 20
102.1656564148451
 10
69.38760855416665
 20
100.9951035687904
 10
68.16305722464618
 20
99.99322130768448
 10
66.82781641713495
 20
99.16932731921175
 10
65.39435213221489
 20
98.53114891768458
 10
63.87605492579812
 20
98.0846258233042
 10
62.28709490585803
 20
97.83392126700573
 10
60.6423044291889
 20
97.78139784225692
 10
58.95704886204613
 20
97.92752375468267
 10
57.24705342409972
 20
98.27095057671168
 10
55.52829374656882
 20
98.8084596201141
 10
53.81680835167311
 20
99.53504688124815
 10
52.12858406588835
 20
100.4439194435597
 10
50.47938183492411
 20
101.5265811472156
 10
48.88459645374351
 20
102.7729377183136
 10
47.35912024785005
 20
104.1713525437973
 10
45.91720016912944
 20
105.7087593001966
 10
44.57228896479075
 20
107.370812743612
 10
43.33695561531332
 20
109.1419960546947
 10
42.22272464958689
 20
111.0057588635215
 10
41.23999975374853
 20
112.9447126214462
 10
40.39796367241757
 20
114.9407508236806
  0
LWPOLYLINE
  5
1AC
330
1F
100
AcDbEntity
  8
0
  6
Continuous
 62
     8
370
    15
100
AcDbPolyline
 90
       34
 70
   128
 43
0.0
 10
88.65234229407258
 20
161.6597302372186
 10
89.37203743406918
 20
162.0100760509766
 10
90.84964416315447
 20
162.5530652508878
 10
92.40509118235558
 20
162.902087065422
 10
94.0238567209318
 20
163.0538753119865
 10
95.69082615344917
 20
163.0070206243219
 10
97.39043568596017
 20
162.7619560901908
 10
99.10681735927274
 20
162.3209722062638
 10
100.8239445049684
 20
161.6881880881606
 10
102.5257855155447
 20
160.8695072195282
 10
104.1964503705686
 20
159.8725778411691
 10
105.820340784824
 20
158.7066975751983
 10
107.3822937710146
 20
157.382770509549
 10
108.8677278366447
 20
155.9131385295621
 10
110.2627727172871
 20
154.3115399745534
 10
111.5544037196629
 20
152.5929135841868
 10
112.730560259653
 20
150.7733172893578
 10
113.7802630832203
 20
148.8697335601835
 10
114.6937077797298
 20
146.8999392215456
 10
115.4623694905258
 20
144.8823219941299
 10
116.0790694219268
 20
142.8357241178597
 10
116.538049260755
 20
140.7792503707429
 10
116.8350251749858
 20
138.7321053858822
 10
116.9672227166073
 20
136.7133955343433
 10
116.9334104073894
 20
134.7419815258671
 10
116.7339000681568
 20
132.8362612111148
 10
116.3705570262282
 20
131.0140231578883
 10
115.846773115092
 20
129.2922910705366
 10
115.1674386862645
 20
127.6871300952752
 10
114.3388961819021
 20
126.2135377815631
 10
113.3688825121568
 20
124.8852704435515
 10
112.2664533225579
 20
123.7147249646489
 10
111.0419023223097
 20
122.7128354216129
 10
109.7210887432432
 20
121.8965841115464
  0
SPLINE
  5
1AD
330
1F
100
AcDbEntity
  8
0
  6
Continuous
 62
     8
370
    15
100
AcDbSpline
210
0.0
220
0.0
230
1.0
 70
     8
 71
     3
 72
    17
 73
    13
 74
     0
 42
0.000000001
 43
0.00000001
 40
0.0
 40
0.0
 40
0.0
 40
0.0
 40
0.0707930280981605
 40
0.1780621973950076
 40
0.2853656847293377
 40
0.3927199572849902
 40
0.5001305696568611
 40
0.6074831319930464
 40
0.7148346021751542
 40
0.822199135649361
 40
0.9295568179663496
 40
1.0
 40
1.0
 40
1.0
 40
1.0
 10
113.0092075631377
 20
144.7899147094542
 30
0.0
 10
112.9950582219814
 20
144.832620705697
 30
0.0
 10
112.959469084948
 20
144.940036982938
 30
0.0
 10
112.9424504405381
 20
145.1219592758806
 30
0.0
 10
112.9697650726281
 20
145.3102924735971
 30
0.0
 10
113.0440430744419
 20
145.4626873762757
 30
0.0
 10
113.1567711085274
 20
145.5615303038195
 30
0.0
 10
113.2955831781926
 20
145.5958096116574
 30
0.0
 10
113.4447589950825
 20
145.5616770965079
 30
0.0
 10
113.586074120433
 20
145.462498696912
 30
0.0
 10
113.6924150934577
 20
145.3279527490669
 30
0.0
 10
113.7370575313803
 20
145.2255228576466
 30
0.0
 10
113.7547444835359
 20
145.1849410105709
 30
0.0
  0
SPLINE
  5
1AE
330
1F
100
AcDbEntity
  8
0
  6
Continuous
 62
     8
370
    15
100
AcDbSpline
210
0.0
220
0.0
230
1.0
 70
     8
 71
     3
 72
    17
 73
    13
 74
     0
 42
0.000000001
 43
0.00000001
 40
0.0
 40
0.0
 40
0.0
 40
0.0
 40
0.070911005497452
 40
0.1781787159401117
 40
0.2854821322089496
 40
0.3928366130403489
 40
0.5002466762451059
 40
0.6075983447446655
 40
0.7149490489069894
 40
0.8223145968626818
 40
0.9296694966892134
 40
1.0
 40
1.0
 40
1.0
 40
1.0
 10
113.7547444835359
 20
145.1849410105709
 30
0.0
 10
113.7687992364158
 20
145.1421320473156
 30
0.0
 10
113.8041147393257
 20
145.0345655835482
 30
0.0
 10
113.8183926276252
 20
144.8518738029385
 30
0.0
 10
113.7869294275911
 20
144.6625095508979
 30
0.0
 10
113.7090764428649
 20
144.5092493738793
 30
0.0
 10
113.5949417301469
 20
144.410117740793
 30
0.0
 10
113.4574868047057
 20
144.3762786303424
 30
0.0
 10
113.3118496671776
 20
144.4113851155795
 30
0.0
 10
113.1746508590906
 20
144.5116981982857
 30
0.0
 10
113.0710663219426
 20
144.6469235920624
 30
0.0
 10
113.0267490091814
 20
144.7493663535074
 30
0.0
 10
113.0092075631377
 20
144.7899147094542
 30
0.0
  0
LWPOLYLINE
  5
1AF
330
1F
100
AcDbEntity
  8
0
  6
Continuous
 62
     8
370
    15
100
AcDbPolyline
 90
       26
 70
   128
 43
0.0
 10
42.90687336803997
 20
115.8868084378231
 10
42.24799695362525
 20
117.8307255582798
 10
41.74462528805849
 20
119.793198508586
 10
41.40192136028232
 20
121.7540854353774
 10
41.2234057492364
 20
123.693269985978
 10
41.21091447700898
 20
125.590835240684
 10
41.36456739870052
 20
127.4273321868519
 10
41.68279322711499
 20
129.1838988426841
 10
42.16232953275981
 20
130.8425225192056
 10
42.79824645144825
 20
132.3861794353798
 10
43.58402241691773
 20
133.7990245397368
 10
44.51159947856861
 20
135.0665653665259
 10
45.57145409499867
 20
136.1757967170476
 10
46.75271139147534
 20
137.1153275005707
 10
48.04324920996793
 20
137.8755275080885
 10
49.42982611373638
 20
138.4485930408764
 10
50.89821523650247
 20
138.8286401114697
 10
52.43334924455969
 20
139.0117690069461
 10
54.01947344837131
 20
138.9961039171237
 10
55.64031183810447
 20
138.7818088633914
 10
57.27923254293783
 20
138.3710719644652
 10
58.91941798249877
 20
137.76811697629
 10
60.54404267388058
 20
136.9791294682537
 10
62.13642963596312
 20
136.0122000346989
 10
63.68023708678078
 20
134.8772562571391
 10
63.82030686945067
 20
134.7639567924568
  0
LWPOLYLINE
  5
1B0
330
1F
100
AcDbEntity
  8
0
  6
Continuous
 62
     8
370
    15
100
AcDbPolyline
 90
       29
 70
   128
 43
0.0
 10
73.52169348437957
 20
116.4544772705294
 10
73.58171981628219
 20
115.5838678745089
 10
73.59421635686567
 20
113.6862940595438
 10
73.44055816681805
 20
111.8498056736349
 10
73.1223323384036
 20
110.0932318210946
 10
72.64280130111483
 20
108.4346139777304
 10
72.00688438242639
 20
106.890949864848
 10
71.22110314860083
 20
105.47811332075
 10
70.29352608694997
 20
104.2105652972529
 10
69.23367673887597
 20
103.1013397798884
 10
68.0524194423993
 20
102.1618017996571
 10
66.76187635555064
 20
101.4016103523984
 10
65.3752994517822
 20
100.8285448196105
 10
63.90691032901611
 20
100.4484977490172
 10
62.37177632095889
 20
100.2653688535408
 10
60.78565738550333
 20
100.2810253831041
 10
59.16481899577017
 20
100.4953276335446
 10
57.52589302258075
 20
100.9060586993134
 10
55.88570758301981
 20
101.5090208841969
 10
54.26108815999406
 20
102.2979998319741
 10
52.66870119791152
 20
103.2649364622371
 10
51.12488847873779
 20
104.3998744066396
 10
49.64549590042395
 20
105.6911903796918
 10
48.24570291387899
 20
107.1256160154615
 10
46.93986710646595
 20
108.6884489963923
 10
45.7413977614564
 20
110.3636401717097
 10
44.66258331936928
 20
112.1340076780972
 10
43.71450181591786
 20
113.9813812528144
 10
42.90687336803997
 20
115.8868084378231
  0
LWPOLYLINE
  5
1B1
330
1F
100
AcDbEntity
  8
0
  6
Continuous
 62
     8
370
    15
100
AcDbPolyline
 90
       15
 70
   128
 43
0.0
 10
43.82543232119853
 20
116.3735101261874
 10
43.1665559067838
 20
118.3174344433523
 10
42.66317897286098
 20
120.2799087572094
 10
42.32048031344086
 20
122.2407943204499
 10
42.14196470239494
 20
124.1799716743423
 10
42.12947343016753
 20
126.0775441257566
 10
42.28312635185907
 20
127.9140338752162
 10
42.60135218027354
 20
129.6706077277566
 10
43.08088848591836
 20
131.32922420757
 10
43.7168054046068
 20
132.8728811237441
 10
44.5025813700763
 20
134.2857262281012
 10
45.43015843172716
 20
135.5532670548901
 10
46.49001304815722
 20
136.6624984054119
 10
47.67127034463389
 20
137.602029188935
 10
48.26979741106484
 20
137.9850344959787
  0
LWPOLYLINE
  5
1B2
330
1F
100
AcDbEntity
  8
0
  6
Continuous
 62
     8
370
    15
100
AcDbPolyline
 90
       18
 70
   128
 43
0.0
 10
67.45388941251807
 20
101.7787964800253
 10
66.29385840494075
 20
101.315253704683
 10
64.82546928217465
 20
100.9352066340898
 10
63.29033790829547
 20
100.7520770568379
 10
61.70421370448385
 20
100.767734949952
 10
60.08337531475068
 20
100.9820372003926
 10
58.4444519757393
 20
101.392767584386
 10
56.80426653617836
 20
101.9957297692694
 10
55.17964184479655
 20
102.7847100805975
 10
53.58726015107007
 20
103.7516381506014
 10
52.04344743189635
 20
104.8865832917121
 10
50.56405485358249
 20
106.1778920680561
 10
49.16426186703755
 20
107.612324900534
 10
47.85842605962451
 20
109.1751506847566
 10
46.65995671461495
 20
110.8503490567822
 10
45.58114227252783
 20
112.6207165631697
 10
44.63306076907642
 20
114.4680901378869
 10
43.82543232119853
 20
116.3735101261874
  0
LWPOLYLINE
  5
1B3
330
1F
100
AcDbEntity
  8
0
  6
Continuous
 62
     8
370
    15
100
AcDbPolyline
 90
       15
 70
   128
 43
0.0
 10
44.74399127435708
 20
116.8602118145517
 10
44.08511485994235
 20
118.8041361317166
 10
43.58173792601954
 20
120.7666104455737
 10
43.23903926659941
 20
122.7274960088142
 10
43.06052365555349
 20
124.6666733627066
 10
43.04803238332608
 20
126.5642458141209
 10
43.20168530501763
 20
128.4007427602888
 10
43.5199111334321
 20
130.1573094161209
 10
43.99944743907691
 20
131.8159330926425
 10
44.63536435776535
 20
133.3595828121084
 10
45.42114032323484
 20
134.7724351131737
 10
46.3487173848857
 20
136.0399759399626
 10
47.40857200131577
 20
137.1492000937762
 10
48.58982929779243
 20
138.0887380740076
 10
48.74691060219254
 20
138.1947240547529
  0
LWPOLYLINE
  5
1B4
330
1F
100
AcDbEntity
  8
0
  6
Continuous
 62
     8
370
    15
100
AcDbPolyline
 90
       18
 70
   128
 43
0.0
 10
67.89533468064052
 20
102.0558150693491
 10
67.2124173580993
 20
101.8019481963391
 10
65.7440282353332
 20
101.4219011257458
 10
64.20889686145402
 20
101.238771548494
 10
62.62277265764241
 20
101.2544438350245
 10
61.00193426790923
 20
101.4687316920487
 10
59.36301356307587
 20
101.879475787683
 10
57.72282548933691
 20
102.4824242609255
 10
56.0982007979551
 20
103.27141896567
 10
54.50581910422862
 20
104.2383398389657
 10
52.9620063850549
 20
105.3732849800764
 10
51.48261380674104
 20
106.6645937564204
 10
50.08281555184003
 20
108.0990279524492
 10
48.77698501278306
 20
109.6618595698291
 10
47.57851039941743
 20
111.3370521086974
 10
46.49970122568638
 20
113.107418251534
 10
45.55161972223495
 20
114.9547918262512
 10
44.74399127435708
 20
116.8602118145517
  0
LWPOLYLINE
  5
1B5
330
1F
100
AcDbEntity
  8
0
  6
Continuous
 62
     8
370
    15
100
AcDbPolyline
 90
       14
 70
   128
 43
0.0
 10
45.66255022751563
 20
117.3469206996242
 10
45.00367381310089
 20
119.2908378200809
 10
44.50029687917807
 20
121.253312133938
 10
44.15759821975796
 20
123.2141976971785
 10
43.97908260871204
 20
125.1533822477791
 10
43.96659133648463
 20
127.0509475024852
 10
44.12024425817618
 20
128.8874444486531
 10
44.43847008659065
 20
130.6440111044852
 10
44.91800639223546
 20
132.3026347810068
 10
45.55392331092389
 20
133.8462916971809
 10
46.33969927639339
 20
135.259136801538
 10
47.26727633804426
 20
136.5266776283269
 10
48.32713095447432
 20
137.6359017821405
 10
49.23599283975283
 20
138.3818351366419
  0
LWPOLYLINE
  5
1B6
330
1F
100
AcDbEntity
  8
0
  6
Continuous
 62
     8
370
    15
100
AcDbPolyline
 90
       18
 70
   128
 43
0.0
 10
68.32481378346263
 20
102.3554043209909
 10
68.13097631125785
 20
102.2886570814116
 10
66.66258718849176
 20
101.9086100108184
 10
65.12745581461257
 20
101.7254804335665
 10
63.54133161080095
 20
101.7411383266806
 10
61.92049322106779
 20
101.9554405771212
 10
60.28157251623443
 20
102.3661702793391
 10
58.64138444249546
 20
102.969133145998
 10
57.01676238529168
 20
103.7581199722589
 10
55.42437542320914
 20
104.7250494058137
 10
53.88056533821345
 20
105.8599866684407
 10
52.40117275989959
 20
107.1513026414929
 10
51.00137450499858
 20
108.5857296408135
 10
49.69554396594161
 20
110.1485612581934
 10
48.49706935257598
 20
111.8237537970617
 10
47.41826017884492
 20
113.5941199398983
 10
46.47017867539351
 20
115.4414935146155
 10
45.66255022751563
 20
117.3469206996242
  0
LWPOLYLINE
  5
1B7
330
1F
100
AcDbEntity
  8
0
  6
Continuous
 62
     8
370
    15
100
AcDbPolyline
 90
       14
 70
   128
 43
0.0
 10
46.58110918067418
 20
117.8336223879885
 10
45.92223276625944
 20
119.7775467051534
 10
45.41885583233663
 20
121.7400210190105
 10
45.07615717291652
 20
123.700906582251
 10
44.89764156187059
 20
125.6400839361434
 10
44.88515028964319
 20
127.5376563875577
 10
45.03880321133473
 20
129.3741461370174
 10
45.35702903974919
 20
131.1307199895577
 10
45.83656534539401
 20
132.7893364693711
 10
46.47248226408244
 20
134.3329933855453
 10
47.25825822955194
 20
135.7458384899023
 10
48.18583529120281
 20
137.0133793166912
 10
49.24568990763287
 20
138.1226106672131
 10
49.73714652741669
 20
138.5461545584111
  0
LWPOLYLINE
  5
1B8
330
1F
100
AcDbEntity
  8
0
  6
Continuous
 62
     8
370
    15
100
AcDbPolyline
 90
       17
 70
   128
 43
0.0
 10
68.74221625014314
 20
102.6777938143172
 10
67.58114614165031
 20
102.3953188958909
 10
66.04601476777113
 20
102.2121749252226
 10
64.4598905639595
 20
102.2278472117531
 10
62.83905217422633
 20
102.4421494621937
 10
61.20012883521495
 20
102.8528798461871
 10
59.55994339565401
 20
103.4558348343623
 10
57.93532133845023
 20
104.2448216606232
 10
56.34293437636769
 20
105.211751094178
 10
54.799124291372
 20
106.346688356805
 10
53.31973171305815
 20
107.6380043298573
 10
51.91993345815713
 20
109.0724313291778
 10
50.61410291910016
 20
110.6352629465577
 10
49.41562830573454
 20
112.310455485426
 10
48.33681913200348
 20
114.0808216282626
 10
47.38873762855206
 20
115.9281952029798
 10
46.58110918067418
 20
117.8336223879885
  0
LWPOLYLINE
  5
1B9
330
1F
100
AcDbEntity
  8
0
  6
Continuous
 62
     8
370
    15
100
AcDbPolyline
 90
       14
 70
   128
 43
0.0
 10
47.49966813383273
 20
118.3203240763528
 10
46.84079171941799
 20
120.2642483935177
 10
46.33741478549518
 20
122.2267227073748
 10
45.99471612607507
 20
124.1876082706153
 10
45.81620051502914
 20
126.1267856245077
 10
45.80370924280174
 20
128.024358075922
 10
45.95736216449328
 20
129.8608478253817
 10
46.27558799290774
 20
131.617421677922
 10
46.75512429855257
 20
133.2760453544436
 10
47.391041217241
 20
134.8196950739096
 10
48.17681718271049
 20
136.2325401782666
 10
49.10439424436137
 20
137.5000810050555
 10
50.16424886079142
 20
138.6093123555773
 10
50.25053893548916
 20
138.687379490738
  0
LWPOLYLINE
  5
1BA
330
1F
100
AcDbEntity
  8
0
  6
Continuous
 62
     8
370
    15
100
AcDbPolyline
 90
       17
 70
   128
 43
0.0
 10
69.1473797700404
 20
103.0232777384956
 10
68.49970509480886
 20
102.882013387547
 10
66.96457108675163
 20
102.6988844920706
 10
65.37844951711804
 20
102.7145560968256
 10
63.75761112738488
 20
102.928851150558
 10
62.1186877883735
 20
103.3395815345514
 10
60.47850234881256
 20
103.9425365227266
 10
58.85387765743075
 20
104.7315240307629
 10
57.26149332952625
 20
105.6984527825423
 10
55.71768324453054
 20
106.8333972418775
 10
54.2382906662167
 20
108.1247060182215
 10
52.83849504549372
 20
109.5591395324749
 10
51.53266187225871
 20
111.1219718316302
 10
50.33418725889309
 20
112.7971643704985
 10
49.25537808516203
 20
114.5675305133351
 10
48.30729131335455
 20
116.4149054516032
 10
47.49966813383273
 20
118.3203240763528
  0
LWPOLYLINE
  5
1BB
330
1F
100
AcDbEntity
  8
0
  6
Continuous
 62
     8
370
    15
100
AcDbPolyline
 90
       13
 70
   128
 43
0.0
 10
48.41822708699128
 20
118.8070329614253
 10
47.75934540422048
 20
120.7509514454329
 10
47.25597373865373
 20
122.7134243957391
 10
46.91327507923362
 20
124.6743099589796
 10
46.7347594681877
 20
126.613487312872
 10
46.72226819596029
 20
128.5110597642863
 10
46.87592111765183
 20
130.3475567104542
 10
47.19414694606629
 20
132.1041233662864
 10
47.67367798335506
 20
133.7627484063588
 10
48.30960017039956
 20
135.3063967622739
 10
49.09537613586904
 20
136.7192490633391
 10
50.02295319751991
 20
137.9867898901281
 10
50.77638244457405
 20
138.8051016631788
  0
LWPOLYLINE
  5
1BC
330
1F
100
AcDbEntity
  8
0
  6
Continuous
 62
     8
370
    15
100
AcDbPolyline
 90
       17
 70
   128
 43
0.0
 10
69.54009745728128
 20
103.3922558623009
 10
69.41826404796741
 20
103.3687222726195
 10
67.8831300399102
 20
103.1855933771431
 10
66.2970084702766
 20
103.2012505884817
 10
64.67617008054344
 20
103.4155528389223
 10
63.03724674153205
 20
103.8262904196239
 10
61.39705866779308
 20
104.4292460895746
 10
59.7724366105893
 20
105.2182329158354
 10
58.1800522826848
 20
106.1851544709066
 10
56.63623956351106
 20
107.3200996120173
 10
55.15684698519723
 20
108.6114083883613
 10
53.75705136447424
 20
110.0458419026147
 10
52.45122082541727
 20
111.6086735199945
 10
51.25274884622967
 20
113.2838653770873
 10
50.17393703832058
 20
115.0542322016994
 10
49.2258502665131
 20
116.9016071399675
 10
48.41822708699128
 20
118.8070329614253
  0
LWPOLYLINE
  5
1BD
330
1F
100
AcDbEntity
  8
0
  6
Continuous
 62
     8
370
    15
100
AcDbPolyline
 90
       13
 70
   128
 43
0.0
 10
49.33678604014983
 20
119.2937346497896
 10
48.67790435737902
 20
121.2376603305054
 10
48.17453269181228
 20
123.2001332808116
 10
47.83183403239216
 20
125.1610188440521
 10
47.65331842134625
 20
127.1001961979445
 10
47.64082714911884
 20
128.9977686493588
 10
47.79448007081039
 20
130.8342583988185
 10
48.11270589922484
 20
132.5908322513589
 10
48.59223693651361
 20
134.2494500947231
 10
49.2281591235581
 20
135.7931056473464
 10
50.01393508902759
 20
137.2059507517034
 10
50.94151215067846
 20
138.4734915784924
 10
51.31494047247458
 20
138.8988277611865
  0
LWPOLYLINE
  5
1BE
330
1F
100
AcDbEntity
  8
0
  6
Continuous
 62
     8
370
    15
100
AcDbPolyline
 90
       16
 70
   128
 43
0.0
 10
69.92009546024805
 20
103.7852314507222
 10
68.80168899306874
 20
103.6722950655074
 10
67.21556742343515
 20
103.6879594735542
 10
65.59472639952396
 20
103.9022552090621
 10
63.9558056946906
 20
104.3129921079882
 10
62.31561762095163
 20
104.9159477779389
 10
60.69099556374785
 20
105.7049346041997
 10
59.09861123584335
 20
106.6718633559791
 10
57.55479851666961
 20
107.8068013003816
 10
56.07540593835578
 20
109.0981172734338
 10
54.67561031763278
 20
110.5325435909789
 10
53.36977714439778
 20
112.0953758901343
 10
52.17130516521019
 20
113.7705677472271
 10
51.09249335730109
 20
115.5409345718392
 10
50.14440921967164
 20
117.3883088283318
 10
49.33678604014983
 20
119.2937346497896
  0
LWPOLYLINE
  5
1BF
330
1F
100
AcDbEntity
  8
0
  6
Continuous
 62
     8
370
    15
100
AcDbPolyline
 90
       13
 70
   128
 43
0.0
 10
50.25534499330838
 20
119.7804363381539
 10
49.59646331053757
 20
121.7243620188697
 10
49.09309164497083
 20
123.6868349691759
 10
48.75038771719466
 20
125.6477218959673
 10
48.5718773745048
 20
127.5868978863088
 10
48.55938610227739
 20
129.4844703377231
 10
48.71303902396894
 20
131.3209600871828
 10
49.03126485238339
 20
133.0775339397232
 10
49.51079588967216
 20
134.7361517830874
 10
50.14671807671665
 20
136.2798073357106
 10
50.93249404218614
 20
137.6926524400677
 10
51.86007110383702
 20
138.9601932668567
 10
51.86654459635049
 20
138.9679396928039
  0
LWPOLYLINE
  5
1C0
330
1F
100
AcDbEntity
  8
0
  6
Continuous
 62
     8
370
    15
100
AcDbPolyline
 90
       16
 70
   128
 43
0.0
 10
70.28705012489456
 20
104.2028277524248
 10
69.72024794622729
 20
104.1589967538717
 10
68.13412374241568
 20
104.174661843694
 10
66.5132853526825
 20
104.3889640941346
 10
64.87436464784915
 20
104.7996937963525
 10
63.23417657411018
 20
105.4026494663032
 10
61.6095545169064
 20
106.191636292564
 10
60.01716755482386
 20
107.1585657261188
 10
58.47335746982817
 20
108.2935101854541
 10
56.99396489151432
 20
109.5848189617981
 10
55.59416927079133
 20
111.0192524760515
 10
54.28833609755633
 20
112.5820775784986
 10
53.08986411836874
 20
114.2572766322996
 10
52.01105231045965
 20
116.0276434569117
 10
51.06297080700823
 20
117.8750170316289
 10
50.25534499330838
 20
119.7804363381539
  0
LWPOLYLINE
  5
1C1
330
1F
100
AcDbEntity
  8
0
  6
Continuous
 62
     8
370
    15
100
AcDbPolyline
 90
       12
 70
   128
 43
0.0
 10
51.1739013122889
 20
120.2671459050019
 10
50.51502226369612
 20
122.211063707234
 10
50.01165059812938
 20
124.1735366575402
 10
49.66894667035321
 20
126.1344235843316
 10
49.49043632766335
 20
128.0735995746731
 10
49.47793978707987
 20
129.9711733896383
 10
49.63159797712748
 20
131.8076689722553
 10
49.94982380554195
 20
133.5642356280875
 10
50.4293548428307
 20
135.2228606681599
 10
51.06527176151914
 20
136.7665103876259
 10
51.85105299534469
 20
138.1793613251402
 10
52.43159093072335
 20
139.0116747882004
  0
LWPOLYLINE
  5
1C2
330
1F
100
AcDbEntity
  8
0
  6
Continuous
 62
     8
370
    15
100
AcDbPolyline
 90
       16
 70
   128
 43
0.0
 10
70.64056224977188
 20
104.6457936084181
 10
70.63880689938584
 20
104.645698442236
 10
69.05268269557422
 20
104.6613635320583
 10
67.43184430584107
 20
104.8756657824989
 10
65.79292360100769
 20
105.2863954847168
 10
64.15273552726873
 20
105.8893511546675
 10
62.52811347006496
 20
106.6783451776366
 10
60.93572650798242
 20
107.6452674144831
 10
59.39191642298672
 20
108.7802118738184
 10
57.91252384467287
 20
110.0715206501624
 10
56.51272822394989
 20
111.5059541644158
 10
55.20689505071488
 20
113.0687864635711
 10
54.0084230715273
 20
114.7439783206639
 10
52.92961126361819
 20
116.514345145276
 10
51.98152712598875
 20
118.3617194017686
 10
51.1739013122889
 20
120.2671459050019
  0
LWPOLYLINE
  5
1C3
330
1F
100
AcDbEntity
  8
0
  6
Continuous
 62
     8
370
    15
100
AcDbPolyline
 90
       12
 70
   128
 43
0.0
 10
52.09246026544746
 20
120.7538475933662
 10
51.43358121685468
 20
122.6977653955983
 10
50.93020955128793
 20
124.6602383459045
 10
50.58750562351176
 20
126.6211252726959
 10
50.40899528082191
 20
128.5603084597456
 10
50.39649874023842
 20
130.4578750780026
 10
50.55015693028603
 20
132.2943706606196
 10
50.8683827587005
 20
134.0509373164518
 10
51.34791379598926
 20
135.7095623565242
 10
51.98383071467769
 20
137.2532192726984
 10
52.76961194850325
 20
138.6660630135045
 10
53.01055428618339
 20
139.0291456001356
  0
LWPOLYLINE
  5
1C4
330
1F
100
AcDbEntity
  8
0
  6
Continuous
 62
     8
370
    15
100
AcDbPolyline
 90
       15
 70
   128
 43
0.0
 10
70.98015998774001
 20
105.1150230660972
 10
69.97124164873279
 20
105.1480724171308
 10
68.3504032589996
 20
105.3623674708632
 10
66.71148255416625
 20
105.7731043697893
 10
65.07129448042728
 20
106.37606003974
 10
63.4466724232235
 20
107.1650468660009
 10
61.85428546114096
 20
108.1319762995557
 10
60.31047537614527
 20
109.2669135621827
 10
58.83108279783142
 20
110.5582295352349
 10
57.43128717710844
 20
111.9926558527801
 10
56.12545400387344
 20
113.5554881519354
 10
54.92698202468585
 20
115.2306800090282
 10
53.84817021677674
 20
117.0010468336403
 10
52.9000860791473
 20
118.8484210901329
 10
52.09246026544746
 20
120.7538475933662
  0
LWPOLYLINE
  5
1C5
330
1F
100
AcDbEntity
  8
0
  6
Continuous
 62
     8
370
    15
100
AcDbPolyline
 90
       11
 70
   128
 43
0.0
 10
53.01101921860601
 20
121.2405492817305
 10
52.35214017001323
 20
123.1844742806708
 10
51.84876850444648
 20
125.146947230977
 10
51.50606721084834
 20
127.107833475993
 10
51.32755423398044
 20
129.0470101481099
 10
51.31505769339697
 20
130.9445839630751
 10
51.46871588344458
 20
132.7810723489839
 10
51.78694171185904
 20
134.5376462015242
 10
52.26647274914781
 20
136.1962640448885
 10
52.90238966783625
 20
137.7399209610627
 10
53.604000352463
 20
139.0192944227182
  0
LWPOLYLINE
  5
1C6
330
1F
100
AcDbEntity
  8
0
  6
Continuous
 62
     8
370
    15
100
AcDbPolyline
 90
       15
 70
   128
 43
0.0
 10
71.30527501488861
 20
105.6115889065454
 10
70.88980060189132
 20
105.6347741054951
 10
69.26896221215817
 20
105.8490691592275
 10
67.63004150732479
 20
106.2598060581536
 10
65.98985343358582
 20
106.8627617281043
 10
64.36523137638206
 20
107.6517485543652
 10
62.77284441429951
 20
108.61867798792
 10
61.22903432930382
 20
109.7536224472552
 10
59.74964175098997
 20
111.0449312235992
 10
58.34984613026698
 20
112.4793647378526
 10
57.04401295703199
 20
114.0421898402997
 10
55.84554097784439
 20
115.7173888941007
 10
54.7667291699353
 20
117.4877557187128
 10
53.81864503230585
 20
119.3351227784972
 10
53.01101921860601
 20
121.2405492817305
  0
LWPOLYLINE
  5
1C7
330
1F
100
AcDbEntity
  8
0
  6
Continuous
 62
     8
370
    15
100
AcDbPolyline
 90
       11
 70
   128
 43
0.0
 10
53.92957817176455
 20
121.7272509700948
 10
53.27069912317177
 20
123.6711759690351
 10
52.76732745760503
 20
125.6336489193414
 10
52.42462352982885
 20
127.5945358461328
 10
52.24611055296096
 20
129.5337125182497
 10
52.23361664655552
 20
131.4312856514394
 10
52.38727483660313
 20
133.2677812340564
 10
52.7055006650176
 20
135.0243478898886
 10
53.18503170230636
 20
136.682972929961
 10
53.82094862099479
 20
138.226622649427
 10
54.21259096679269
 20
138.9808442779989
  0
LWPOLYLINE
  5
1C8
330
1F
100
AcDbEntity
  8
0
  6
Continuous
 62
     8
370
    15
100
AcDbPolyline
 90
       14
 70
   128
 43
0.0
 10
71.61523808536141
 20
106.1367414940383
 10
70.18752116531671
 20
106.3357780443
 10
68.54860046048334
 20
106.7465077465179
 10
66.90841238674439
 20
107.3494634164686
 10
65.2837903295406
 20
108.1384574394377
 10
63.69140336745807
 20
109.1053796762843
 10
62.14759328246236
 20
110.2403241356195
 10
60.66820070414852
 20
111.5316329119635
 10
59.26840508342553
 20
112.9660664262169
 10
57.96257191019054
 20
114.5288987253722
 10
56.76409993100294
 20
116.204090582465
 10
55.68528812309385
 20
117.9744574070771
 10
54.7372039854644
 20
119.8218316635697
 10
53.92957817176455
 20
121.7272509700948
  0
ARC
  5
1C9
330
1F
100
AcDbEntity
  8
0
  6
Continuous
 62
     8
370
    15
100
AcDbCircle
 10
74.03375330090104
 20
130.5757727092147
 30
0.0
 40
20.92863546096731
100
AcDbArc
 50
156.5261247838654
 51
203.5493825269421
  0
LWPOLYLINE
  5
1CA
330
1F
100
AcDbEntity
  8
0
  6
Continuous
 62
     8
370
    15
100
AcDbPolyline
 90
       14
 70
   128
 43
0.0
 10
71.90925845184044
 20
106.6919907947686
 10
71.10608011847526
 20
106.8224797326643
 10
69.46715677946388
 20
107.2332173133659
 10
67.82697133990293
 20
107.8361723015411
 10
66.20234928269915
 20
108.625159127802
 10
64.6099623206166
 20
109.5920813646485
 10
63.06615223562091
 20
110.7270258239838
 10
61.58675965730708
 20
112.018341797036
 10
60.18696403658409
 20
113.4527681145812
 10
58.88113086334909
 20
115.0156004137365
 10
57.68265888416149
 20
116.6907922708293
 10
56.6038470762524
 20
118.4611590954414
 10
55.65576293862295
 20
120.308533351934
 10
54.84813712492311
 20
122.2139598551673
  0
ARC
  5
1CB
330
1F
100
AcDbEntity
  8
0
  6
Continuous
 62
     8
370
    15
100
AcDbCircle
 10
75.4167774269602
 20
131.110266466256
 30
0.0
 40
21.3739830629168
100
AcDbArc
 50
158.8797649159031
 51
203.1693724487362
  0
LWPOLYLINE
  5
1CC
330
1F
100
AcDbEntity
  8
0
  6
Continuous
 62
     8
370
    15
100
AcDbPolyline
 90
       14
 70
   128
 43
0.0
 10
72.18638583460071
 20
107.2791200930321
 10
72.02463907163381
 20
107.3091814210286
 10
70.38571573262243
 20
107.7199190017302
 10
68.74553029306149
 20
108.3228739899054
 10
67.12090560167965
 20
109.1118614979417
 10
65.52852127377517
 20
110.0787902497211
 10
63.98470855460143
 20
111.2137281941235
 10
62.50531861046563
 20
112.5050434854003
 10
61.10552298974264
 20
113.9394698029455
 10
59.79968981650764
 20
115.5023021021008
 10
58.60121783732004
 20
117.1774939591936
 10
57.52240339523291
 20
118.9478614655811
 10
56.5743218917815
 20
120.7952350402984
 10
55.76669607808166
 20
122.7006615435316
  0
ARC
  5
1CD
330
1F
100
AcDbEntity
  8
0
  6
Continuous
 62
     8
370
    15
100
AcDbCircle
 10
76.5941899972882
 20
131.645407595698
 30
0.0
 40
21.63109349853523
100
AcDbArc
 50
161.0290576635291
 51
203.0175620337971
  0
LWPOLYLINE
  5
1CE
330
1F
100
AcDbEntity
  8
0
  6
Continuous
 62
     8
370
    15
100
AcDbPolyline
 90
       13
 70
   128
 43
0.0
 10
72.44548687854397
 20
107.9002658794049
 10
71.30427468578097
 20
108.2066206900945
 10
69.664086612042
 20
108.8095763600452
 10
68.03946455483822
 20
109.598563186306
 10
66.4470802269337
 20
110.5654919380854
 10
64.90326750775999
 20
111.700437079196
 10
63.42387492944614
 20
112.9917458555401
 10
62.02407930872315
 20
114.4261793697935
 10
60.71824876966618
 20
115.9890037904651
 10
59.51977415630057
 20
117.6642035260416
 10
58.44096234839147
 20
119.4345703506536
 10
57.49288084494005
 20
121.2819439253709
 10
56.68525503124021
 20
123.1873632318959
  0
ARC
  5
1CF
330
1F
100
AcDbEntity
  8
0
  6
Continuous
 62
     8
370
    15
100
AcDbCircle
 10
78.1858435267588
 20
132.203117125226
 30
0.0
 40
22.27924031100398
100
AcDbArc
 50
163.5653545655854
 51
202.5087654337164
  0
LWPOLYLINE
  5
1D0
330
1F
100
AcDbEntity
  8
0
  6
Continuous
 62
     8
370
    15
100
AcDbPolyline
 90
       13
 70
   128
 43
0.0
 10
72.68520234780573
 20
108.5580036618438
 10
72.22283363893952
 20
108.693329575167
 10
70.58264556520055
 20
109.2962780484095
 10
68.95802350799676
 20
110.0852720713785
 10
67.36563918009226
 20
111.0521936264497
 10
65.82182646091854
 20
112.1871387675604
 10
64.3424338826047
 20
113.4784475439044
 10
62.9426382618817
 20
114.9128810581578
 10
61.6368050886467
 20
116.4757133573131
 10
60.43833310945912
 20
118.1509052144059
 10
59.35952130155001
 20
119.9212720390179
 10
58.4114397980986
 20
121.7686456137352
 10
57.60381398439876
 20
123.6740721169684
  0
ARC
  5
1D1
330
1F
100
AcDbEntity
  8
0
  6
Continuous
 62
     8
370
    15
100
AcDbCircle
 10
79.37311849006527
 20
132.7473922294206
 30
0.0
 40
22.54958106165867
100
AcDbArc
 50
165.7563098514684
 51
202.3825252277668
  0
ARC
  5
1D2
330
1F
100
AcDbEntity
  8
0
  6
Continuous
 62
     8
370
    15
100
AcDbCircle
 10
81.9959612353144
 20
132.4187369242428
 30
0.0
 40
24.88379598143896
100
AcDbArc
 50
199.381773750338
 51
248.5689015510027
  0
ARC
  5
1D3
330
1F
100
AcDbEntity
  8
0
  6
Continuous
 62
     8
370
    15
100
AcDbCircle
 10
80.56604722138394
 20
133.2927982819731
 30
0.0
 40
22.82569173878005
100
AcDbArc
 50
167.992888960796
 51
202.2565240433364
  0
ARC
  5
1D4
330
1F
100
AcDbEntity
  8
0
  6
Continuous
 62
     8
370
    15
100
AcDbCircle
 10
83.12751618339422
 20
133.0374095977047
 30
0.0
 40
25.12857702045648
100
AcDbArc
 50
199.5044556963256
 51
246.4799184896995
  0
ARC
  5
1D5
330
1F
100
AcDbEntity
  8
0
  6
Continuous
 62
     8
370
    15
100
AcDbCircle
 10
81.76513118485629
 20
133.8394556625506
 30
0.0
 40
23.1080811131689
100
AcDbArc
 50
170.2858534962104
 51
202.1306632641603
  0
ARC
  5
1D6
330
1F
100
AcDbEntity
  8
0
  6
Continuous
 62
     8
370
    15
100
AcDbCircle
 10
84.26019715005266
 20
133.6569855886272
 30
0.0
 40
25.37483279482595
100
AcDbArc
 50
199.6258407452448
 51
244.3330656946228
  0
ARC
  5
1D7
330
1F
100
AcDbEntity
  8
0
  6
Continuous
 62
     8
370
    15
100
AcDbCircle
 10
82.97144920373948
 20
134.387565090878
 30
0.0
 40
23.39782770384887
100
AcDbArc
 50
172.6490872593693
 51
202.0044841261942
  0
ARC
  5
1D8
330
1F
100
AcDbEntity
  8
0
  6
Continuous
 62
     8
370
    15
100
AcDbCircle
 10
85.39419056848925
 20
134.2776268909574
 30
0.0
 40
25.62279302980195
100
AcDbArc
 50
199.7461273917983
 51
242.1148091781335
  0
ARC
  5
1D9
330
1F
100
AcDbEntity
  8
0
  6
Continuous
 62
     8
370
    15
100
AcDbCircle
 10
84.71930719885738
 20
135.0169243899366
 30
0.0
 40
24.2208243291708
100
AcDbArc
 50
175.3955366786991
 51
201.5823335639939
  0
ARC
  5
1DA
330
1F
100
AcDbEntity
  8
0
  6
Continuous
 62
     8
370
    15
100
AcDbCircle
 10
86.75671471476589
 20
135.0888915860398
 30
0.0
 40
26.15076940804131
100
AcDbArc
 50
200.0867900266812
 51
239.5864462307752
  0
ARC
  5
1DB
330
1F
100
AcDbEntity
  8
0
  6
Continuous
 62
     8
370
    15
100
AcDbCircle
 10
85.93401582157317
 20
135.5786366482474
 30
0.0
 40
24.52383396002109
100
AcDbArc
 50
177.9219828494841
 51
201.4907879618792
  0
ARC
  5
1DC
330
1F
100
AcDbEntity
  8
0
  6
Continuous
 62
     8
370
    15
100
AcDbCircle
 10
87.89145348402259
 20
135.7025637313072
 30
0.0
 40
26.39744524933409
100
AcDbArc
 50
200.1844666976744
 51
237.1880385419551
  0
ARC
  5
1DD
330
1F
100
AcDbEntity
  8
0
  6
Continuous
 62
     8
370
    15
100
AcDbCircle
 10
87.34538106688267
 20
136.1790068342948
 30
0.0
 40
25.02413036492613
100
AcDbArc
 50
180.671434980931
 51
201.3195670389514
  0
ARC
  5
1DE
330
1F
100
AcDbEntity
  8
0
  6
Continuous
 62
     8
370
    15
100
AcDbCircle
 10
89.1461335190342
 20
136.4082020713464
 30
0.0
 40
26.78861376899649
100
AcDbArc
 50
200.3759072559871
 51
234.5501724708063
  0
ARC
  5
1DF
330
1F
100
AcDbEntity
  8
0
  6
Continuous
 62
     8
370
    15
100
AcDbCircle
 10
88.90442744724282
 20
136.8214434038117
 30
0.0
 40
25.67755788312499
100
AcDbArc
 50
183.6375320217929
 51
201.1236889919955
  0
ARC
  5
1E0
330
1F
100
AcDbEntity
  8
0
  6
Continuous
 62
     8
370
    15
100
AcDbCircle
 10
90.28168105670876
 20
137.0184249589641
 30
0.0
 40
27.03506234861231
100
AcDbArc
 50
200.4611919958355
 51
231.8241746043604
  0
ARC
  5
1E1
330
1F
100
AcDbEntity
  8
0
  6
Continuous
 62
     8
370
    15
100
AcDbCircle
 10
90.15088248159186
 20
137.4052540353523
 30
0.0
 40
26.01843184732502
100
AcDbArc
 50
186.8070500082935
 51
201.0629448752826
  0
ARC
  5
1E2
330
1F
100
AcDbEntity
  8
0
  6
Continuous
 62
     8
370
    15
100
AcDbCircle
 10
91.61305221314069
 20
137.7635729827599
 30
0.0
 40
27.51234966301683
100
AcDbArc
 50
200.6649338912683
 51
228.6416181272108
  0
ARC
  5
1E3
330
1F
100
AcDbEntity
  8
0
  6
Continuous
 62
     8
370
    15
100
AcDbCircle
 10
91.63077671060861
 20
138.0552507597759
 30
0.0
 40
26.60099252379374
100
AcDbArc
 50
190.5402238090023
 51
200.956623713376
  0
ARC
  5
1E4
330
1F
100
AcDbEntity
  8
0
  6
Continuous
 62
     8
370
    15
100
AcDbCircle
 10
92.7433296976688
 20
138.3617731877412
 30
0.0
 40
27.74980759270418
100
AcDbArc
 50
200.7260540358666
 51
225.0840157690158
  0
LWPOLYLINE
  5
1E5
330
1F
100
AcDbEntity
  8
0
  6
Continuous
 62
     8
370
    15
100
AcDbPolyline
 90
        3
 70
   128
 43
0.0
 10
67.70795720078675
 20
129.0278136426513
 10
67.049080786372
 20
130.9717307631079
 10
66.85490235274821
 20
131.6575450513301
  0
ARC
  5
1E6
330
1F
100
AcDbEntity
  8
0
  6
Continuous
 62
     8
370
    15
100
AcDbCircle
 10
93.96894838560667
 20
139.0178271463518
 30
0.0
 40
28.09697542108951
100
AcDbArc
 50
200.8274484929886
 51
220.662229128336
  0
ARC
  5
1E7
330
1F
100
AcDbEntity
  8
0
  6
Continuous
 62
     8
370
    15
100
AcDbCircle
 10
95.10373875694462
 20
139.6147809333716
 30
0.0
 40
28.33844340891569
100
AcDbArc
 50
201.9816835279063
 51
213.8526802545198
  0
LWPOLYLINE
  5
1E8
330
1F
100
AcDbEntity
  8
0
  6
Continuous
 62
     8
370
    15
100
AcDbPolyline
 90
       15
 70
   128
 43
0.0
 10
115.261382365234
 20
146.0215718726304
 10
114.4268313007808
 20
147.9998656479719
 10
113.4528439734744
 20
149.9215816557697
 10
112.348518834237
 20
151.76878467255
 10
111.1241634217076
 20
153.5242176976745
 10
109.7912100685449
 20
155.1714972490603
 10
108.3621039488606
 20
156.6952408205345
 10
106.8501871743865
 20
158.081227254742
 10
105.2695789393738
 20
159.3165074589365
 10
103.6350352506127
 20
160.3895512747564
 10
101.9618178770759
 20
161.2903368124014
 10
100.2655481530371
 20
162.0104630984051
 10
98.56206473245788
 20
162.5431948850444
 10
96.86727245302276
 20
162.8835685655794
 10
95.74124827224736
 20
163.0025630115165
  0
LWPOLYLINE
  5
1E9
330
1F
100
AcDbEntity
  8
0
  6
Continuous
 62
     8
370
    15
100
AcDbPolyline
 90
       12
 70
   128
 43
0.0
 10
114.8132164857714
 20
127.0079454180371
 10
114.9390231822152
 20
127.2271931444944
 10
115.6871330360061
 20
128.7546642829971
 10
116.284042058581
 20
130.4052507292003
 10
116.7241769877687
 20
132.1635380904383
 10
117.0034285058394
 20
134.0131124804086
 10
117.1191884472694
 20
135.9366969810756
 10
117.0703758112487
 20
137.9163366066493
 10
116.8574472983936
 20
139.9335461761385
 10
116.4823910545738
 20
141.9694982129414
 10
115.9487092194826
 20
144.0051736677878
 10
115.261382365234
 20
146.0215718726304
  0
LWPOLYLINE
  5
1EA
330
1F
100
AcDbEntity
  8
0
  6
Continuous
 62
     8
370
    15
100
AcDbPolyline
 90
       16
 70
   128
 43
0.0
 10
115.5252795888289
 20
146.1230701011119
 10
116.2187697611277
 20
144.0885850476602
 10
116.7572378977029
 20
142.0346505430735
 10
117.1356579868695
 20
139.9804462066871
 10
117.3504956202533
 20
137.9451374643953
 10
117.3997461883718
 20
135.9477440767751
 10
117.2829477222527
 20
134.0069094001343
 10
117.0011924179626
 20
132.1407491522372
 10
116.5571098437217
 20
130.3666952351586
 10
115.9548471835693
 20
128.7013036598183
 10
115.2000277490588
 20
127.1601322218283
 10
114.2996981310618
 20
125.7575587714019
 10
113.262264979495
 20
124.5066936796348
 10
112.0974148255264
 20
123.4192036859058
 10
110.8160230377968
 20
122.505251830051
 10
110.1497495221961
 20
122.1237111033802
  0
LWPOLYLINE
  5
1EB
330
1F
100
AcDbEntity
  8
0
  6
Continuous
 62
     8
370
    15
100
AcDbPolyline
 90
       20
 70
   128
 43
0.0
 10
89.08100340229771
 20
161.8868571438305
 10
89.09542947828957
 20
161.8944893254512
 10
90.52889112903159
 20
162.5326720071079
 10
92.04719096962641
 20
162.979198018067
 10
93.63615230665552
 20
163.2298950367695
 10
95.28094014914662
 20
163.2824227416478
 10
96.96619835046742
 20
163.1362925490926
 10
98.6761911542358
 20
162.7928700071931
 10
100.3949521488557
 20
162.2553570245489
 10
102.1064349095734
 20
161.5287740435444
 10
103.7946591953582
 20
160.619908677941
 10
105.4438627434114
 20
159.5372394366892
 10
107.038646807503
 20
158.290883206479
 10
108.5641216963074
 20
156.8924687218829
 10
110.0060457262951
 20
155.3550609428204
 10
111.3509529793667
 20
153.69300132536
 10
112.5862902801112
 20
151.9218241883224
 10
113.7005199287486
 20
150.0580617203833
 10
114.6832428489535
 20
148.1191084737902
 10
115.5252795888289
 20
146.1230701011119
  0
ARC
  5
1EC
330
1F
100
AcDbEntity
  8
0
  6
Continuous
 62
     8
370
    15
100
AcDbCircle
 10
92.32820886601688
 20
136.6596651734522
 30
0.0
 40
24.69808038557087
100
AcDbArc
 50
347.0827780882866
 51
22.22922651908804
  0
ARC
  5
1ED
330
1F
100
AcDbEntity
  8
0
  6
Continuous
 62
     8
370
    15
100
AcDbCircle
 10
89.88089260716542
 20
137.2071435885084
 30
0.0
 40
26.79471541458095
100
AcDbArc
 50
19.16431632405978
 51
67.69413932863023
  0
LWPOLYLINE
  5
1EE
330
1F
100
AcDbEntity
  8
0
  6
Continuous
 62
     8
370
    15
100
AcDbPolyline
 90
       14
 70
   128
 43
0.0
 10
122.9976889612274
 20
164.1199131312493
 10
121.9774958463351
 20
165.1058558827917
 10
120.4155794505237
 20
166.4307174920161
 10
118.7916372993654
 20
167.5975194072003
 10
117.120838265898
 20
168.595360638086
 10
115.4187868503514
 20
169.4149213865331
 10
113.7013808110567
 20
170.0485455758663
 10
111.9846604812308
 20
170.4903226535631
 10
110.2846610903711
 20
170.7361196219192
 10
108.6172593233843
 20
170.7836390858325
 10
106.9980299225202
 20
170.6324417195788
 10
105.4420958684964
 20
170.2839381997046
 10
103.9639902507873
 20
169.741384968362
 10
103.2404455888693
 20
169.389324350715
  0
ARC
  5
1EF
330
1F
100
AcDbEntity
  8
0
  6
Continuous
 62
     8
370
    15
100
AcDbCircle
 10
117.088370951081
 20
141.9598895803209
 30
0.0
 40
14.29198348772764
100
AcDbArc
 50
300.3470059379659
 51
353.6286714840475
  0
SPLINE
  5
1F0
330
1F
100
AcDbEntity
  8
0
  6
Continuous
 62
     8
370
    15
100
AcDbSpline
210
0.0
220
0.0
230
1.0
 70
     8
 71
     3
 72
    17
 73
    13
 74
     0
 42
0.000000001
 43
0.00000001
 40
0.0
 40
0.0
 40
0.0
 40
0.0
 40
0.0703990005698697
 40
0.177666507599787
 40
0.2849701337739046
 40
0.3923242007118074
 40
0.4997336395034069
 40
0.6070869757087346
 40
0.7144355198063215
 40
0.8218024574293505
 40
0.9291581933405667
 40
1.0
 40
1.0
 40
1.0
 40
1.0
 10
116.7446801124802
 20
146.7691765347601
 30
0.0
 10
116.7622405464253
 20
146.7285895312421
 30
0.0
 10
116.8065579507309
 20
146.6261597934531
 30
0.0
 10
116.9101113932718
 20
146.490979715698
 30
0.0
 10
117.0472423554682
 20
146.3907034791504
 30
0.0
 10
117.1928789156664
 20
146.3555291423853
 30
0.0
 10
117.3303475338821
 20
146.3893392205628
 30
0.0
 10
117.4444863220954
 20
146.4884460936949
 30
0.0
 10
117.5223748415092
 20
146.6416679213181
 30
0.0
 10
117.553876761595
 20
146.8311105902058
 30
0.0
 10
117.539580721147
 20
147.0138618661574
 30
0.0
 10
117.5042580997584
 20
147.1214370432523
 30
0.0
 10
117.4902157157894
 20
147.1642031767645
 30
0.0
  0
SPLINE
  5
1F1
330
1F
100
AcDbEntity
  8
0
  6
Continuous
 62
     8
370
    15
100
AcDbSpline
210
0.0
220
0.0
230
1.0
 70
     8
 71
     3
 72
    17
 73
    13
 74
     0
 42
0.000000001
 43
0.00000001
 40
0.0
 40
0.0
 40
0.0
 40
0.0
 40
0.0705522796782272
 40
0.1778188374393
 40
0.285123182894381
 40
0.3924778623796444
 40
0.4998867995423798
 40
0.6072400458290705
 40
0.7145893004087299
 40
0.8219537591899863
 40
0.929312539310926
 40
1.0
 40
1.0
 40
1.0
 40
1.0
 10
117.4902157157894
 20
147.1642031767645
 30
0.0
 10
117.4724995873726
 20
147.2048477674271
 30
0.0
 10
117.4278481406245
 20
147.3072877437509
 30
0.0
 10
117.321504926995
 20
147.4417778064265
 30
0.0
 10
117.1802603160947
 20
147.5409184982037
 30
0.0
 10
117.0310878174557
 20
147.5750675404746
 30
0.0
 10
116.892263801253
 20
147.5408103183233
 30
0.0
 10
116.7795382618201
 20
147.441971539997
 30
0.0
 10
116.7052427036702
 20
147.2895977316613
 30
0.0
 10
116.6779111960037
 20
147.1011793171371
 30
0.0
 10
116.6949568809639
 20
146.9192193382007
 30
0.0
 10
116.7305493012875
 20
146.8118170965576
 30
0.0
 10
116.7446801124802
 20
146.7691765347601
 30
0.0
  0
SPLINE
  5
1F2
330
1F
100
AcDbEntity
  8
0
  6
Continuous
 62
     8
370
    15
100
AcDbSpline
210
0.0
220
0.0
230
1.0
 70
     8
 71
     3
 72
    12
 73
     8
 74
     0
 42
0.000000001
 43
0.00000001
 40
0.0
 40
0.0
 40
0.0
 40
0.0
 40
0.2138142303271745
 40
0.4276212811973624
 40
0.6416999919617347
 40
0.8564061188947365
 40
1.0
 40
1.0
 40
1.0
 40
1.0
 10
116.4227855326118
 20
148.1263030995239
 30
0.0
 10
116.4081753389917
 20
148.1210466984641
 30
0.0
 10
116.3789554423329
 20
148.1105340728439
 30
0.0
 10
116.3286909125373
 20
148.1226269155306
 30
0.0
 10
116.2808376536669
 20
148.1543065862205
 30
0.0
 10
116.2434887515796
 20
148.1980636821238
 30
0.0
 10
116.2269227987793
 20
148.231478534581
 30
0.0
 10
116.2202837549516
 20
148.2448700172583
 30
0.0
  0
LINE
  5
1F3
330
1F
100
AcDbEntity
  8
0
  6
Continuous
 62
     8
370
    15
100
AcDbLine
 10
116.4227855326118
 20
148.1263030995239
 30
0.0
 11
116.7902085870396
 21
148.3209896685913
 31
0.0
  0
SPLINE
  5
1F4
330
1F
100
AcDbEntity
  8
0
  6
Continuous
 62
     8
370
    15
100
AcDbSpline
210
0.0
220
0.0
230
1.0
 70
     8
 71
     3
 72
    12
 73
     8
 74
     0
 42
0.000000001
 43
0.00000001
 40
0.0
 40
0.0
 40
0.0
 40
0.0
 40
0.2156217558587558
 40
0.4312750890550628
 40
0.646522212859604
 40
0.8610332096437803
 40
1.0
 40
1.0
 40
1.0
 40
1.0
 10
116.8326563903906
 20
148.5693330116957
 30
0.0
 10
116.8403726651835
 20
148.5479534897811
 30
0.0
 10
116.8558063448009
 20
148.5051913149674
 30
0.0
 10
116.8586051618937
 20
148.4388403871079
 30
0.0
 10
116.8454030684135
 20
148.3807928408016
 30
0.0
 10
116.8204189356069
 20
148.3407660422902
 30
0.0
 10
116.7987338817992
 20
148.3265705183019
 30
0.0
 10
116.7902085870396
 20
148.3209896685913
 30
0.0
  0
ARC
  5
1F5
330
1F
100
AcDbEntity
  8
0
  6
Continuous
 62
     8
370
    15
100
AcDbCircle
 10
88.30470450017327
 20
136.0123780305686
 30
0.0
 40
31.16923414921528
100
AcDbArc
 50
23.75732868118762
 51
31.65487908989786
  0
SPLINE
  5
1F6
330
1F
100
AcDbEntity
  8
0
  6
Continuous
 62
     8
370
    15
100
AcDbSpline
210
0.0
220
0.0
230
1.0
 70
     8
 71
     3
 72
    12
 73
     8
 74
     0
 42
0.000000001
 43
0.00000001
 40
0.0
 40
0.0
 40
0.0
 40
0.0
 40
0.2014428393150788
 40
0.4027452797204688
 40
0.6079756939893626
 40
0.8225366130341312
 40
1.0
 40
1.0
 40
1.0
 40
1.0
 10
114.2508919158501
 20
152.6528510777458
 30
0.0
 10
114.2869930134294
 20
152.6658956291783
 30
0.0
 10
114.3591700473325
 20
152.6919756404281
 30
0.0
 10
114.4930280203787
 20
152.6685134494538
 30
0.0
 10
114.6286231940855
 20
152.6001424169145
 30
0.0
 10
114.7494730317667
 20
152.4960784113495
 30
0.0
 10
114.8095357409484
 20
152.4093145253556
 30
0.0
 10
114.8367252076174
 20
152.3700378457244
 30
0.0
  0
LINE
  5
1F7
330
1F
100
AcDbEntity
  8
0
  6
Continuous
 62
     8
370
    15
100
AcDbLine
 10
113.3935703579444
 20
152.1985970940781
 30
0.0
 11
114.2508919158501
 21
152.6528510777458
 31
0.0
  0
SPLINE
  5
1F8
330
1F
100
AcDbEntity
  8
0
  6
Continuous
 62
     8
370
    15
100
AcDbSpline
210
0.0
220
0.0
230
1.0
 70
     8
 71
     3
 72
    12
 73
     8
 74
     0
 42
0.000000001
 43
0.00000001
 40
0.0
 40
0.0
 40
0.0
 40
0.0
 40
0.2290128173908744
 40
0.4582385722315656
 40
0.6811613300930206
 40
0.8931631374526284
 40
1.0
 40
1.0
 40
1.0
 40
1.0
 10
113.3835611399675
 20
151.9567297807414
 30
0.0
 10
113.3719117603919
 20
151.978243929948
 30
0.0
 10
113.3486021695796
 20
152.0212922323422
 30
0.0
 10
113.3366329561372
 20
152.0882058563197
 30
0.0
 10
113.3445735273049
 20
152.1455921007556
 30
0.0
 10
113.3670079788404
 20
152.1817361213075
 30
0.0
 10
113.3869036810299
 20
152.1943652947545
 30
0.0
 10
113.3935703579444
 20
152.1985970940781
 30
0.0
  0
ARC
  5
1F9
330
1F
100
AcDbEntity
  8
0
  6
Continuous
 62
     8
370
    15
100
AcDbCircle
 10
87.12664265481654
 20
135.3957999933543
 30
0.0
 40
31.04335941483511
100
AcDbArc
 50
31.173291275753
 51
32.24070932009839
  0
SPLINE
  5
1FA
330
1F
100
AcDbEntity
  8
0
  6
Continuous
 62
     8
370
    15
100
AcDbSpline
210
0.0
220
0.0
230
1.0
 70
     8
 71
     3
 72
    12
 73
     8
 74
     0
 42
0.000000001
 43
0.00000001
 40
0.0
 40
0.0
 40
0.0
 40
0.0
 40
0.2018108950259611
 40
0.4034819085906866
 40
0.6092015461022495
 40
0.8242594994816022
 40
1.0
 40
1.0
 40
1.0
 40
1.0
 10
113.9180892047515
 20
151.3495580763014
 30
0.0
 10
113.9036988391976
 20
151.3443832205399
 30
0.0
 10
113.8749280825036
 20
151.3340370958717
 30
0.0
 10
113.8221892214379
 20
151.3440180716783
 30
0.0
 10
113.7689396798806
 20
151.3720912230314
 30
0.0
 10
113.7216677587221
 20
151.4142794600161
 30
0.0
 10
113.698110095675
 20
151.449072568067
 30
0.0
 10
113.687516308894
 20
151.4647188894955
 30
0.0
  0
LINE
  5
1FB
330
1F
100
AcDbEntity
  8
0
  6
Continuous
 62
     8
370
    15
100
AcDbLine
 10
113.9180892047515
 20
151.3495580763014
 30
0.0
 11
114.3467496544321
 21
151.5766923500654
 31
0.0
  0
SPLINE
  5
1FC
330
1F
100
AcDbEntity
  8
0
  6
Continuous
 62
     8
370
    15
100
AcDbSpline
210
0.0
220
0.0
230
1.0
 70
     8
 71
     3
 72
    12
 73
     8
 74
     0
 42
0.000000001
 43
0.00000001
 40
0.0
 40
0.0
 40
0.0
 40
0.0
 40
0.2278143564760232
 40
0.4557823307044522
 40
0.6787199302841797
 40
0.8914600799942693
 40
1.0
 40
1.0
 40
1.0
 40
1.0
 10
114.5758217273558
 20
151.461291687707
 30
0.0
 10
114.5620030699471
 20
151.4815642889935
 30
0.0
 10
114.5343564370553
 20
151.5221231616069
 30
0.0
 10
114.4786630333589
 20
151.5657476374369
 30
0.0
 10
114.4213940993062
 20
151.5887679433488
 30
0.0
 10
114.3761610753846
 20
151.5894173287035
 30
0.0
 10
114.3541767479917
 20
151.5799057142562
 30
0.0
 10
114.3467496544321
 20
151.5766923500654
 30
0.0
  0
ARC
  5
1FD
330
1F
100
AcDbEntity
  8
0
  6
Continuous
 62
     8
370
    15
100
AcDbCircle
 10
87.68826152953243
 20
135.6858776344539
 30
0.0
 40
31.17378036015447
100
AcDbArc
 50
23.75774214887566
 51
30.40091339275643
  0
SPLINE
  5
1FE
330
1F
100
AcDbEntity
  8
0
  6
Continuous
 62
     8
370
    15
100
AcDbSpline
210
0.0
220
0.0
230
1.0
 70
     8
 71
     3
 72
    12
 73
     8
 74
     0
 42
0.000000001
 43
0.00000001
 40
0.0
 40
0.0
 40
0.0
 40
0.0
 40
0.1787793873023057
 40
0.3930087097053552
 40
0.5976766130237481
 40
0.7985755216949347
 40
1.0
 40
1.0
 40
1.0
 40
1.0
 10
114.4719152577973
 20
152.0096947505805
 30
0.0
 10
114.4555982121202
 20
152.0334137948956
 30
0.0
 10
114.4197286347346
 20
152.0855551023603
 30
0.0
 10
114.3476464644417
 20
152.14781512955
 30
0.0
 10
114.2671565209346
 20
152.1885060870876
 30
0.0
 10
114.1877042159265
 20
152.2024193446444
 30
0.0
 10
114.1446636028207
 20
152.1868365541021
 30
0.0
 10
114.1231151835107
 20
152.1790349806487
 30
0.0
  0
ARC
  5
1FF
330
1F
100
AcDbEntity
  8
0
  6
Continuous
 62
     8
370
    15
100
AcDbCircle
 10
88.47317493506114
 20
136.1016510829486
 30
0.0
 40
30.47950707771288
100
AcDbArc
 50
23.8063336652556
 51
31.46152485341902
  0
LINE
  5
200
330
1F
100
AcDbEntity
  8
0
  6
Continuous
 62
     8
370
    15
100
AcDbLine
 10
114.3467496544321
 20
151.5766923500654
 30
0.0
 11
114.068523160888
 21
151.53178535353
 31
0.0
  0
LINE
  5
201
330
1F
100
AcDbEntity
  8
0
  6
Continuous
 62
     8
370
    15
100
AcDbLine
 10
114.1028260857643
 20
152.3972568339281
 30
0.0
 11
114.2508919158501
 21
152.6528510777458
 31
0.0
  0
ARC
  5
202
330
1F
100
AcDbEntity
  8
0
  6
Continuous
 62
     8
370
    15
100
AcDbCircle
 10
114.0605848020603
 20
151.7241029163788
 30
0.0
 40
0.1924813303179202
100
AcDbArc
 50
206.729051615155
 51
272.3636759717505
  0
ARC
  5
203
330
1F
100
AcDbEntity
  8
0
  6
Continuous
 62
     8
370
    15
100
AcDbCircle
 10
114.3028686707041
 20
152.3058016083912
 30
0.0
 40
0.2199570277745034
100
AcDbArc
 50
155.4311261082995
 51
215.192441777171
  0
LINE
  5
204
330
1F
100
AcDbEntity
  8
0
  6
Continuous
 62
     8
370
    15
100
AcDbLine
 10
116.7902085870396
 20
148.3209896685913
 30
0.0
 11
116.5636403003352
 21
148.2679986429282
 31
0.0
  0
LINE
  5
205
330
1F
100
AcDbEntity
  8
0
  6
Continuous
 62
     8
370
    15
100
AcDbLine
 10
116.6178826358242
 20
148.5191046474977
 30
0.0
 11
116.8326563903906
 21
148.5693330116957
 31
0.0
  0
ARC
  5
206
330
1F
100
AcDbEntity
  8
0
  6
Continuous
 62
     8
370
    15
100
AcDbCircle
 10
88.47902570330221
 20
136.1047792428437
 30
0.0
 40
30.75566199452673
100
AcDbArc
 50
23.80615455571032
 51
31.46159228938083
  0
LINE
  5
207
330
1F
100
AcDbEntity
  8
0
  6
Continuous
 62
     8
370
    15
100
AcDbLine
 10
114.8367252076174
 20
152.3700378457244
 30
0.0
 11
114.7133047471984
 21
152.1569861867056
 31
0.0
  0
SPLINE
  5
208
330
1F
100
AcDbEntity
  8
0
  6
Continuous
 62
     8
370
    15
100
AcDbSpline
210
0.0
220
0.0
230
1.0
 70
     8
 71
     3
 72
    12
 73
     8
 74
     0
 42
0.000000001
 43
0.00000001
 40
0.0
 40
0.0
 40
0.0
 40
0.0
 40
0.2039926010520157
 40
0.4064475384424243
 40
0.6110752914292
 40
0.8235484293586728
 40
1.0
 40
1.0
 40
1.0
 40
1.0
 10
114.1028260857643
 20
152.3972568339281
 30
0.0
 10
114.1389909712366
 20
152.4106825002887
 30
0.0
 10
114.2110481370478
 20
152.4374326324801
 30
0.0
 10
114.3477372823147
 20
152.4209510663402
 30
0.0
 10
114.4886871476247
 20
152.3631124980223
 30
0.0
 10
114.6174102184327
 20
152.2712166373226
 30
0.0
 10
114.6833764660894
 20
152.1926370322885
 30
0.0
 10
114.7133047471984
 20
152.1569861867056
 30
0.0
  0
ARC
  5
209
330
1F
100
AcDbEntity
  8
0
  6
Continuous
 62
     8
370
    15
100
AcDbCircle
 10
117.4619978896737
 20
146.2640544438144
 30
0.0
 40
2.407858380991967
100
AcDbArc
 50
110.521988224564
 51
117.2544854220107
  0
ARC
  5
20A
330
1F
100
AcDbEntity
  8
0
  6
Continuous
 62
     8
370
    15
100
AcDbCircle
 10
113.1419374231571
 20
154.4607842795498
 30
0.0
 40
2.788670098749038
100
AcDbArc
 50
298.484558503829
 51
304.2969926862982
  0
ARC
  5
20B
330
1F
100
AcDbEntity
  8
0
  6
Continuous
 62
     8
370
    15
100
AcDbCircle
 10
116.5492200812054
 20
148.4675171059812
 30
0.0
 40
0.2000388957646802
100
AcDbArc
 50
198.3334592641099
 51
274.1338708202588
  0
ARC
  5
20C
330
1F
100
AcDbEntity
  8
0
  6
Continuous
 62
     8
370
    15
100
AcDbCircle
 10
116.4327463829916
 20
148.4276850673602
 30
0.0
 40
0.2064775332703849
100
AcDbArc
 50
309.3412490165807
 51
26.27998537941957
  0
ARC
  5
20D
330
1F
100
AcDbEntity
  8
0
  6
Continuous
 62
     8
370
    15
100
AcDbCircle
 10
120.917959685552
 20
141.9695599068404
 30
0.0
 40
12.48450065594798
100
AcDbArc
 50
291.6191538022232
 51
335.5267121408035
  0
ARC
  5
20E
330
1F
100
AcDbEntity
  8
0
  6
Continuous
 62
     8
370
    15
100
AcDbCircle
 10
111.5634156061732
 20
159.5708435947338
 30
0.0
 40
12.55926546395558
100
AcDbArc
 50
80.93609036594106
 51
124.0623657771701
  0
ARC
  5
20F
330
1F
100
AcDbEntity
  8
0
  6
Continuous
 62
     8
370
    15
100
AcDbCircle
 10
140.081170832704
 20
152.4559166291914
 30
0.0
 40
12.78971101885181
100
AcDbArc
 50
298.67648029096
 51
333.8243349524671
  0
ARC
  5
210
330
1F
100
AcDbEntity
  8
0
  6
Continuous
 62
     8
370
    15
100
AcDbCircle
 10
117.9848676153679
 20
144.1417932478326
 30
0.0
 40
14.80512722590387
100
AcDbArc
 50
320.2251982837573
 51
349.2529588914844
  0
ARC
  5
211
330
1F
100
AcDbEntity
  8
0
  6
Continuous
 62
     8
370
    15
100
AcDbCircle
 10
111.4269627467452
 20
153.6962457532074
 30
0.0
 40
17.08310787702031
100
AcDbArc
 50
47.36544842168099
 51
93.94326367472884
  0
LINE
  5
212
330
1F
100
AcDbEntity
  8
0
  6
Continuous
 62
     8
370
    15
100
AcDbLine
 10
129.6815795302807
 20
135.2677644299883
 30
0.0
 11
130.4239712421088
 21
136.0815949242506
 31
0.0
  0
LWPOLYLINE
  5
213
330
1F
100
AcDbEntity
  8
0
  6
Continuous
 62
     8
370
    15
100
AcDbPolyline
 90
        3
 70
   128
 43
0.0
 10
112.0018779627559
 20
170.8221616693203
 10
111.0843218082469
 20
170.6958378962891
 10
110.9254625983114
 20
170.6662780295209
  0
LWPOLYLINE
  5
214
330
1F
100
AcDbEntity
  8
0
  6
Continuous
 62
     8
370
    15
100
AcDbPolyline
 90
        3
 70
   128
 43
0.0
 10
114.0990536135503
 20
169.9188865268523
 10
113.9975910026609
 20
170.0744219957141
 10
113.6547619514282
 20
170.584115314014
  0
LINE
  5
215
330
1F
100
AcDbEntity
  8
0
  6
Continuous
 62
     8
370
    15
100
AcDbLine
 10
130.0929182837678
 20
136.1535121572067
 30
0.0
 11
130.2714470657039
 21
136.0603967241432
 31
0.0
  0
LINE
  5
216
330
1F
100
AcDbEntity
  8
0
  6
Continuous
 62
     8
370
    15
100
AcDbLine
 10
130.4239712421088
 20
136.0815949242506
 30
0.0
 11
130.3872771421239
 21
136.0535027983382
 31
0.0
  0
SPLINE
  5
217
330
1F
100
AcDbEntity
  8
0
  6
Continuous
 62
     8
370
    15
100
AcDbSpline
210
0.0
220
0.0
230
1.0
 70
     8
 71
     3
 72
    11
 73
     7
 74
     0
 42
0.000000001
 43
0.00000001
 40
0.0
 40
0.0
 40
0.0
 40
0.0
 40
0.2709884722866079
 40
0.5316176277747233
 40
0.7708253183639352
 40
1.0
 40
1.0
 40
1.0
 40
1.0
 10
118.448440533343
 20
169.2606238340275
 30
0.0
 10
118.6309233417575
 20
169.0534414239366
 30
0.0
 10
118.9889130263384
 20
168.6469967495936
 30
0.0
 10
119.4238270481507
 20
167.986722188486
 30
0.0
 10
119.793191628494
 20
167.3316435197883
 30
0.0
 10
119.9493959441668
 20
166.8676811810574
 30
0.0
 10
120.0258251106712
 20
166.6406691763899
 30
0.0
  0
ARC
  5
218
330
1F
100
AcDbEntity
  8
0
  6
Continuous
 62
     8
370
    15
100
AcDbCircle
 10
97.74403581947394
 20
162.3357838449316
 30
0.0
 40
24.78083427451242
100
AcDbArc
 50
5.470855210648835
 51
10.81841326652808
  0
SPLINE
  5
219
330
1F
100
AcDbEntity
  8
0
  6
Continuous
 62
     8
370
    15
100
AcDbSpline
210
0.0
220
0.0
230
1.0
 70
     8
 71
     3
 72
     9
 73
     5
 74
     0
 42
0.000000001
 43
0.00000001
 40
0.0
 40
0.0
 40
0.0
 40
0.0
 40
0.3047919149984535
 40
1.0
 40
1.0
 40
1.0
 40
1.0
 10
120.0416163494281
 20
166.6281194414016
 30
0.0
 10
119.9608234787693
 20
166.8727381621449
 30
0.0
 10
119.6957479741935
 20
167.6753143090371
 30
0.0
 10
119.1997659291116
 20
168.318677078605
 30
0.0
 10
118.854955201355
 20
168.7659480775976
 30
0.0
  0
LINE
  5
21A
330
1F
100
AcDbEntity
  8
0
  6
Continuous
 62
     8
370
    15
100
AcDbLine
 10
132.4309159232335
 20
141.1272136517484
 30
0.0
 11
132.2462890191534
 21
141.1750418416996
 31
0.0
  0
LINE
  5
21B
330
1F
100
AcDbEntity
  8
0
  6
Continuous
 62
     8
370
    15
100
AcDbLine
 10
122.9588055300258
 20
163.313871749785
 30
0.0
 11
122.9517340790991
 21
163.3120415236086
 31
0.0
  0
ARC
  5
21C
330
1F
100
AcDbEntity
  8
0
  6
Continuous
 62
     8
370
    15
100
AcDbCircle
 10
124.9429277411441
 20
157.8734431965756
 30
0.0
 40
5.790941528907814
100
AcDbArc
 50
110.0368933461768
 51
111.3927062128843
  0
LINE
  5
21D
330
1F
100
AcDbEntity
  8
0
  6
Continuous
 62
     8
370
    15
100
AcDbLine
 10
122.8306340002539
 20
163.2654019263346
 30
0.0
 11
122.8235625493272
 21
163.2635717001583
 31
0.0
  0
ARC
  5
21E
330
1F
100
AcDbEntity
  8
0
  6
Continuous
 62
     8
370
    15
100
AcDbCircle
 10
124.9580461203501
 20
157.816405176418
 30
0.0
 40
5.850439577700418
100
AcDbArc
 50
111.3978330868872
 51
115.2573261871001
  0
LINE
  5
21F
330
1F
100
AcDbEntity
  8
0
  6
Continuous
 62
     8
370
    15
100
AcDbLine
 10
122.4688263548457
 20
163.109376434082
 30
0.0
 11
122.461754903919
 21
163.1075462079057
 31
0.0
  0
ARC
  5
220
330
1F
100
AcDbEntity
  8
0
  6
Continuous
 62
     8
370
    15
100
AcDbCircle
 10
125.0278678985811
 20
157.6876639103409
 30
0.0
 40
5.99530318771748
100
AcDbArc
 50
115.2672520128504
 51
120.5676044032503
  0
LINE
  5
221
330
1F
100
AcDbEntity
  8
0
  6
Continuous
 62
     8
370
    15
100
AcDbLine
 10
121.9789285099123
 20
162.8497980539755
 30
0.0
 11
121.9718570589855
 21
162.8479678277992
 31
0.0
  0
ARC
  5
222
330
1F
100
AcDbEntity
  8
0
  6
Continuous
 62
     8
370
    15
100
AcDbCircle
 10
125.1241815301182
 20
157.509230452116
 30
0.0
 40
6.199940833412671
100
AcDbArc
 50
120.5602596624572
 51
124.2741021974354
  0
LINE
  5
223
330
1F
100
AcDbEntity
  8
0
  6
Continuous
 62
     8
370
    15
100
AcDbLine
 10
121.6397402219919
 20
162.6343999205433
 30
0.0
 11
121.6326687710652
 21
162.632569694367
 31
0.0
  0
ARC
  5
224
330
1F
100
AcDbEntity
  8
0
  6
Continuous
 62
     8
370
    15
100
AcDbCircle
 10
125.1965605855039
 20
157.4129969635641
 30
0.0
 40
6.317754342916835
100
AcDbArc
 50
124.2626960550001
 51
125.5437608536371
  0
LINE
  5
225
330
1F
100
AcDbEntity
  8
0
  6
Continuous
 62
     8
370
    15
100
AcDbLine
 10
121.523894669776
 20
162.5535752392929
 30
0.0
 11
121.5168232188492
 21
162.5517450131165
 31
0.0
  0
ARC
  5
226
330
1F
100
AcDbEntity
  8
0
  6
Continuous
 62
     8
370
    15
100
AcDbCircle
 10
125.3336212861083
 20
157.2131954293724
 30
0.0
 40
6.562625933597556
100
AcDbArc
 50
125.5628867800126
 51
130.6983131228487
  0
LINE
  5
227
330
1F
100
AcDbEntity
  8
0
  6
Continuous
 62
     8
370
    15
100
AcDbLine
 10
121.0613613247827
 20
162.1905037037807
 30
0.0
 11
121.054289873856
 21
162.1886734776044
 31
0.0
  0
ARC
  5
228
330
1F
100
AcDbEntity
  8
0
  6
Continuous
 62
     8
370
    15
100
AcDbCircle
 10
125.5197792864467
 20
157.0027814899718
 30
0.0
 40
6.840318156967111
100
AcDbArc
 50
130.676331968422
 51
132.4962295364977
  0
LINE
  5
229
330
1F
100
AcDbEntity
  8
0
  6
Continuous
 62
     8
370
    15
100
AcDbLine
 10
120.8988592112652
 20
162.0462971434935
 30
0.0
 11
120.8917877603384
 21
162.0444669173172
 31
0.0
  0
ARC
  5
22A
330
1F
100
AcDbEntity
  8
0
  6
Continuous
 62
     8
370
    15
100
AcDbCircle
 10
125.7279821260465
 20
156.7703670604368
 30
0.0
 40
7.155760284082471
100
AcDbArc
 50
132.5199075474164
 51
137.3672676087683
  0
LINE
  5
22B
330
1F
100
AcDbEntity
  8
0
  6
Continuous
 62
     8
370
    15
100
AcDbLine
 10
120.470487204079
 20
161.618767842031
 30
0.0
 11
120.4634157531523
 21
161.6169376158547
 31
0.0
  0
ARC
  5
22C
330
1F
100
AcDbEntity
  8
0
  6
Continuous
 62
     8
370
    15
100
AcDbCircle
 10
125.9645223625952
 20
156.5560986416343
 30
0.0
 40
7.470946510025191
100
AcDbArc
 50
137.3399070452133
 51
138.4841115841306
  0
LINE
  5
22D
330
1F
100
AcDbEntity
  8
0
  6
Continuous
 62
     8
370
    15
100
AcDbLine
 10
120.3704872205419
 20
161.5080490235677
 30
0.0
 11
120.3634157696151
 21
161.5062187973913
 31
0.0
  0
ARC
  5
22E
330
1F
100
AcDbEntity
  8
0
  6
Continuous
 62
     8
370
    15
100
AcDbCircle
 10
126.2244763518341
 20
156.3227399794957
 30
0.0
 40
7.82435197342332
100
AcDbArc
 50
138.510692177925
 51
143.0778245673451
  0
LINE
  5
22F
330
1F
100
AcDbEntity
  8
0
  6
Continuous
 62
     8
370
    15
100
AcDbLine
 10
119.9763522837813
 20
161.0248907078667
 30
0.0
 11
119.9692808328546
 21
161.0230604816904
 31
0.0
  0
ARC
  5
230
330
1F
100
AcDbEntity
  8
0
  6
Continuous
 62
     8
370
    15
100
AcDbCircle
 10
126.5504806617828
 20
156.0801028605754
 30
0.0
 40
8.226183245294516
100
AcDbArc
 50
143.0510263653281
 51
144.6612945564756
  0
LINE
  5
231
330
1F
100
AcDbEntity
  8
0
  6
Continuous
 62
     8
370
    15
100
AcDbLine
 10
119.8399960335919
 20
160.8381998373066
 30
0.0
 11
119.8329245826652
 21
160.8363696111302
 31
0.0
  0
ARC
  5
232
330
1F
100
AcDbEntity
  8
0
  6
Continuous
 62
     8
370
    15
100
AcDbCircle
 10
126.9238126918516
 20
155.8128083943238
 30
0.0
 40
8.690043813238365
100
AcDbArc
 50
144.6842197564643
 51
148.9423021062959
  0
LINE
  5
233
330
1F
100
AcDbEntity
  8
0
  6
Continuous
 62
     8
370
    15
100
AcDbLine
 10
119.4865736354038
 20
160.2978408851538
 30
0.0
 11
119.4795021844771
 21
160.2960106589775
 31
0.0
  0
ARC
  5
234
330
1F
100
AcDbEntity
  8
0
  6
Continuous
 62
     8
370
    15
100
AcDbCircle
 10
127.2874505966923
 20
155.5949766629762
 30
0.0
 40
9.108820629335066
100
AcDbArc
 50
148.9157574870445
 51
149.9186190501903
  0
LINE
  5
235
330
1F
100
AcDbEntity
  8
0
  6
Continuous
 62
     8
370
    15
100
AcDbLine
 10
119.405457415633
 20
160.1605868906605
 30
0.0
 11
119.3983859647063
 21
160.1587566644841
 31
0.0
  0
ARC
  5
236
330
1F
100
AcDbEntity
  8
0
  6
Continuous
 62
     8
370
    15
100
AcDbCircle
 10
127.6855038812441
 20
155.3629985299481
 30
0.0
 40
9.57473860988229
100
AcDbArc
 50
149.9420179707155
 51
153.9340189870972
  0
LINE
  5
237
330
1F
100
AcDbEntity
  8
0
  6
Continuous
 62
     8
370
    15
100
AcDbLine
 10
119.0916965189827
 20
159.5720253391738
 30
0.0
 11
119.0846250680559
 21
159.5701951129974
 31
0.0
  0
ARC
  5
238
330
1F
100
AcDbEntity
  8
0
  6
Continuous
 62
     8
370
    15
100
AcDbCircle
 10
128.1431128957084
 20
155.1396551283544
 30
0.0
 40
10.07839491737741
100
AcDbArc
 50
153.909561798053
 51
155.3160405340088
  0
LINE
  5
239
330
1F
100
AcDbEntity
  8
0
  6
Continuous
 62
     8
370
    15
100
AcDbLine
 10
118.985630023438
 20
159.3485209559487
 30
0.0
 11
118.9785585725112
 21
159.3466907297724
 31
0.0
  0
ARC
  5
23A
330
1F
100
AcDbEntity
  8
0
  6
Continuous
 62
     8
370
    15
100
AcDbCircle
 10
128.6463631101126
 20
154.9070928081395
 30
0.0
 40
10.63844322647974
100
AcDbArc
 50
155.3347173607457
 51
159.0556366329204
  0
LINE
  5
23B
330
1F
100
AcDbEntity
  8
0
  6
Continuous
 62
     8
370
    15
100
AcDbLine
 10
118.7178948024505
 20
158.7117540834862
 30
0.0
 11
118.7108233515238
 21
158.7099238573099
 31
0.0
  0
ARC
  5
23C
330
1F
100
AcDbEntity
  8
0
  6
Continuous
 62
     8
370
    15
100
AcDbCircle
 10
129.1566819430485
 20
154.7120873373902
 30
0.0
 40
11.17880186095715
100
AcDbArc
 50
159.0354480396598
 51
159.9090412956639
  0
LINE
  5
23D
330
1F
100
AcDbEntity
  8
0
  6
Continuous
 62
     8
370
    15
100
AcDbLine
 10
118.6581272785396
 20
158.5521343426828
 30
0.0
 11
118.6510558276128
 21
158.5503041165065
 31
0.0
  0
ARC
  5
23E
330
1F
100
AcDbEntity
  8
0
  6
Continuous
 62
     8
370
    15
100
AcDbCircle
 10
129.5995786990236
 20
154.5501059420853
 30
0.0
 40
11.6564033260885
100
AcDbArc
 50
159.9295066671301
 51
163.4306909733714
  0
LINE
  5
23F
330
1F
100
AcDbEntity
  8
0
  6
Continuous
 62
     8
370
    15
100
AcDbLine
 10
118.434273512297
 20
157.8760509025731
 30
0.0
 11
118.4272020613703
 21
157.8742206763968
 31
0.0
  0
ARC
  5
240
330
1F
100
AcDbEntity
  8
0
  6
Continuous
 62
     8
370
    15
100
AcDbCircle
 10
130.1384115013458
 20
154.3893959816667
 30
0.0
 40
12.21243663664937
100
AcDbArc
 50
163.4112408400799
 51
164.6484427966442
  0
LINE
  5
241
330
1F
100
AcDbEntity
  8
0
  6
Continuous
 62
     8
370
    15
100
AcDbLine
 10
118.3617196882191
 20
157.6225273651414
 30
0.0
 11
118.3546482372924
 21
157.6206971389651
 31
0.0
  0
ARC
  5
242
330
1F
100
AcDbEntity
  8
0
  6
Continuous
 62
     8
370
    15
100
AcDbCircle
 10
130.6990150109502
 20
154.2351216548819
 30
0.0
 40
12.80021532635342
100
AcDbArc
 50
164.6631332970859
 51
167.9522967490408
  0
LINE
  5
243
330
1F
100
AcDbEntity
  8
0
  6
Continuous
 62
     8
370
    15
100
AcDbLine
 10
118.1878066447394
 20
156.9086896714975
 30
0.0
 11
118.1807351938127
 21
156.9068594453211
 31
0.0
  0
ARC
  5
244
330
1F
100
AcDbEntity
  8
0
  6
Continuous
 62
     8
370
    15
100
AcDbCircle
 10
131.1894923942124
 20
154.1296438513153
 30
0.0
 40
13.29537242798106
100
AcDbArc
 50
167.9348646169361
 51
168.7143312391697
  0
LINE
  5
245
330
1F
100
AcDbEntity
  8
0
  6
Continuous
 62
     8
370
    15
100
AcDbLine
 10
118.1512040824413
 20
156.7315596642985
 30
0.0
 11
118.1441326315145
 21
156.7297294381222
 31
0.0
  0
ARC
  5
246
330
1F
100
AcDbEntity
  8
0
  6
Continuous
 62
     8
370
    15
100
AcDbCircle
 10
131.7051711359173
 20
154.0268778476358
 30
0.0
 40
13.82776815101006
100
AcDbArc
 50
168.7280820225049
 51
171.8520917695785
  0
LINE
  5
247
330
1F
100
AcDbEntity
  8
0
  6
Continuous
 62
     8
370
    15
100
AcDbLine
 10
118.024058894285
 20
155.9885037868526
 30
0.0
 11
118.0169874433583
 21
155.9866735606762
 31
0.0
  0
ARC
  5
248
330
1F
100
AcDbEntity
  8
0
  6
Continuous
 62
     8
370
    15
100
AcDbCircle
 10
132.2640859177016
 20
153.9465039389335
 30
0.0
 40
14.38569195438777
100
AcDbArc
 50
171.8394975678406
 51
172.9479089136035
  0
LINE
  5
249
330
1F
100
AcDbEntity
  8
0
  6
Continuous
 62
     8
370
    15
100
AcDbLine
 10
117.9872225486865
 20
155.7126594669126
 30
0.0
 11
117.9801510977598
 21
155.7108292407363
 31
0.0
  0
ARC
  5
24A
330
1F
100
AcDbEntity
  8
0
  6
Continuous
 62
     8
370
    15
100
AcDbCircle
 10
132.7677844462027
 20
153.8844704962146
 30
0.0
 40
14.89998947354232
100
AcDbArc
 50
172.9592923674052
 51
175.9314700716404
  0
LINE
  5
24B
330
1F
100
AcDbEntity
  8
0
  6
Continuous
 62
     8
370
    15
100
AcDbLine
 10
117.9124158438467
 20
154.9434487603922
 30
0.0
 11
117.90534439292
 21
154.9416185342158
 31
0.0
  0
ARC
  5
24C
330
1F
100
AcDbEntity
  8
0
  6
Continuous
 62
     8
370
    15
100
AcDbCircle
 10
133.2327580471582
 20
153.8507201807108
 30
0.0
 40
15.35926238383274
100
AcDbArc
 50
175.9202681016115
 51
176.6277947304457
  0
LINE
  5
24D
330
1F
100
AcDbEntity
  8
0
  6
Continuous
 62
     8
370
    15
100
AcDbLine
 10
117.9000905248353
 20
154.7541844164856
 30
0.0
 11
117.8930190739086
 21
154.7523541903093
 31
0.0
  0
ARC
  5
24E
330
1F
100
AcDbEntity
  8
0
  6
Continuous
 62
     8
370
    15
100
AcDbCircle
 10
133.6520056892996
 20
153.82638683755
 30
0.0
 40
15.78616719417505
100
AcDbArc
 50
176.6372780019532
 51
179.4972788111596
  0
LINE
  5
24F
330
1F
100
AcDbEntity
  8
0
  6
Continuous
 62
     8
370
    15
100
AcDbLine
 10
117.8735175953937
 20
153.9667253269912
 30
0.0
 11
117.866446144467
 21
153.9648951008148
 31
0.0
  0
ARC
  5
250
330
1F
100
AcDbEntity
  8
0
  6
Continuous
 62
     8
370
    15
100
AcDbCircle
 10
134.0973696272531
 20
153.8218340004096
 30
0.0
 40
16.22449901378116
100
AcDbArc
 50
179.4883187552404
 51
180.5116812447604
  0
LINE
  5
251
330
1F
100
AcDbEntity
  8
0
  6
Continuous
 62
     8
370
    15
100
AcDbLine
 10
117.8735175953937
 20
153.6769426738281
 30
0.0
 11
117.866446144467
 21
153.6751124476518
 31
0.0
  0
ARC
  5
252
330
1F
100
AcDbEntity
  8
0
  6
Continuous
 62
     8
370
    15
100
AcDbCircle
 10
134.4928876896006
 20
153.8254942719993
 30
0.0
 40
16.62712161340135
100
AcDbArc
 50
180.5182112409035
 51
183.280919472903
  0
LINE
  5
253
330
1F
100
AcDbEntity
  8
0
  6
Continuous
 62
     8
370
    15
100
AcDbLine
 10
117.9000905248353
 20
152.8757284238863
 30
0.0
 11
117.8930190739086
 21
152.87389819771
 31
0.0
  0
ARC
  5
254
330
1F
100
AcDbEntity
  8
0
  6
Continuous
 62
     8
370
    15
100
AcDbCircle
 10
134.821968042496
 20
153.8436150161868
 30
0.0
 40
16.94953519062592
100
AcDbArc
 50
183.2736001017238
 51
183.9362419782911
  0
LINE
  5
255
330
1F
100
AcDbEntity
  8
0
  6
Continuous
 62
     8
370
    15
100
AcDbLine
 10
117.9124158438467
 20
152.6800912220938
 30
0.0
 11
117.90534439292
 21
152.6782609959174
 31
0.0
  0
ARC
  5
256
330
1F
100
AcDbEntity
  8
0
  6
Continuous
 62
     8
370
    15
100
AcDbCircle
 10
135.1065711859624
 20
153.8634779067557
 30
0.0
 40
17.24201097063264
100
AcDbArc
 50
183.9416237852964
 51
186.6381702530887
  0
LINE
  5
257
330
1F
100
AcDbEntity
  8
0
  6
Continuous
 62
     8
370
    15
100
AcDbLine
 10
117.9872225486865
 20
151.8721505190372
 30
0.0
 11
117.9801510977598
 21
151.8703202928609
 31
0.0
  0
ARC
  5
258
330
1F
100
AcDbEntity
  8
0
  6
Continuous
 62
     8
370
    15
100
AcDbCircle
 10
135.3759160945345
 20
153.8944049523883
 30
0.0
 40
17.50588975815354
100
AcDbArc
 50
186.6335332414573
 51
187.606252828902
  0
LINE
  5
259
330
1F
100
AcDbEntity
  8
0
  6
Continuous
 62
     8
370
    15
100
AcDbLine
 10
118.024058894285
 20
151.5772455002198
 30
0.0
 11
118.0169874433583
 21
151.5754152740435
 31
0.0
  0
ARC
  5
25A
330
1F
100
AcDbEntity
  8
0
  6
Continuous
 62
     8
370
    15
100
AcDbCircle
 10
135.5765403554937
 20
153.9211176658554
 30
0.0
 40
17.71553606823783
100
AcDbArc
 50
187.6088409770657
 51
190.25728122835
  0
LINE
  5
25B
330
1F
100
AcDbEntity
  8
0
  6
Continuous
 62
     8
370
    15
100
AcDbLine
 10
118.1512040824413
 20
150.7683672336897
 30
0.0
 11
118.1441326315145
 21
150.7665370075133
 31
0.0
  0
ARC
  5
25C
330
1F
100
AcDbEntity
  8
0
  6
Continuous
 62
     8
370
    15
100
AcDbCircle
 10
135.7350921529996
 20
153.9493765781632
 30
0.0
 40
17.86930161275344
100
AcDbArc
 50
190.2541787732607
 51
190.8937396149266
  0
LINE
  5
25D
330
1F
100
AcDbEntity
  8
0
  6
Continuous
 62
     8
370
    15
100
AcDbLine
 10
118.1878066447394
 20
150.5722903460461
 30
0.0
 11
118.1807351938127
 21
150.5704601198698
 31
0.0
  0
ARC
  5
25E
330
1F
100
AcDbEntity
  8
0
  6
Continuous
 62
     8
370
    15
100
AcDbCircle
 10
135.8139271777055
 20
153.9646041066929
 30
0.0
 40
17.95688372029256
100
AcDbArc
 50
190.8953830300708
 51
193.519867919026
  0
LINE
  5
25F
330
1F
100
AcDbEntity
  8
0
  6
Continuous
 62
     8
370
    15
100
AcDbLine
 10
118.3617196882191
 20
149.7684286367136
 30
0.0
 11
118.3546482372924
 21
149.7665984105373
 31
0.0
  0
ARC
  5
260
330
1F
100
AcDbEntity
  8
0
  6
Continuous
 62
     8
370
    15
100
AcDbCircle
 10
135.9021709802573
 20
153.985929950374
 30
0.0
 40
18.04036443254659
100
AcDbArc
 50
193.5198002550248
 51
194.4725604378334
  0
LINE
  5
261
330
1F
100
AcDbEntity
  8
0
  6
Continuous
 62
     8
370
    15
100
AcDbLine
 10
118.434273512297
 20
149.4773484763491
 30
0.0
 11
118.4272020613703
 21
149.4755182501728
 31
0.0
  0
ARC
  5
262
330
1F
100
AcDbEntity
  8
0
  6
Continuous
 62
     8
370
    15
100
AcDbCircle
 10
135.8449981471689
 20
153.9711880798774
 30
0.0
 40
17.98862606493828
100
AcDbArc
 50
194.4726216818954
 51
197.0941585025909
  0
LINE
  5
263
330
1F
100
AcDbEntity
  8
0
  6
Continuous
 62
     8
370
    15
100
AcDbLine
 10
118.6581272785396
 20
148.6853898001964
 30
0.0
 11
118.6510558276128
 21
148.6835595740201
 31
0.0
  0
ARC
  5
264
330
1F
100
AcDbEntity
  8
0
  6
Continuous
 62
     8
370
    15
100
AcDbCircle
 10
135.8234018175052
 20
153.9647523866814
 30
0.0
 40
17.95879504080497
100
AcDbArc
 50
197.0958364441019
 51
197.7329754831942
  0
LINE
  5
265
330
1F
100
AcDbEntity
  8
0
  6
Continuous
 62
     8
370
    15
100
AcDbLine
 10
118.7178948024505
 20
148.4948393091677
 30
0.0
 11
118.7108233515238
 21
148.4930090829913
 31
0.0
  0
ARC
  5
266
330
1F
100
AcDbEntity
  8
0
  6
Continuous
 62
     8
370
    15
100
AcDbCircle
 10
135.7046255747601
 20
153.9267838455206
 30
0.0
 40
17.84139070174657
100
AcDbArc
 50
197.7316971509627
 51
199.5672709894094
  0
LINE
  5
267
330
1F
100
AcDbEntity
  8
0
  6
Continuous
 62
     8
370
    15
100
AcDbLine
 10
118.900665928107
 20
147.9532935272763
 30
0.0
 11
118.8935944771803
 21
147.9514633010999
 31
0.0
  0
ARC
  5
268
330
1F
100
AcDbEntity
  8
0
  6
Continuous
 62
     8
370
    15
100
AcDbCircle
 10
135.5203985452461
 20
153.8598840782907
 30
0.0
 40
17.63812133427281
100
AcDbArc
 50
199.5650219865729
 51
202.1460097052364
  0
LINE
  5
269
330
1F
100
AcDbEntity
  8
0
  6
Continuous
 62
     8
370
    15
100
AcDbLine
 10
119.1835081601076
 20
147.2108738702599
 30
0.0
 11
119.1764367091809
 21
147.2090436440836
 31
0.0
  0
ARC
  5
26A
330
1F
100
AcDbEntity
  8
0
  6
Continuous
 62
     8
370
    15
100
AcDbCircle
 10
135.2440126251056
 20
153.7490942207219
 30
0.0
 40
17.34760091075974
100
AcDbArc
 50
202.1479970497552
 51
204.0178206087745
  0
LINE
  5
26B
330
1F
100
AcDbEntity
  8
0
  6
Continuous
 62
     8
370
    15
100
AcDbLine
 10
119.405457415633
 20
146.690090707301
 30
0.0
 11
119.3983859647063
 21
146.6882604811247
 31
0.0
  0
ARC
  5
26C
330
1F
100
AcDbEntity
  8
0
  6
Continuous
 62
     8
370
    15
100
AcDbCircle
 10
135.0403236115916
 20
153.6576623382686
 30
0.0
 40
17.11712871360709
100
AcDbArc
 50
204.0198172982771
 51
204.6783745805091
  0
LINE
  5
26D
330
1F
100
AcDbEntity
  8
0
  6
Continuous
 62
     8
370
    15
100
AcDbLine
 10
119.4865736354038
 20
146.5108478677209
 30
0.0
 11
119.4795021844771
 21
146.5090176415445
 31
0.0
  0
ARC
  5
26E
330
1F
100
AcDbEntity
  8
0
  6
Continuous
 62
     8
370
    15
100
AcDbCircle
 10
134.7824962100659
 20
153.5384435734282
 30
0.0
 40
16.84026291597154
100
AcDbArc
 50
204.6716710416272
 51
207.4108871667174
  0
LINE
  5
26F
330
1F
100
AcDbEntity
  8
0
  6
Continuous
 62
     8
370
    15
100
AcDbLine
 10
119.8399960335919
 20
145.7875476186885
 30
0.0
 11
119.8329245826652
 21
145.7857173925122
 31
0.0
  0
ARC
  5
270
330
1F
100
AcDbEntity
  8
0
  6
Continuous
 62
     8
370
    15
100
AcDbCircle
 10
134.4167207264594
 20
153.3484965874567
 30
0.0
 40
16.42098815784153
100
AcDbArc
 50
207.4157754688168
 51
208.4317512231787
  0
LINE
  5
271
330
1F
100
AcDbEntity
  8
0
  6
Continuous
 62
     8
370
    15
100
AcDbLine
 10
119.9763522837813
 20
145.5302735591928
 30
0.0
 11
119.9692808328546
 21
145.5284433330165
 31
0.0
  0
ARC
  5
272
330
1F
100
AcDbEntity
  8
0
  6
Continuous
 62
     8
370
    15
100
AcDbCircle
 10
134.0744442921815
 20
153.1618852587118
 30
0.0
 40
16.03823780367704
100
AcDbArc
 50
208.4213956873118
 51
211.2517309103596
  0
LINE
  5
273
330
1F
100
AcDbEntity
  8
0
  6
Continuous
 62
     8
370
    15
100
AcDbLine
 10
120.3704872205419
 20
144.8430923891899
 30
0.0
 11
120.3634157696151
 21
144.8412621630136
 31
0.0
  0
ARC
  5
274
330
1F
100
AcDbEntity
  8
0
  6
Continuous
 62
     8
370
    15
100
AcDbCircle
 10
133.7258648613125
 20
152.9506503146984
 30
0.0
 40
15.62365538032223
100
AcDbArc
 50
211.2603956875684
 51
211.9600716280617
  0
LINE
  5
275
330
1F
100
AcDbEntity
  8
0
  6
Continuous
 62
     8
370
    15
100
AcDbLine
 10
120.470487204079
 20
144.6806097702278
 30
0.0
 11
120.4634157531523
 21
144.6787795440515
 31
0.0
  0
ARC
  5
276
330
1F
100
AcDbEntity
  8
0
  6
Continuous
 62
     8
370
    15
100
AcDbCircle
 10
133.3520126048818
 20
152.7163889045561
 30
0.0
 40
15.18944018186592
100
AcDbArc
 50
211.9485622358304
 51
214.883006670608
  0
LINE
  5
277
330
1F
100
AcDbEntity
  8
0
  6
Continuous
 62
     8
370
    15
100
AcDbLine
 10
120.8988592112652
 20
144.0313388010682
 30
0.0
 11
120.8917877603384
 21
144.0295085748918
 31
0.0
  0
ARC
  5
278
330
1F
100
AcDbEntity
  8
0
  6
Continuous
 62
     8
370
    15
100
AcDbCircle
 10
132.9399270583026
 20
152.4291897805876
 30
0.0
 40
14.68030026842685
100
AcDbArc
 50
214.8932321860912
 51
215.9870278142601
  0
LINE
  5
279
330
1F
100
AcDbEntity
  8
0
  6
Continuous
 62
     8
370
    15
100
AcDbLine
 10
121.0613613247827
 20
143.8030149570855
 30
0.0
 11
121.054289873856
 21
143.8011847309092
 31
0.0
  0
ARC
  5
27A
330
1F
100
AcDbEntity
  8
0
  6
Continuous
 62
     8
370
    15
100
AcDbCircle
 10
132.5039880984164
 20
152.1122677525236
 30
0.0
 40
14.14813381424096
100
AcDbArc
 50
215.9750685789693
 51
219.051452981397
  0
LINE
  5
27B
330
1F
100
AcDbEntity
  8
0
  6
Continuous
 62
     8
370
    15
100
AcDbLine
 10
121.523894669776
 20
143.2005185442149
 30
0.0
 11
121.5168232188492
 21
143.1986883180386
 31
0.0
  0
ARC
  5
27C
330
1F
100
AcDbEntity
  8
0
  6
Continuous
 62
     8
370
    15
100
AcDbCircle
 10
132.1341047065951
 20
151.8127641122004
 30
0.0
 40
13.66555270556973
100
AcDbArc
 50
219.066036684457
 51
219.830477227294
  0
LINE
  5
27D
330
1F
100
AcDbEntity
  8
0
  6
Continuous
 62
     8
370
    15
100
AcDbLine
 10
121.6397402219919
 20
143.0597277925566
 30
0.0
 11
121.6326687710652
 21
143.0578975663803
 31
0.0
  0
ARC
  5
27E
330
1F
100
AcDbEntity
  8
0
  6
Continuous
 62
     8
370
    15
100
AcDbCircle
 10
131.7202484701839
 20
151.4673141233272
 30
0.0
 40
13.13307089047819
100
AcDbArc
 50
219.8159612975449
 51
223.0488810967774
  0
LINE
  5
27F
330
1F
100
AcDbEntity
  8
0
  6
Continuous
 62
     8
370
    15
100
AcDbLine
 10
122.1300447181591
 20
142.5042204963336
 30
0.0
 11
122.1229732672323
 21
142.5023902701573
 31
0.0
  0
ARC
  5
280
330
1F
100
AcDbEntity
  8
0
  6
Continuous
 62
     8
370
    15
100
AcDbCircle
 10
131.3268853112872
 20
151.1003809001451
 30
0.0
 40
12.58871917962533
100
AcDbArc
 50
223.066465916052
 51
224.2773571147796
  0
LINE
  5
281
330
1F
100
AcDbEntity
  8
0
  6
Continuous
 62
     8
370
    15
100
AcDbLine
 10
122.3137565746452
 20
142.3117882391905
 30
0.0
 11
122.3066851237185
 21
142.3099580130142
 31
0.0
  0
ARC
  5
282
330
1F
100
AcDbEntity
  8
0
  6
Continuous
 62
     8
370
    15
100
AcDbCircle
 10
130.8935052010039
 20
150.6780745371958
 30
0.0
 40
11.989948006641
100
AcDbArc
 50
224.2609765560054
 51
227.6963972782915
  0
LINE
  5
283
330
1F
100
AcDbEntity
  8
0
  6
Continuous
 62
     8
370
    15
100
AcDbLine
 10
122.8306340002539
 20
141.8122738057486
 30
0.0
 11
122.8235625493272
 21
141.8104435795723
 31
0.0
  0
ARC
  5
284
330
1F
100
AcDbEntity
  8
0
  6
Continuous
 62
     8
370
    15
100
AcDbCircle
 10
130.5350795530445
 20
150.2842085427956
 30
0.0
 40
11.45129509988704
100
AcDbArc
 50
227.7163641820832
 51
228.5773391918259
  0
LINE
  5
285
330
1F
100
AcDbEntity
  8
0
  6
Continuous
 62
     8
370
    15
100
AcDbLine
 10
122.9588055300258
 20
141.6974611147627
 30
0.0
 11
122.9517340790991
 21
141.6956308885864
 31
0.0
  0
ARC
  5
286
330
1F
100
AcDbEntity
  8
0
  6
Continuous
 62
     8
370
    15
100
AcDbCircle
 10
130.2024328048127
 20
149.9065120993608
 30
0.0
 40
10.95404958307716
100
AcDbArc
 50
228.5535724878582
 51
232.2030135408883
  0
LINE
  5
287
330
1F
100
AcDbEntity
  8
0
  6
Continuous
 62
     8
370
    15
100
AcDbLine
 10
123.4961452505866
 20
141.2525920324402
 30
0.0
 11
123.4890737996599
 21
141.2507618062639
 31
0.0
  0
ARC
  5
288
330
1F
100
AcDbEntity
  8
0
  6
Continuous
 62
     8
370
    15
100
AcDbCircle
 10
129.8704214321328
 20
149.4770742218489
 30
0.0
 40
10.4054554980802
100
AcDbArc
 50
232.2229991959694
 51
233.5990177767283
  0
LINE
  5
289
330
1F
100
AcDbEntity
  8
0
  6
Continuous
 62
     8
370
    15
100
AcDbLine
 10
123.6954840389749
 20
141.1018934886881
 30
0.0
 11
123.6884125880482
 21
141.1000632625118
 31
0.0
  0
ARC
  5
28A
330
1F
100
AcDbEntity
  8
0
  6
Continuous
 62
     8
370
    15
100
AcDbCircle
 10
129.5504951536065
 20
149.0441609568964
 30
0.0
 40
9.872826352334474
100
AcDbArc
 50
233.5757634075858
 51
237.486925364315
  0
LINE
  5
28B
330
1F
100
AcDbEntity
  8
0
  6
Continuous
 62
     8
370
    15
100
AcDbLine
 10
124.251000905045
 20
140.7205446088423
 30
0.0
 11
124.2439294541183
 21
140.718714382666
 31
0.0
  0
ARC
  5
28C
330
1F
100
AcDbEntity
  8
0
  6
Continuous
 62
     8
370
    15
100
AcDbCircle
 10
129.2983574334793
 20
148.6460826425497
 30
0.0
 40
9.396273785329475
100
AcDbArc
 50
237.5090926740839
 51
238.491314619124
  0
LINE
  5
28D
330
1F
100
AcDbEntity
  8
0
  6
Continuous
 62
     8
370
    15
100
AcDbLine
 10
124.3876034508804
 20
140.6351865396621
 30
0.0
 11
124.3805319999537
 21
140.6333563134858
 31
0.0
  0
ARC
  5
28E
330
1F
100
AcDbEntity
  8
0
  6
Continuous
 62
     8
370
    15
100
AcDbCircle
 10
129.0653471325277
 20
148.2680260395206
 30
0.0
 40
8.957436834944813
100
AcDbArc
 50
238.4657305753916
 51
242.6392131610018
  0
LINE
  5
28F
330
1F
100
AcDbEntity
  8
0
  6
Continuous
 62
     8
370
    15
100
AcDbLine
 10
124.9556517603929
 20
140.3144866591628
 30
0.0
 11
124.9485803094662
 21
140.3126564329865
 31
0.0
  0
ARC
  5
290
330
1F
100
AcDbEntity
  8
0
  6
Continuous
 62
     8
370
    15
100
AcDbCircle
 10
128.8472790257075
 20
147.8413935416111
 30
0.0
 40
8.473434368022673
100
AcDbArc
 50
242.6597363562875
 51
244.2389289238213
  0
LINE
  5
291
330
1F
100
AcDbEntity
  8
0
  6
Continuous
 62
     8
370
    15
100
AcDbLine
 10
125.1645610114796
 20
140.2100975824133
 30
0.0
 11
125.1574895605529
 21
140.2082673562369
 31
0.0
  0
ARC
  5
292
330
1F
100
AcDbEntity
  8
0
  6
Continuous
 62
     8
370
    15
100
AcDbCircle
 10
128.6652103701705
 20
147.4683000440575
 30
0.0
 40
8.063013078647964
100
AcDbArc
 50
244.2122586937227
 51
248.68821977527
  0
LINE
  5
293
330
1F
100
AcDbEntity
  8
0
  6
Continuous
 62
     8
370
    15
100
AcDbLine
 10
125.7418379167728
 20
139.9584940683098
 30
0.0
 11
125.7347664658461
 21
139.9566638421335
 31
0.0
  0
ARC
  5
294
330
1F
100
AcDbEntity
  8
0
  6
Continuous
 62
     8
370
    15
100
AcDbCircle
 10
128.5436357492
 20
147.1518938567382
 30
0.0
 40
7.719784427686766
100
AcDbArc
 50
248.7193034466174
 51
249.8372682501242
  0
LINE
  5
295
330
1F
100
AcDbEntity
  8
0
  6
Continuous
 62
     8
370
    15
100
AcDbLine
 10
125.8827211665461
 20
139.9051976996074
 30
0.0
 11
125.8756497156194
 21
139.903367473431
 31
0.0
  0
ARC
  5
296
330
1F
100
AcDbEntity
  8
0
  6
Continuous
 62
     8
370
    15
100
AcDbCircle
 10
128.4133126981231
 20
146.8043727882479
 30
0.0
 40
7.352795915017629
100
AcDbArc
 50
249.8103303838077
 51
254.571012153658
  0
LINE
  5
297
330
1F
100
AcDbEntity
  8
0
  6
Continuous
 62
     8
370
    15
100
AcDbLine
 10
126.464218004467
 20
139.7183950470278
 30
0.0
 11
126.4571465535402
 21
139.7165648208515
 31
0.0
  0
ARC
  5
298
330
1F
100
AcDbEntity
  8
0
  6
Continuous
 62
     8
370
    15
100
AcDbCircle
 10
128.3281994258294
 20
146.4830066783076
 30
0.0
 40
7.016722686641501
100
AcDbArc
 50
254.5945133607183
 51
256.3838492411418
  0
LINE
  5
299
330
1F
100
AcDbEntity
  8
0
  6
Continuous
 62
     8
370
    15
100
AcDbLine
 10
126.6763500488987
 20
139.6634912338524
 30
0.0
 11
126.669278597972
 21
139.661661007676
 31
0.0
  0
ARC
  5
29A
330
1F
100
AcDbEntity
  8
0
  6
Continuous
 62
     8
370
    15
100
AcDbCircle
 10
128.2531620618931
 20
146.1889649431895
 30
0.0
 40
6.716724163895101
100
AcDbArc
 50
256.3605138795838
 51
261.4172631180935
  0
LINE
  5
29B
330
1F
100
AcDbEntity
  8
0
  6
Continuous
 62
     8
370
    15
100
AcDbLine
 10
127.2578468868195
 20
139.5492889737903
 30
0.0
 11
127.2507754358927
 21
139.547458747614
 31
0.0
  0
ARC
  5
29C
330
1F
100
AcDbEntity
  8
0
  6
Continuous
 62
     8
370
    15
100
AcDbCircle
 10
128.2254381537747
 20
145.9782042843057
 30
0.0
 40
6.50132178327355
100
AcDbArc
 50
261.4408746056522
 51
262.6944903183899
  0
LINE
  5
29D
330
1F
100
AcDbEntity
  8
0
  6
Continuous
 62
     8
370
    15
100
AcDbLine
 10
127.3987301365929
 20
139.5296588061382
 30
0.0
 11
127.3916586856661
 21
139.5278285799619
 31
0.0
  0
ARC
  5
29E
330
1F
100
AcDbEntity
  8
0
  6
Continuous
 62
     8
370
    15
100
AcDbCircle
 10
128.1913083962206
 20
145.7518637955944
 30
0.0
 40
6.275193544825844
100
AcDbArc
 50
262.6788764931464
 51
267.9691954896318
  0
LINE
  5
29F
330
1F
100
AcDbEntity
  8
0
  6
Continuous
 62
     8
370
    15
100
AcDbLine
 10
127.976007041886
 20
139.4824418054662
 30
0.0
 11
127.9689355909593
 21
139.4806115792899
 31
0.0
  0
ARC
  5
2A0
330
1F
100
AcDbEntity
  8
0
  6
Continuous
 62
     8
370
    15
100
AcDbCircle
 10
128.189369185946
 20
145.5472102462454
 30
0.0
 40
6.068520383486321
100
AcDbArc
 50
267.9851315338747
 51
269.9579581214593
  0
LINE
  5
2A1
330
1F
100
AcDbEntity
  8
0
  6
Continuous
 62
     8
370
    15
100
AcDbLine
 10
128.1849162929727
 20
139.478691496457
 30
0.0
 11
128.177844842046
 21
139.4768612702807
 31
0.0
  0
ARC
  5
2A2
330
1F
100
AcDbEntity
  8
0
  6
Continuous
 62
     8
370
    15
100
AcDbCircle
 10
128.1839247874526
 20
145.4131764908898
 30
0.0
 40
5.93631833413362
100
AcDbArc
 50
269.9413179595906
 51
275.432104652776
  0
LINE
  5
2A3
330
1F
100
AcDbEntity
  8
0
  6
Continuous
 62
     8
370
    15
100
AcDbLine
 10
128.7529646024853
 20
139.5053479348761
 30
0.0
 11
128.7458931515585
 21
139.5035177086998
 31
0.0
  0
ARC
  5
2A4
330
1F
100
AcDbEntity
  8
0
  6
Continuous
 62
     8
370
    15
100
AcDbCircle
 10
128.1997314612825
 20
145.3091441413903
 30
0.0
 40
5.83010440003207
100
AcDbArc
 50
275.4451321640263
 51
276.7953304312858
  0
LINE
  5
2A5
330
1F
100
AcDbEntity
  8
0
  6
Continuous
 62
     8
370
    15
100
AcDbLine
 10
128.8895671483206
 20
139.5199953231129
 30
0.0
 11
128.8824956973939
 21
139.5181650969366
 31
0.0
  0
ARC
  5
2A6
330
1F
100
AcDbEntity
  8
0
  6
Continuous
 62
     8
370
    15
100
AcDbCircle
 10
128.2003233122237
 20
145.2505853123603
 30
0.0
 40
5.772867631367165
100
AcDbArc
 50
276.786426033135
 51
282.3801911360923
  0
LINE
  5
2A7
330
1F
100
AcDbEntity
  8
0
  6
Continuous
 62
     8
370
    15
100
AcDbLine
 10
129.4450840143907
 20
139.6137875133295
 30
0.0
 11
129.438012563464
 21
139.6119572871532
 31
0.0
  0
ARC
  5
2A8
330
1F
100
AcDbEntity
  8
0
  6
Continuous
 62
     8
370
    15
100
AcDbCircle
 10
128.2144374720254
 20
145.2188057450925
 30
0.0
 40
5.738529453669382
100
AcDbArc
 50
282.3834552339958
 51
284.4295978723818
  0
LINE
  5
2A9
330
1F
100
AcDbEntity
  8
0
  6
Continuous
 62
     8
370
    15
100
AcDbLine
 10
129.644422802779
 20
139.6613007073565
 30
0.0
 11
129.6373513518523
 21
139.6594704811802
 31
0.0
  0
ARC
  5
2AA
330
1F
100
AcDbEntity
  8
0
  6
Continuous
 62
     8
370
    15
100
AcDbCircle
 10
128.2045100899875
 20
145.2267616344522
 30
0.0
 40
5.748718541292732
100
AcDbArc
 50
284.4328593307669
 51
290.042467631805
  0
LINE
  5
2AB
330
1F
100
AcDbEntity
  8
0
  6
Continuous
 62
     8
370
    15
100
AcDbLine
 10
130.1817625233398
 20
139.8280222829366
 30
0.0
 11
130.1746910724131
 21
139.8261920567602
 31
0.0
  0
ARC
  5
2AC
330
1F
100
AcDbEntity
  8
0
  6
Continuous
 62
     8
370
    15
100
AcDbCircle
 10
128.2006112588068
 20
145.2609943324816
 30
0.0
 40
5.782918434847377
100
AcDbArc
 50
290.0345517851015
 51
291.3922331537264
  0
ARC
  5
2AD
330
1F
100
AcDbEntity
  8
0
  6
Continuous
 62
     8
370
    15
100
AcDbCircle
 10
128.1663257719516
 20
145.3265861101067
 30
0.0
 40
5.855621800577132
100
AcDbArc
 50
291.3995415570022
 51
295.2556177170056
  0
LINE
  5
2AE
330
1F
100
AcDbEntity
  8
0
  6
Continuous
 62
     8
370
    15
100
AcDbLine
 10
130.67174169852
 20
140.0325140002854
 30
0.0
 11
130.6646702475932
 21
140.0306837741091
 31
0.0
  0
ARC
  5
2AF
330
1F
100
AcDbEntity
  8
0
  6
Continuous
 62
     8
370
    15
100
AcDbCircle
 10
128.1130338659991
 20
145.4535251672287
 30
0.0
 40
5.994526490418284
100
AcDbArc
 50
295.2672289199894
 51
300.5682846755366
  0
ARC
  5
2B0
330
1F
100
AcDbEntity
  8
0
  6
Continuous
 62
     8
370
    15
100
AcDbCircle
 10
128.0017962985324
 20
145.6297931309844
 30
0.0
 40
6.200848539502136
100
AcDbArc
 50
300.5601073417602
 51
304.2733882053379
  0
LINE
  5
2B1
330
1F
100
AcDbEntity
  8
0
  6
Continuous
 62
     8
370
    15
100
AcDbLine
 10
131.5008278313737
 20
140.5074905138241
 30
0.0
 11
131.493756380447
 21
140.5056602876478
 31
0.0
  0
ARC
  5
2B2
330
1F
100
AcDbEntity
  8
0
  6
Continuous
 62
     8
370
    15
100
AcDbCircle
 10
127.9227524023511
 20
145.7593582343276
 30
0.0
 40
6.354898766262228
100
AcDbArc
 50
304.266440125541
 51
305.5400167831294
  0
ARC
  5
2B3
330
1F
100
AcDbEntity
  8
0
  6
Continuous
 62
     8
370
    15
100
AcDbCircle
 10
127.7904910566211
 20
145.9279809449596
 30
0.0
 40
6.566367880783167
100
AcDbArc
 50
305.5643510109638
 51
310.6968488918923
  0
LINE
  5
2B4
330
1F
100
AcDbEntity
  8
0
  6
Continuous
 62
     8
370
    15
100
AcDbLine
 10
132.0792067285829
 20
140.9513867305867
 30
0.0
 11
132.0721352776562
 21
140.9495565044104
 31
0.0
  0
ARC
  5
2B5
330
1F
100
AcDbEntity
  8
0
  6
Continuous
 62
     8
370
    15
100
AcDbCircle
 10
127.6207887667463
 20
146.1391089445897
 30
0.0
 40
6.84031815722681
100
AcDbArc
 50
310.67633196846
 51
312.4962295364666
  0
ARC
  5
2B6
330
1F
100
AcDbEntity
  8
0
  6
Continuous
 62
     8
370
    15
100
AcDbCircle
 10
127.3977720585134
 20
146.368535211077
 30
0.0
 40
7.156709260722577
100
AcDbArc
 50
312.5202291181632
 51
317.3669460380281
  0
LINE
  5
2B7
330
1F
100
AcDbEntity
  8
0
  6
Continuous
 62
     8
370
    15
100
AcDbLine
 10
132.6700808492866
 20
141.5231225923363
 30
0.0
 11
132.6630093983598
 21
141.52129236616
 31
0.0
  0
ARC
  5
2B8
330
1F
100
AcDbEntity
  8
0
  6
Continuous
 62
     8
370
    15
100
AcDbCircle
 10
127.1760456905262
 20
146.5857917929524
 30
0.0
 40
7.47094651035342
100
AcDbArc
 50
317.3399070452463
 51
318.4841115841136
  0
ARC
  5
2B9
330
1F
100
AcDbEntity
  8
0
  6
Continuous
 62
     8
370
    15
100
AcDbCircle
 10
126.9032168317746
 20
146.8144206111905
 30
0.0
 40
7.822693666189474
100
AcDbArc
 50
318.5104066233174
 51
323.0785281359176
  0
LINE
  5
2BA
330
1F
100
AcDbEntity
  8
0
  6
Continuous
 62
     8
370
    15
100
AcDbLine
 10
133.1642157695844
 20
142.1170033248548
 30
0.0
 11
133.1571443186577
 21
142.1151730986785
 31
0.0
  0
ARC
  5
2BB
330
1F
100
AcDbEntity
  8
0
  6
Continuous
 62
     8
370
    15
100
AcDbCircle
 10
126.595737389582
 20
147.0576644971855
 30
0.0
 40
8.219187371530992
100
AcDbArc
 50
323.0503410192661
 51
324.66197990255
  0
LWPOLYLINE
  5
2BC
330
1F
100
AcDbEntity
  8
0
  6
Continuous
 62
     8
370
    15
100
AcDbPolyline
 90
        3
 70
   128
 43
0.0
 10
133.293500568847
 20
142.3018639692387
 10
133.3393602912939
 20
142.3671864920277
 10
133.375051427993
 20
142.4189482449764
  0
LWPOLYLINE
  5
2BD
330
1F
100
AcDbEntity
  8
0
  6
Continuous
 62
     8
370
    15
100
AcDbPolyline
 90
       26
 70
   128
 43
0.0
 10
122.4206304457567
 20
163.20223217476
 10
122.1819060859794
 20
163.1349096401439
 10
121.1605170542607
 20
162.7128065605024
 10
120.2135053563625
 20
162.0951122688439
 10
119.3570925898777
 20
161.2924103454519
 10
118.6059481629941
 20
160.3184532411003
 10
117.9729400353974
 20
159.1899209299546
 10
117.4689111424117
 20
157.9261405299772
 10
117.102494343992
 20
156.5487743622404
 10
116.8799662278441
 20
155.0814007984923
 10
116.8051397666691
 20
153.5491570196157
 10
116.879295829535
 20
151.9783033491724
 10
117.1011647426304
 20
150.3957314529636
 10
117.4669453870553
 20
148.8285563804981
 10
117.9703717118162
 20
147.3036243674196
 10
118.6028213936702
 20
145.847060106485
 10
119.3534607169162
 20
144.4838046441297
 10
120.2094306122193
 20
143.2372145913746
 10
121.156069573926
 20
142.1286445931682
 10
122.1771616020717
 20
141.1770880912356
 10
123.2552160837966
 20
140.3988314105261
 10
124.3717665255982
 20
139.8072181140355
 10
125.5076868437694
 20
139.4123800264034
 10
126.6435191973724
 20
139.2210804174138
 10
127.7598072091876
 20
139.2365917745259
 10
128.5844753315733
 20
139.3869599524715
  0
LINE
  5
2BE
330
1F
100
AcDbEntity
  8
0
  6
Continuous
 62
     8
370
    15
100
AcDbLine
 10
119.8329245826652
 20
145.7857173925122
 30
0.0
 11
121.1324498873305
 21
146.9389285712024
 31
0.0
  0
LINE
  5
2BF
330
1F
100
AcDbEntity
  8
0
  6
Continuous
 62
     8
370
    15
100
AcDbLine
 10
119.3983859647063
 20
146.6882604811247
 30
0.0
 11
120.093224177613
 21
147.1730391224226
 31
0.0
  0
LINE
  5
2C0
330
1F
100
AcDbEntity
  8
0
  6
Continuous
 62
     8
370
    15
100
AcDbLine
 10
121.216625375613
 20
149.1823350505984
 30
0.0
 11
118.8935944771803
 21
147.9514633010999
 31
0.0
  0
LINE
  5
2C1
330
1F
100
AcDbEntity
  8
0
  6
Continuous
 62
     8
370
    15
100
AcDbLine
 10
118.6510558276128
 20
148.6835595740201
 30
0.0
 11
119.4198229055301
 21
148.9742880237975
 31
0.0
  0
LINE
  5
2C2
330
1F
100
AcDbEntity
  8
0
  6
Continuous
 62
     8
370
    15
100
AcDbLine
 10
120.0213051904407
 20
149.8555074767163
 30
0.0
 11
118.4272020613703
 21
149.4755182501728
 31
0.0
  0
LINE
  5
2C3
330
1F
100
AcDbEntity
  8
0
  6
Continuous
 62
     8
370
    15
100
AcDbLine
 10
119.0000725630425
 20
150.6583012292684
 30
0.0
 11
118.1807351938127
 21
150.5704601198698
 31
0.0
  0
LINE
  5
2C4
330
1F
100
AcDbEntity
  8
0
  6
Continuous
 62
     8
370
    15
100
AcDbLine
 10
119.6876246395129
 20
151.5454192936025
 30
0.0
 11
118.0169874433583
 21
151.5754152740435
 31
0.0
  0
LINE
  5
2C5
330
1F
100
AcDbEntity
  8
0
  6
Continuous
 62
     8
370
    15
100
AcDbLine
 10
118.7503577539716
 20
152.560539654446
 30
0.0
 11
117.90534439292
 21
152.6782609959174
 31
0.0
  0
LINE
  5
2C6
330
1F
100
AcDbEntity
  8
0
  6
Continuous
 62
     8
370
    15
100
AcDbLine
 10
119.5628554799414
 20
153.2360494033413
 30
0.0
 11
117.866446144467
 21
153.6751124476518
 31
0.0
  0
LINE
  5
2C7
330
1F
100
AcDbEntity
  8
0
  6
Continuous
 62
     8
370
    15
100
AcDbLine
 10
118.7380317764156
 20
154.4326645998121
 30
0.0
 11
117.8930190739086
 21
154.7523541903093
 31
0.0
  0
LINE
  5
2C8
330
1F
100
AcDbEntity
  8
0
  6
Continuous
 62
     8
370
    15
100
AcDbLine
 10
119.6507882939143
 20
154.8760325768261
 30
0.0
 11
117.9801510977598
 21
155.7108292407363
 31
0.0
  0
LINE
  5
2C9
330
1F
100
AcDbEntity
  8
0
  6
Continuous
 62
     8
370
    15
100
AcDbLine
 10
118.9634700007443
 20
156.21777529439
 30
0.0
 11
118.1441326315145
 21
156.7297294381222
 31
0.0
  0
LINE
  5
2CA
330
1F
100
AcDbEntity
  8
0
  6
Continuous
 62
     8
370
    15
100
AcDbLine
 10
119.9487520249072
 20
156.4155392426559
 30
0.0
 11
118.3546482372924
 21
157.6206971389651
 31
0.0
  0
LINE
  5
2CB
330
1F
100
AcDbEntity
  8
0
  6
Continuous
 62
     8
370
    15
100
AcDbLine
 10
119.4198229055301
 20
157.8616397414117
 30
0.0
 11
118.6510558276128
 21
158.5503041165065
 31
0.0
  0
LINE
  5
2CC
330
1F
100
AcDbEntity
  8
0
  6
Continuous
 62
     8
370
    15
100
AcDbLine
 10
120.4476923444797
 20
157.8077809064575
 30
0.0
 11
118.9785585725112
 21
159.3466907297724
 31
0.0
  0
LINE
  5
2CD
330
1F
100
AcDbEntity
  8
0
  6
Continuous
 62
     8
370
    15
100
AcDbLine
 10
120.093224177613
 20
159.3143032976557
 30
0.0
 11
119.3983859647063
 21
160.1587566644841
 31
0.0
  0
LINE
  5
2CE
330
1F
100
AcDbEntity
  8
0
  6
Continuous
 62
     8
370
    15
100
AcDbLine
 10
121.1324498873305
 20
159.0104710372058
 30
0.0
 11
119.8329245826652
 21
160.8363696111302
 31
0.0
  0
LINE
  5
2CF
330
1F
100
AcDbEntity
  8
0
  6
Continuous
 62
     8
370
    15
100
AcDbLine
 10
120.9632128391298
 20
160.5316418585319
 30
0.0
 11
120.3634157696151
 21
161.5062187973913
 31
0.0
  0
LINE
  5
2D0
330
1F
100
AcDbEntity
  8
0
  6
Continuous
 62
     8
370
    15
100
AcDbLine
 10
121.9822185982741
 20
159.9870594194416
 30
0.0
 11
120.8917877603384
 21
162.0444669173172
 31
0.0
  0
LINE
  5
2D1
330
1F
100
AcDbEntity
  8
0
  6
Continuous
 62
     8
370
    15
100
AcDbLine
 10
122.0033542549856
 20
161.4766548645803
 30
0.0
 11
121.5168232188492
 21
162.5517450131165
 31
0.0
  0
LINE
  5
2D2
330
1F
100
AcDbEntity
  8
0
  6
Continuous
 62
     8
370
    15
100
AcDbLine
 10
122.9976889612274
 20
160.1553191721152
 30
0.0
 11
121.9718570589855
 21
162.8479678277992
 31
0.0
  0
LINE
  5
2D3
330
1F
100
AcDbEntity
  8
0
  6
Continuous
 62
     8
370
    15
100
AcDbLine
 10
122.9976889612274
 20
162.7084089866191
 30
0.0
 11
122.8235625493272
 21
163.2635717001583
 31
0.0
  0
LINE
  5
2D4
330
1F
100
AcDbEntity
  8
0
  6
Continuous
 62
     8
370
    15
100
AcDbLine
 10
133.1571443186577
 20
142.1151730986785
 30
0.0
 11
132.8429184895847
 21
142.5566743839629
 31
0.0
  0
LINE
  5
2D5
330
1F
100
AcDbEntity
  8
0
  6
Continuous
 62
     8
370
    15
100
AcDbLine
 10
132.0632126581175
 20
142.4958692197976
 30
0.0
 11
132.1632123123824
 21
142.6065881234829
 31
0.0
  0
LINE
  5
2D6
330
1F
100
AcDbEntity
  8
0
  6
Continuous
 62
     8
370
    15
100
AcDbLine
 10
132.6630093983598
 20
141.52129236616
 30
0.0
 11
132.0632126581175
 21
142.4958692197976
 31
0.0
  0
LINE
  5
2D7
330
1F
100
AcDbEntity
  8
0
  6
Continuous
 62
     8
370
    15
100
AcDbLine
 10
130.9817041104482
 20
143.0069640875079
 30
0.0
 11
131.0091196475878
 21
143.0312964491586
 31
0.0
  0
LINE
  5
2D8
330
1F
100
AcDbEntity
  8
0
  6
Continuous
 62
     8
370
    15
100
AcDbLine
 10
132.0721352776562
 20
140.9495565044104
 30
0.0
 11
130.9817041104482
 21
143.0069640875079
 31
0.0
  0
LINE
  5
2D9
330
1F
100
AcDbEntity
  8
0
  6
Continuous
 62
     8
370
    15
100
AcDbLine
 10
131.0072253443106
 20
141.580750436184
 30
0.0
 11
131.1230708965266
 21
141.6615751174345
 31
0.0
  0
LINE
  5
2DA
330
1F
100
AcDbEntity
  8
0
  6
Continuous
 62
     8
370
    15
100
AcDbLine
 10
131.493756380447
 20
140.5056602876478
 30
0.0
 11
131.0072253443106
 21
141.580750436184
 31
0.0
  0
LINE
  5
2DB
330
1F
100
AcDbEntity
  8
0
  6
Continuous
 62
     8
370
    15
100
AcDbLine
 10
129.3587847200698
 20
143.4584345591982
 30
0.0
 11
130.6646702475932
 21
140.0306837741091
 31
0.0
  0
LINE
  5
2DC
330
1F
100
AcDbEntity
  8
0
  6
Continuous
 62
     8
370
    15
100
AcDbLine
 10
129.8162090767701
 20
140.9691248846445
 30
0.0
 11
129.944380606542
 21
141.0175983064489
 31
0.0
  0
LINE
  5
2DD
330
1F
100
AcDbEntity
  8
0
  6
Continuous
 62
     8
370
    15
100
AcDbLine
 10
130.1746910724131
 20
139.8261920567602
 30
0.0
 11
129.8162090767701
 21
140.9691248846445
 31
0.0
  0
LINE
  5
2DE
330
1F
100
AcDbEntity
  8
0
  6
Continuous
 62
     8
370
    15
100
AcDbLine
 10
129.438012563464
 20
139.6119572871532
 30
0.0
 11
128.8578062052451
 21
141.9397129124892
 31
0.0
  0
LINE
  5
2DF
330
1F
100
AcDbEntity
  8
0
  6
Continuous
 62
     8
370
    15
100
AcDbLine
 10
128.7458931515585
 20
139.5035177086998
 30
0.0
 11
128.5263523579349
 21
140.6795783062584
 31
0.0
  0
LINE
  5
2E0
330
1F
100
AcDbEntity
  8
0
  6
Continuous
 62
     8
370
    15
100
AcDbLine
 10
127.9689355909593
 20
139.4806115792899
 30
0.0
 11
127.6743571903278
 21
141.8389806329838
 31
0.0
  0
LINE
  5
2E1
330
1F
100
AcDbEntity
  8
0
  6
Continuous
 62
     8
370
    15
100
AcDbLine
 10
127.2507754358927
 20
139.547458747614
 30
0.0
 11
127.176846406246
 21
140.7209018066177
 31
0.0
  0
LINE
  5
2E2
330
1F
100
AcDbEntity
  8
0
  6
Continuous
 62
     8
370
    15
100
AcDbLine
 10
126.4571465535402
 20
139.7165648208515
 30
0.0
 11
126.4571465535402
 21
142.0339048675038
 31
0.0
  0
LINE
  5
2E3
330
1F
100
AcDbEntity
  8
0
  6
Continuous
 62
     8
370
    15
100
AcDbLine
 10
125.7347664658461
 20
139.9566638421335
 30
0.0
 11
125.8086955778109
 21
141.0918383981147
 31
0.0
  0
LINE
  5
2E4
330
1F
100
AcDbEntity
  8
0
  6
Continuous
 62
     8
370
    15
100
AcDbLine
 10
124.9485803094662
 20
140.3126564329865
 30
0.0
 11
125.2431587100977
 21
142.5185404859619
 31
0.0
  0
LINE
  5
2E5
330
1F
100
AcDbEntity
  8
0
  6
Continuous
 62
     8
370
    15
100
AcDbLine
 10
124.2439294541183
 20
140.718714382666
 30
0.0
 11
124.4634702477419
 21
141.781125106383
 31
0.0
  0
LINE
  5
2E6
330
1F
100
AcDbEntity
  8
0
  6
Continuous
 62
     8
370
    15
100
AcDbLine
 10
123.4890737996599
 20
141.2507618062639
 30
0.0
 11
124.0692799932426
 21
143.2781805630177
 31
0.0
  0
LINE
  5
2E7
330
1F
100
AcDbEntity
  8
0
  6
Continuous
 62
     8
370
    15
100
AcDbLine
 10
122.8235625493272
 20
141.8104435795723
 30
0.0
 11
123.1820445449701
 21
142.7678196685673
 31
0.0
  0
LINE
  5
2E8
330
1F
100
AcDbEntity
  8
0
  6
Continuous
 62
     8
370
    15
100
AcDbLine
 10
122.1229732672323
 20
142.5023902701573
 30
0.0
 11
122.9711782642418
 21
144.2897327168467
 31
0.0
  0
LINE
  5
2E9
330
1F
100
AcDbEntity
  8
0
  6
Continuous
 62
     8
370
    15
100
AcDbLine
 10
121.5168232188492
 20
143.1986883180386
 30
0.0
 11
122.0033542549856
 21
144.0219314702037
 31
0.0
  0
LINE
  5
2EA
330
1F
100
AcDbEntity
  8
0
  6
Continuous
 62
     8
370
    15
100
AcDbLine
 10
120.8917877603384
 20
144.0295085748918
 30
0.0
 11
121.9822185982741
 21
145.5224675363177
 31
0.0
  0
LINE
  5
2EB
330
1F
100
AcDbEntity
  8
0
  6
Continuous
 62
     8
370
    15
100
AcDbLine
 10
120.3634157696151
 20
144.8412621630136
 30
0.0
 11
120.9632128391298
 21
145.5053612922989
 31
0.0
  0
LINE
  5
2EC
330
1F
100
AcDbEntity
  8
0
  6
Continuous
 62
     8
370
    15
100
AcDbLine
 10
118.3617196882191
 20
149.7684286367136
 30
0.0
 11
119.9558234758339
 21
150.1484176928132
 31
0.0
  0
LINE
  5
2ED
330
1F
100
AcDbEntity
  8
0
  6
Continuous
 62
     8
370
    15
100
AcDbLine
 10
119.9558234758339
 20
150.1484176928132
 30
0.0
 11
120.0283766413674
 21
149.8573377028926
 31
0.0
  0
LINE
  5
2EE
330
1F
100
AcDbEntity
  8
0
  6
Continuous
 62
     8
370
    15
100
AcDbLine
 10
120.0283766413674
 20
149.8573377028926
 30
0.0
 11
118.434273512297
 21
149.4773484763491
 31
0.0
  0
LINE
  5
2EF
330
1F
100
AcDbEntity
  8
0
  6
Continuous
 62
     8
370
    15
100
AcDbLine
 10
120.0283766413674
 20
149.8573377028926
 30
0.0
 11
120.0213051904407
 21
149.8555074767163
 31
0.0
  0
LINE
  5
2F0
330
1F
100
AcDbEntity
  8
0
  6
Continuous
 62
     8
370
    15
100
AcDbLine
 10
119.4268943564569
 20
148.9761182499738
 30
0.0
 11
119.4866618803679
 21
148.7855605622368
 31
0.0
  0
LINE
  5
2F1
330
1F
100
AcDbEntity
  8
0
  6
Continuous
 62
     8
370
    15
100
AcDbLine
 10
119.4866618803679
 20
148.7855605622368
 30
0.0
 11
118.7178948024505
 21
148.4948393091677
 31
0.0
  0
LINE
  5
2F2
330
1F
100
AcDbEntity
  8
0
  6
Continuous
 62
     8
370
    15
100
AcDbLine
 10
118.6581272785396
 20
148.6853898001964
 30
0.0
 11
119.4268943564569
 21
148.9761182499738
 31
0.0
  0
LINE
  5
2F3
330
1F
100
AcDbEntity
  8
0
  6
Continuous
 62
     8
370
    15
100
AcDbLine
 10
118.9705414516711
 20
150.8562083430883
 30
0.0
 11
119.0071440139693
 21
150.6601314554448
 31
0.0
  0
LINE
  5
2F4
330
1F
100
AcDbEntity
  8
0
  6
Continuous
 62
     8
370
    15
100
AcDbLine
 10
119.0071440139693
 20
150.6601314554448
 30
0.0
 11
118.1878066447394
 21
150.5722903460461
 31
0.0
  0
LINE
  5
2F5
330
1F
100
AcDbEntity
  8
0
  6
Continuous
 62
     8
370
    15
100
AcDbLine
 10
118.1512040824413
 20
150.7683672336897
 30
0.0
 11
118.9705414516711
 21
150.8562083430883
 31
0.0
  0
LINE
  5
2F6
330
1F
100
AcDbEntity
  8
0
  6
Continuous
 62
     8
370
    15
100
AcDbLine
 10
119.4268943564569
 20
148.9761182499738
 30
0.0
 11
119.4198229055301
 21
148.9742880237975
 31
0.0
  0
LINE
  5
2F7
330
1F
100
AcDbEntity
  8
0
  6
Continuous
 62
     8
370
    15
100
AcDbLine
 10
119.0071440139693
 20
150.6601314554448
 30
0.0
 11
119.0000725630425
 21
150.6583012292684
 31
0.0
  0
LINE
  5
2F8
330
1F
100
AcDbEntity
  8
0
  6
Continuous
 62
     8
370
    15
100
AcDbLine
 10
121.5065397170848
 20
148.4417454493145
 30
0.0
 11
119.1835081601076
 21
147.2108738702599
 31
0.0
  0
LINE
  5
2F9
330
1F
100
AcDbEntity
  8
0
  6
Continuous
 62
     8
370
    15
100
AcDbLine
 10
121.2236968265398
 20
149.1841652767748
 30
0.0
 11
118.900665928107
 21
147.9532935272763
 31
0.0
  0
LINE
  5
2FA
330
1F
100
AcDbEntity
  8
0
  6
Continuous
 62
     8
370
    15
100
AcDbLine
 10
121.2236968265398
 20
149.1841652767748
 30
0.0
 11
121.5065397170848
 21
148.4417454493145
 31
0.0
  0
LINE
  5
2FB
330
1F
100
AcDbEntity
  8
0
  6
Continuous
 62
     8
370
    15
100
AcDbLine
 10
121.2236968265398
 20
149.1841652767748
 30
0.0
 11
121.216625375613
 21
149.1823350505984
 31
0.0
  0
LINE
  5
2FC
330
1F
100
AcDbEntity
  8
0
  6
Continuous
 62
     8
370
    15
100
AcDbLine
 10
117.9872225486865
 20
151.8721505190372
 30
0.0
 11
119.6578597448411
 21
151.8421617353045
 31
0.0
  0
LINE
  5
2FD
330
1F
100
AcDbEntity
  8
0
  6
Continuous
 62
     8
370
    15
100
AcDbLine
 10
119.6578597448411
 20
151.8421617353045
 30
0.0
 11
119.6946960904396
 21
151.5472495197788
 31
0.0
  0
LINE
  5
2FE
330
1F
100
AcDbEntity
  8
0
  6
Continuous
 62
     8
370
    15
100
AcDbLine
 10
119.6946960904396
 20
151.5472495197788
 30
0.0
 11
118.024058894285
 21
151.5772455002198
 31
0.0
  0
LINE
  5
2FF
330
1F
100
AcDbEntity
  8
0
  6
Continuous
 62
     8
370
    15
100
AcDbLine
 10
119.6946960904396
 20
151.5472495197788
 30
0.0
 11
119.6876246395129
 21
151.5454192936025
 31
0.0
  0
LINE
  5
300
330
1F
100
AcDbEntity
  8
0
  6
Continuous
 62
     8
370
    15
100
AcDbLine
 10
120.1002956285397
 20
147.174869348599
 30
0.0
 11
120.093224177613
 21
147.1730391224226
 31
0.0
  0
LINE
  5
301
330
1F
100
AcDbEntity
  8
0
  6
Continuous
 62
     8
370
    15
100
AcDbLine
 10
119.405457415633
 20
146.690090707301
 30
0.0
 11
120.1002956285397
 21
147.174869348599
 31
0.0
  0
LINE
  5
302
330
1F
100
AcDbEntity
  8
0
  6
Continuous
 62
     8
370
    15
100
AcDbLine
 10
120.1002956285397
 20
147.174869348599
 30
0.0
 11
120.1814118483104
 21
146.9956265090188
 31
0.0
  0
LINE
  5
303
330
1F
100
AcDbEntity
  8
0
  6
Continuous
 62
     8
370
    15
100
AcDbLine
 10
120.1814118483104
 20
146.9956265090188
 30
0.0
 11
119.4865736354038
 21
146.5108478677209
 31
0.0
  0
LINE
  5
304
330
1F
100
AcDbEntity
  8
0
  6
Continuous
 62
     8
370
    15
100
AcDbLine
 10
118.7451032273424
 20
152.758014449567
 30
0.0
 11
118.7574292048983
 21
152.5623698806224
 31
0.0
  0
LINE
  5
305
330
1F
100
AcDbEntity
  8
0
  6
Continuous
 62
     8
370
    15
100
AcDbLine
 10
118.7574292048983
 20
152.5623698806224
 30
0.0
 11
117.9124158438467
 21
152.6800912220938
 31
0.0
  0
LINE
  5
306
330
1F
100
AcDbEntity
  8
0
  6
Continuous
 62
     8
370
    15
100
AcDbLine
 10
117.9000905248353
 20
152.8757284238863
 30
0.0
 11
118.7451032273424
 21
152.758014449567
 31
0.0
  0
LINE
  5
307
330
1F
100
AcDbEntity
  8
0
  6
Continuous
 62
     8
370
    15
100
AcDbLine
 10
118.7574292048983
 20
152.5623698806224
 30
0.0
 11
118.7503577539716
 21
152.560539654446
 31
0.0
  0
LINE
  5
308
330
1F
100
AcDbEntity
  8
0
  6
Continuous
 62
     8
370
    15
100
AcDbLine
 10
121.1395213382572
 20
146.9407587973787
 30
0.0
 11
121.1324498873305
 21
146.9389285712024
 31
0.0
  0
LINE
  5
309
330
1F
100
AcDbEntity
  8
0
  6
Continuous
 62
     8
370
    15
100
AcDbLine
 10
119.8399960335919
 20
145.7875476186885
 30
0.0
 11
121.1395213382572
 21
146.9407587973787
 31
0.0
  0
LINE
  5
30A
330
1F
100
AcDbEntity
  8
0
  6
Continuous
 62
     8
370
    15
100
AcDbLine
 10
121.1395213382572
 20
146.9407587973787
 30
0.0
 11
121.2758772591743
 21
146.683484823105
 31
0.0
  0
LINE
  5
30B
330
1F
100
AcDbEntity
  8
0
  6
Continuous
 62
     8
370
    15
100
AcDbLine
 10
121.2758772591743
 20
146.683484823105
 30
0.0
 11
119.9763522837813
 21
145.5302735591928
 31
0.0
  0
LINE
  5
30C
330
1F
100
AcDbEntity
  8
0
  6
Continuous
 62
     8
370
    15
100
AcDbLine
 10
117.8735175953937
 20
153.9667253269912
 30
0.0
 11
119.5699269308682
 21
153.5276622826806
 31
0.0
  0
LINE
  5
30D
330
1F
100
AcDbEntity
  8
0
  6
Continuous
 62
     8
370
    15
100
AcDbLine
 10
119.5699269308682
 20
153.5276622826806
 30
0.0
 11
119.5699269308682
 21
153.2378796295176
 31
0.0
  0
LINE
  5
30E
330
1F
100
AcDbEntity
  8
0
  6
Continuous
 62
     8
370
    15
100
AcDbLine
 10
119.5699269308682
 20
153.2378796295176
 30
0.0
 11
117.8735175953937
 21
153.6769426738281
 31
0.0
  0
LINE
  5
30F
330
1F
100
AcDbEntity
  8
0
  6
Continuous
 62
     8
370
    15
100
AcDbLine
 10
119.5699269308682
 20
153.2378796295176
 30
0.0
 11
119.5628554799414
 21
153.2360494033413
 31
0.0
  0
LINE
  5
310
330
1F
100
AcDbEntity
  8
0
  6
Continuous
 62
     8
370
    15
100
AcDbLine
 10
120.9702842900565
 20
145.5071915184753
 30
0.0
 11
121.0702839443214
 21
145.3447089847351
 31
0.0
  0
LINE
  5
311
330
1F
100
AcDbEntity
  8
0
  6
Continuous
 62
     8
370
    15
100
AcDbLine
 10
121.0702839443214
 20
145.3447089847351
 30
0.0
 11
120.470487204079
 21
144.6806097702278
 31
0.0
  0
LINE
  5
312
330
1F
100
AcDbEntity
  8
0
  6
Continuous
 62
     8
370
    15
100
AcDbLine
 10
120.3704872205419
 20
144.8430923891899
 30
0.0
 11
120.9702842900565
 21
145.5071915184753
 31
0.0
  0
LINE
  5
313
330
1F
100
AcDbEntity
  8
0
  6
Continuous
 62
     8
370
    15
100
AcDbLine
 10
120.9702842900565
 20
145.5071915184753
 30
0.0
 11
120.9632128391298
 21
145.5053612922989
 31
0.0
  0
LINE
  5
314
330
1F
100
AcDbEntity
  8
0
  6
Continuous
 62
     8
370
    15
100
AcDbLine
 10
118.7574292048983
 20
154.6237518027428
 30
0.0
 11
118.7451032273424
 21
154.4344948259884
 31
0.0
  0
LINE
  5
315
330
1F
100
AcDbEntity
  8
0
  6
Continuous
 62
     8
370
    15
100
AcDbLine
 10
118.7451032273424
 20
154.4344948259884
 30
0.0
 11
117.9000905248353
 21
154.7541844164856
 31
0.0
  0
LINE
  5
316
330
1F
100
AcDbEntity
  8
0
  6
Continuous
 62
     8
370
    15
100
AcDbLine
 10
117.9124158438467
 20
154.9434487603922
 30
0.0
 11
118.7574292048983
 21
154.6237518027428
 31
0.0
  0
LINE
  5
317
330
1F
100
AcDbEntity
  8
0
  6
Continuous
 62
     8
370
    15
100
AcDbLine
 10
118.7451032273424
 20
154.4344948259884
 30
0.0
 11
118.7380317764156
 21
154.4326645998121
 31
0.0
  0
LINE
  5
318
330
1F
100
AcDbEntity
  8
0
  6
Continuous
 62
     8
370
    15
100
AcDbLine
 10
121.9892900492009
 20
145.524297762494
 30
0.0
 11
121.9822185982741
 21
145.5224675363177
 31
0.0
  0
LINE
  5
319
330
1F
100
AcDbEntity
  8
0
  6
Continuous
 62
     8
370
    15
100
AcDbLine
 10
120.8988592112652
 20
144.0313388010682
 30
0.0
 11
121.9892900492009
 21
145.524297762494
 31
0.0
  0
LINE
  5
31A
330
1F
100
AcDbEntity
  8
0
  6
Continuous
 62
     8
370
    15
100
AcDbLine
 10
121.9892900492009
 20
145.524297762494
 30
0.0
 11
122.1517924919907
 21
145.2959738332894
 31
0.0
  0
LINE
  5
31B
330
1F
100
AcDbEntity
  8
0
  6
Continuous
 62
     8
370
    15
100
AcDbLine
 10
122.1517924919907
 20
145.2959738332894
 30
0.0
 11
121.0613613247827
 21
143.8030149570855
 31
0.0
  0
LINE
  5
31C
330
1F
100
AcDbEntity
  8
0
  6
Continuous
 62
     8
370
    15
100
AcDbLine
 10
118.024058894285
 20
155.9885037868526
 30
0.0
 11
119.6946960904396
 21
155.1537071229424
 31
0.0
  0
LINE
  5
31D
330
1F
100
AcDbEntity
  8
0
  6
Continuous
 62
     8
370
    15
100
AcDbLine
 10
119.6946960904396
 20
155.1537071229424
 30
0.0
 11
119.6578597448411
 21
154.8778628030025
 31
0.0
  0
LINE
  5
31E
330
1F
100
AcDbEntity
  8
0
  6
Continuous
 62
     8
370
    15
100
AcDbLine
 10
119.6578597448411
 20
154.8778628030025
 30
0.0
 11
117.9872225486865
 21
155.7126594669126
 31
0.0
  0
LINE
  5
31F
330
1F
100
AcDbEntity
  8
0
  6
Continuous
 62
     8
370
    15
100
AcDbLine
 10
119.6578597448411
 20
154.8778628030025
 30
0.0
 11
119.6507882939143
 21
154.8760325768261
 31
0.0
  0
LINE
  5
320
330
1F
100
AcDbEntity
  8
0
  6
Continuous
 62
     8
370
    15
100
AcDbLine
 10
122.0104257059123
 20
144.02376169638
 30
0.0
 11
122.0033542549856
 21
144.0219314702037
 31
0.0
  0
LINE
  5
321
330
1F
100
AcDbEntity
  8
0
  6
Continuous
 62
     8
370
    15
100
AcDbLine
 10
121.523894669776
 20
143.2005185442149
 30
0.0
 11
122.0104257059123
 21
144.02376169638
 31
0.0
  0
LINE
  5
322
330
1F
100
AcDbEntity
  8
0
  6
Continuous
 62
     8
370
    15
100
AcDbLine
 10
122.0104257059123
 20
144.02376169638
 30
0.0
 11
122.1262712581283
 21
143.8829709447217
 31
0.0
  0
LINE
  5
323
330
1F
100
AcDbEntity
  8
0
  6
Continuous
 62
     8
370
    15
100
AcDbLine
 10
122.1262712581283
 20
143.8829709447217
 30
0.0
 11
121.6397402219919
 21
143.0597277925566
 31
0.0
  0
LINE
  5
324
330
1F
100
AcDbEntity
  8
0
  6
Continuous
 62
     8
370
    15
100
AcDbLine
 10
119.0071440139693
 20
156.3967355277653
 30
0.0
 11
118.9705414516711
 21
156.2196055205663
 31
0.0
  0
LINE
  5
325
330
1F
100
AcDbEntity
  8
0
  6
Continuous
 62
     8
370
    15
100
AcDbLine
 10
118.9705414516711
 20
156.2196055205663
 30
0.0
 11
118.1512040824413
 21
156.7315596642985
 31
0.0
  0
LINE
  5
326
330
1F
100
AcDbEntity
  8
0
  6
Continuous
 62
     8
370
    15
100
AcDbLine
 10
118.1878066447394
 20
156.9086896714975
 30
0.0
 11
119.0071440139693
 21
156.3967355277653
 31
0.0
  0
LINE
  5
327
330
1F
100
AcDbEntity
  8
0
  6
Continuous
 62
     8
370
    15
100
AcDbLine
 10
118.9705414516711
 20
156.2196055205663
 30
0.0
 11
118.9634700007443
 21
156.21777529439
 31
0.0
  0
LINE
  5
328
330
1F
100
AcDbEntity
  8
0
  6
Continuous
 62
     8
370
    15
100
AcDbLine
 10
122.1300447181591
 20
142.5042204963336
 30
0.0
 11
122.9782497151685
 21
144.291562943023
 31
0.0
  0
LINE
  5
329
330
1F
100
AcDbEntity
  8
0
  6
Continuous
 62
     8
370
    15
100
AcDbLine
 10
122.9782497151685
 20
144.291562943023
 30
0.0
 11
123.1619612423824
 21
144.0991307711019
 31
0.0
  0
LINE
  5
32A
330
1F
100
AcDbEntity
  8
0
  6
Continuous
 62
     8
370
    15
100
AcDbLine
 10
123.1619612423824
 20
144.0991307711019
 30
0.0
 11
122.3137565746452
 21
142.3117882391905
 31
0.0
  0
LINE
  5
32B
330
1F
100
AcDbEntity
  8
0
  6
Continuous
 62
     8
370
    15
100
AcDbLine
 10
122.9782497151685
 20
144.291562943023
 30
0.0
 11
122.9711782642418
 21
144.2897327168467
 31
0.0
  0
LINE
  5
32C
330
1F
100
AcDbEntity
  8
0
  6
Continuous
 62
     8
370
    15
100
AcDbLine
 10
118.434273512297
 20
157.8760509025731
 30
0.0
 11
120.0283766413674
 21
156.6708931767078
 31
0.0
  0
LINE
  5
32D
330
1F
100
AcDbEntity
  8
0
  6
Continuous
 62
     8
370
    15
100
AcDbLine
 10
120.0283766413674
 20
156.6708931767078
 30
0.0
 11
119.9558234758339
 21
156.4173694688322
 31
0.0
  0
LINE
  5
32E
330
1F
100
AcDbEntity
  8
0
  6
Continuous
 62
     8
370
    15
100
AcDbLine
 10
119.9558234758339
 20
156.4173694688322
 30
0.0
 11
118.3617196882191
 21
157.6225273651414
 31
0.0
  0
LINE
  5
32F
330
1F
100
AcDbEntity
  8
0
  6
Continuous
 62
     8
370
    15
100
AcDbLine
 10
119.9558234758339
 20
156.4173694688322
 30
0.0
 11
119.9487520249072
 21
156.4155392426559
 31
0.0
  0
LINE
  5
330
330
1F
100
AcDbEntity
  8
0
  6
Continuous
 62
     8
370
    15
100
AcDbLine
 10
123.1891159958969
 20
142.7696498947437
 30
0.0
 11
123.1820445449701
 21
142.7678196685673
 31
0.0
  0
LINE
  5
331
330
1F
100
AcDbEntity
  8
0
  6
Continuous
 62
     8
370
    15
100
AcDbLine
 10
122.8306340002539
 20
141.8122738057486
 30
0.0
 11
123.1891159958969
 21
142.7696498947437
 31
0.0
  0
LINE
  5
332
330
1F
100
AcDbEntity
  8
0
  6
Continuous
 62
     8
370
    15
100
AcDbLine
 10
123.1891159958969
 20
142.7696498947437
 30
0.0
 11
123.3172875256688
 21
142.6548300070495
 31
0.0
  0
LINE
  5
333
330
1F
100
AcDbEntity
  8
0
  6
Continuous
 62
     8
370
    15
100
AcDbLine
 10
123.3172875256688
 20
142.6548300070495
 30
0.0
 11
122.9588055300258
 21
141.6974611147627
 31
0.0
  0
LINE
  5
334
330
1F
100
AcDbEntity
  8
0
  6
Continuous
 62
     8
370
    15
100
AcDbLine
 10
119.4866618803679
 20
158.0230825116832
 30
0.0
 11
119.4268943564569
 21
157.863469967588
 31
0.0
  0
LINE
  5
335
330
1F
100
AcDbEntity
  8
0
  6
Continuous
 62
     8
370
    15
100
AcDbLine
 10
119.4268943564569
 20
157.863469967588
 30
0.0
 11
118.6581272785396
 21
158.5521343426828
 31
0.0
  0
LINE
  5
336
330
1F
100
AcDbEntity
  8
0
  6
Continuous
 62
     8
370
    15
100
AcDbLine
 10
118.7178948024505
 20
158.7117540834862
 30
0.0
 11
119.4866618803679
 21
158.0230825116832
 31
0.0
  0
LINE
  5
337
330
1F
100
AcDbEntity
  8
0
  6
Continuous
 62
     8
370
    15
100
AcDbLine
 10
119.4268943564569
 20
157.863469967588
 30
0.0
 11
119.4198229055301
 21
157.8616397414117
 31
0.0
  0
LINE
  5
338
330
1F
100
AcDbEntity
  8
0
  6
Continuous
 62
     8
370
    15
100
AcDbLine
 10
123.4961452505866
 20
141.2525920324402
 30
0.0
 11
124.0763514441693
 21
143.280010789194
 31
0.0
  0
LINE
  5
339
330
1F
100
AcDbEntity
  8
0
  6
Continuous
 62
     8
370
    15
100
AcDbLine
 10
124.0763514441693
 20
143.280010789194
 30
0.0
 11
124.2756903971938
 21
143.1293122028309
 31
0.0
  0
LINE
  5
33A
330
1F
100
AcDbEntity
  8
0
  6
Continuous
 62
     8
370
    15
100
AcDbLine
 10
124.2756903971938
 20
143.1293122028309
 30
0.0
 11
123.6954840389749
 21
141.1018934886881
 31
0.0
  0
LINE
  5
33B
330
1F
100
AcDbEntity
  8
0
  6
Continuous
 62
     8
370
    15
100
AcDbLine
 10
124.0763514441693
 20
143.280010789194
 30
0.0
 11
124.0692799932426
 21
143.2781805630177
 31
0.0
  0
LINE
  5
33C
330
1F
100
AcDbEntity
  8
0
  6
Continuous
 62
     8
370
    15
100
AcDbLine
 10
119.0916965189827
 20
159.5720253391738
 30
0.0
 11
120.5608296324067
 21
158.0331156863028
 31
0.0
  0
LINE
  5
33D
330
1F
100
AcDbEntity
  8
0
  6
Continuous
 62
     8
370
    15
100
AcDbLine
 10
120.5608296324067
 20
158.0331156863028
 30
0.0
 11
120.4547637954064
 21
157.8096111326339
 31
0.0
  0
LINE
  5
33E
330
1F
100
AcDbEntity
  8
0
  6
Continuous
 62
     8
370
    15
100
AcDbLine
 10
120.4547637954064
 20
157.8096111326339
 30
0.0
 11
118.985630023438
 21
159.3485209559487
 31
0.0
  0
LINE
  5
33F
330
1F
100
AcDbEntity
  8
0
  6
Continuous
 62
     8
370
    15
100
AcDbLine
 10
120.4547637954064
 20
157.8096111326339
 30
0.0
 11
120.4476923444797
 21
157.8077809064575
 31
0.0
  0
LINE
  5
340
330
1F
100
AcDbEntity
  8
0
  6
Continuous
 62
     8
370
    15
100
AcDbLine
 10
124.4705416986686
 20
141.7829553325593
 30
0.0
 11
124.607144244504
 21
141.6976044600873
 31
0.0
  0
LINE
  5
341
330
1F
100
AcDbEntity
  8
0
  6
Continuous
 62
     8
370
    15
100
AcDbLine
 10
124.607144244504
 20
141.6976044600873
 30
0.0
 11
124.3876034508804
 21
140.6351865396621
 31
0.0
  0
LINE
  5
342
330
1F
100
AcDbEntity
  8
0
  6
Continuous
 62
     8
370
    15
100
AcDbLine
 10
124.251000905045
 20
140.7205446088423
 30
0.0
 11
124.4705416986686
 21
141.7829553325593
 31
0.0
  0
LINE
  5
343
330
1F
100
AcDbEntity
  8
0
  6
Continuous
 62
     8
370
    15
100
AcDbLine
 10
124.4705416986686
 20
141.7829553325593
 30
0.0
 11
124.4634702477419
 21
141.781125106383
 31
0.0
  0
LINE
  5
344
330
1F
100
AcDbEntity
  8
0
  6
Continuous
 62
     8
370
    15
100
AcDbLine
 10
120.1814118483104
 20
159.4533875183254
 30
0.0
 11
120.1002956285397
 21
159.3161335238321
 31
0.0
  0
LINE
  5
345
330
1F
100
AcDbEntity
  8
0
  6
Continuous
 62
     8
370
    15
100
AcDbLine
 10
120.1002956285397
 20
159.3161335238321
 30
0.0
 11
119.405457415633
 21
160.1605868906605
 31
0.0
  0
LINE
  5
346
330
1F
100
AcDbEntity
  8
0
  6
Continuous
 62
     8
370
    15
100
AcDbLine
 10
119.4865736354038
 20
160.2978408851538
 30
0.0
 11
120.1814118483104
 21
159.4533875183254
 31
0.0
  0
LINE
  5
347
330
1F
100
AcDbEntity
  8
0
  6
Continuous
 62
     8
370
    15
100
AcDbLine
 10
120.1002956285397
 20
159.3161335238321
 30
0.0
 11
120.093224177613
 21
159.3143032976557
 31
0.0
  0
LINE
  5
348
330
1F
100
AcDbEntity
  8
0
  6
Continuous
 62
     8
370
    15
100
AcDbLine
 10
124.9556517603929
 20
140.3144866591628
 30
0.0
 11
125.2502301610244
 21
142.5203707121382
 31
0.0
  0
LINE
  5
349
330
1F
100
AcDbEntity
  8
0
  6
Continuous
 62
     8
370
    15
100
AcDbLine
 10
125.2502301610244
 20
142.5203707121382
 30
0.0
 11
125.4591394121111
 21
142.4159816353886
 31
0.0
  0
LINE
  5
34A
330
1F
100
AcDbEntity
  8
0
  6
Continuous
 62
     8
370
    15
100
AcDbLine
 10
125.4591394121111
 20
142.4159816353886
 30
0.0
 11
125.1645610114796
 21
140.2100975824133
 31
0.0
  0
LINE
  5
34B
330
1F
100
AcDbEntity
  8
0
  6
Continuous
 62
     8
370
    15
100
AcDbLine
 10
125.2502301610244
 20
142.5203707121382
 30
0.0
 11
125.2431587100977
 21
142.5185404859619
 31
0.0
  0
LINE
  5
34C
330
1F
100
AcDbEntity
  8
0
  6
Continuous
 62
     8
370
    15
100
AcDbLine
 10
119.9763522837813
 20
161.0248907078667
 30
0.0
 11
121.2758772591743
 21
159.1989922191642
 31
0.0
  0
LINE
  5
34D
330
1F
100
AcDbEntity
  8
0
  6
Continuous
 62
     8
370
    15
100
AcDbLine
 10
121.2758772591743
 20
159.1989922191642
 30
0.0
 11
121.1395213382572
 21
159.0123012633821
 31
0.0
  0
LINE
  5
34E
330
1F
100
AcDbEntity
  8
0
  6
Continuous
 62
     8
370
    15
100
AcDbLine
 10
121.1395213382572
 20
159.0123012633821
 30
0.0
 11
119.8399960335919
 21
160.8381998373066
 31
0.0
  0
LINE
  5
34F
330
1F
100
AcDbEntity
  8
0
  6
Continuous
 62
     8
370
    15
100
AcDbLine
 10
121.1395213382572
 20
159.0123012633821
 30
0.0
 11
121.1324498873305
 21
159.0104710372058
 31
0.0
  0
LINE
  5
350
330
1F
100
AcDbEntity
  8
0
  6
Continuous
 62
     8
370
    15
100
AcDbLine
 10
125.8157670287376
 20
141.093668624291
 30
0.0
 11
125.8086955778109
 21
141.0918383981147
 31
0.0
  0
LINE
  5
351
330
1F
100
AcDbEntity
  8
0
  6
Continuous
 62
     8
370
    15
100
AcDbLine
 10
125.7418379167728
 20
139.9584940683098
 30
0.0
 11
125.8157670287376
 21
141.093668624291
 31
0.0
  0
LINE
  5
352
330
1F
100
AcDbEntity
  8
0
  6
Continuous
 62
     8
370
    15
100
AcDbLine
 10
125.8157670287376
 20
141.093668624291
 30
0.0
 11
125.9566501961929
 21
141.040372276894
 31
0.0
  0
LINE
  5
353
330
1F
100
AcDbEntity
  8
0
  6
Continuous
 62
     8
370
    15
100
AcDbLine
 10
125.9566501961929
 20
141.040372276894
 30
0.0
 11
125.8827211665461
 21
139.9051976996074
 31
0.0
  0
LINE
  5
354
330
1F
100
AcDbEntity
  8
0
  6
Continuous
 62
     8
370
    15
100
AcDbLine
 10
121.0702839443214
 20
160.6441945867476
 30
0.0
 11
120.9702842900565
 21
160.5334720847082
 31
0.0
  0
LINE
  5
355
330
1F
100
AcDbEntity
  8
0
  6
Continuous
 62
     8
370
    15
100
AcDbLine
 10
120.9702842900565
 20
160.5334720847082
 30
0.0
 11
120.3704872205419
 21
161.5080490235677
 31
0.0
  0
LINE
  5
356
330
1F
100
AcDbEntity
  8
0
  6
Continuous
 62
     8
370
    15
100
AcDbLine
 10
120.470487204079
 20
161.618767842031
 30
0.0
 11
121.0702839443214
 21
160.6441945867476
 31
0.0
  0
LINE
  5
357
330
1F
100
AcDbEntity
  8
0
  6
Continuous
 62
     8
370
    15
100
AcDbLine
 10
120.9702842900565
 20
160.5334720847082
 30
0.0
 11
120.9632128391298
 21
160.5316418585319
 31
0.0
  0
LINE
  5
358
330
1F
100
AcDbEntity
  8
0
  6
Continuous
 62
     8
370
    15
100
AcDbLine
 10
126.464218004467
 20
139.7183950470278
 30
0.0
 11
126.464218004467
 21
142.0357350936801
 31
0.0
  0
LINE
  5
359
330
1F
100
AcDbEntity
  8
0
  6
Continuous
 62
     8
370
    15
100
AcDbLine
 10
126.464218004467
 20
142.0357350936801
 30
0.0
 11
126.6763500488987
 21
141.9808312805046
 31
0.0
  0
LINE
  5
35A
330
1F
100
AcDbEntity
  8
0
  6
Continuous
 62
     8
370
    15
100
AcDbLine
 10
126.6763500488987
 20
141.9808312805046
 30
0.0
 11
126.6763500488987
 21
139.6634912338524
 31
0.0
  0
LINE
  5
35B
330
1F
100
AcDbEntity
  8
0
  6
Continuous
 62
     8
370
    15
100
AcDbLine
 10
126.464218004467
 20
142.0357350936801
 30
0.0
 11
126.4571465535402
 21
142.0339048675038
 31
0.0
  0
LINE
  5
35C
330
1F
100
AcDbEntity
  8
0
  6
Continuous
 62
     8
370
    15
100
AcDbLine
 10
121.0613613247827
 20
162.1905037037807
 30
0.0
 11
122.1517924919907
 21
160.1330961206832
 31
0.0
  0
LINE
  5
35D
330
1F
100
AcDbEntity
  8
0
  6
Continuous
 62
     8
370
    15
100
AcDbLine
 10
122.1517924919907
 20
160.1330961206832
 30
0.0
 11
121.9892900492009
 21
159.988889645618
 31
0.0
  0
LINE
  5
35E
330
1F
100
AcDbEntity
  8
0
  6
Continuous
 62
     8
370
    15
100
AcDbLine
 10
121.9892900492009
 20
159.988889645618
 30
0.0
 11
120.8988592112652
 21
162.0462971434935
 31
0.0
  0
LINE
  5
35F
330
1F
100
AcDbEntity
  8
0
  6
Continuous
 62
     8
370
    15
100
AcDbLine
 10
121.9892900492009
 20
159.988889645618
 30
0.0
 11
121.9822185982741
 21
159.9870594194416
 31
0.0
  0
LINE
  5
360
330
1F
100
AcDbEntity
  8
0
  6
Continuous
 62
     8
370
    15
100
AcDbLine
 10
127.1839178571727
 20
140.722732032794
 30
0.0
 11
127.176846406246
 21
140.7209018066177
 31
0.0
  0
LINE
  5
361
330
1F
100
AcDbEntity
  8
0
  6
Continuous
 62
     8
370
    15
100
AcDbLine
 10
127.2578468868195
 20
139.5492889737903
 30
0.0
 11
127.1839178571727
 21
140.722732032794
 31
0.0
  0
LINE
  5
362
330
1F
100
AcDbEntity
  8
0
  6
Continuous
 62
     8
370
    15
100
AcDbLine
 10
127.1839178571727
 20
140.722732032794
 30
0.0
 11
127.324801024628
 21
140.7031018864474
 31
0.0
  0
LINE
  5
363
330
1F
100
AcDbEntity
  8
0
  6
Continuous
 62
     8
370
    15
100
AcDbLine
 10
127.324801024628
 20
140.7031018864474
 30
0.0
 11
127.3987301365929
 21
139.5296588061382
 31
0.0
  0
LINE
  5
364
330
1F
100
AcDbEntity
  8
0
  6
Continuous
 62
     8
370
    15
100
AcDbLine
 10
122.1262712581283
 20
161.5593097720071
 30
0.0
 11
122.0104257059123
 21
161.4784850907566
 31
0.0
  0
LINE
  5
365
330
1F
100
AcDbEntity
  8
0
  6
Continuous
 62
     8
370
    15
100
AcDbLine
 10
122.0104257059123
 20
161.4784850907566
 30
0.0
 11
121.523894669776
 21
162.5535752392929
 31
0.0
  0
LINE
  5
366
330
1F
100
AcDbEntity
  8
0
  6
Continuous
 62
     8
370
    15
100
AcDbLine
 10
121.6397402219919
 20
162.6343999205433
 30
0.0
 11
122.1262712581283
 21
161.5593097720071
 31
0.0
  0
LINE
  5
367
330
1F
100
AcDbEntity
  8
0
  6
Continuous
 62
     8
370
    15
100
AcDbLine
 10
122.0104257059123
 20
161.4784850907566
 30
0.0
 11
122.0033542549856
 21
161.4766548645803
 31
0.0
  0
LINE
  5
368
330
1F
100
AcDbEntity
  8
0
  6
Continuous
 62
     8
370
    15
100
AcDbLine
 10
127.6814286412545
 20
141.8408108591602
 30
0.0
 11
127.6743571903278
 21
141.8389806329838
 31
0.0
  0
LINE
  5
369
330
1F
100
AcDbEntity
  8
0
  6
Continuous
 62
     8
370
    15
100
AcDbLine
 10
127.976007041886
 20
139.4824418054662
 30
0.0
 11
127.6814286412545
 21
141.8408108591602
 31
0.0
  0
LINE
  5
36A
330
1F
100
AcDbEntity
  8
0
  6
Continuous
 62
     8
370
    15
100
AcDbLine
 10
127.6814286412545
 20
141.8408108591602
 30
0.0
 11
127.8903378923413
 21
141.837060550151
 31
0.0
  0
LINE
  5
36B
330
1F
100
AcDbEntity
  8
0
  6
Continuous
 62
     8
370
    15
100
AcDbLine
 10
127.8903378923413
 20
141.837060550151
 30
0.0
 11
128.1849162929727
 21
139.478691496457
 31
0.0
  0
LINE
  5
36C
330
1F
100
AcDbEntity
  8
0
  6
Continuous
 62
     8
370
    15
100
AcDbLine
 10
122.9976892904997
 20
160.1757118858561
 30
0.0
 11
121.9789285099123
 21
162.8497980539755
 31
0.0
  0
LINE
  5
36D
330
1F
100
AcDbEntity
  8
0
  6
Continuous
 62
     8
370
    15
100
AcDbLine
 10
122.9976892904997
 20
161.7211905825595
 30
0.0
 11
122.4688263548457
 21
163.109376434082
 31
0.0
  0
LINE
  5
36E
330
1F
100
AcDbEntity
  8
0
  6
Continuous
 62
     8
370
    15
100
AcDbLine
 10
128.5334238088616
 20
140.6814085324348
 30
0.0
 11
128.5263523579349
 21
140.6795783062584
 31
0.0
  0
LINE
  5
36F
330
1F
100
AcDbEntity
  8
0
  6
Continuous
 62
     8
370
    15
100
AcDbLine
 10
128.7529646024853
 20
139.5053479348761
 30
0.0
 11
128.5334238088616
 21
140.6814085324348
 31
0.0
  0
LINE
  5
370
330
1F
100
AcDbEntity
  8
0
  6
Continuous
 62
     8
370
    15
100
AcDbLine
 10
128.5334238088616
 20
140.6814085324348
 30
0.0
 11
128.670026354697
 21
140.6960487239634
 31
0.0
  0
LINE
  5
371
330
1F
100
AcDbEntity
  8
0
  6
Continuous
 62
     8
370
    15
100
AcDbLine
 10
128.670026354697
 20
140.6960487239634
 30
0.0
 11
128.8895671483206
 21
139.5199953231129
 31
0.0
  0
LINE
  5
372
330
1F
100
AcDbEntity
  8
0
  6
Continuous
 62
     8
370
    15
100
AcDbLine
 10
122.9976892904997
 20
162.7327850783595
 30
0.0
 11
122.8306340002539
 21
163.2654019263346
 31
0.0
  0
LINE
  5
373
330
1F
100
AcDbEntity
  8
0
  6
Continuous
 62
     8
370
    15
100
AcDbLine
 10
122.9588055300258
 20
163.313871749785
 30
0.0
 11
122.9976892904997
 21
163.1898983943322
 31
0.0
  0
LINE
  5
374
330
1F
100
AcDbEntity
  8
0
  6
Continuous
 62
     8
370
    15
100
AcDbLine
 10
129.4450840143907
 20
139.6137875133295
 30
0.0
 11
128.8648776561718
 21
141.9415431386655
 31
0.0
  0
LINE
  5
375
330
1F
100
AcDbEntity
  8
0
  6
Continuous
 62
     8
370
    15
100
AcDbLine
 10
128.8648776561718
 20
141.9415431386655
 30
0.0
 11
129.0642166091963
 21
141.9890562900816
 31
0.0
  0
LINE
  5
376
330
1F
100
AcDbEntity
  8
0
  6
Continuous
 62
     8
370
    15
100
AcDbLine
 10
129.0642166091963
 20
141.9890562900816
 30
0.0
 11
129.644422802779
 21
139.6613007073565
 31
0.0
  0
LINE
  5
377
330
1F
100
AcDbEntity
  8
0
  6
Continuous
 62
     8
370
    15
100
AcDbLine
 10
128.8648776561718
 20
141.9415431386655
 30
0.0
 11
128.8578062052451
 21
141.9397129124892
 31
0.0
  0
LINE
  5
378
330
1F
100
AcDbEntity
  8
0
  6
Continuous
 62
     8
370
    15
100
AcDbLine
 10
129.8232805276969
 20
140.9709551108209
 30
0.0
 11
129.9514520574688
 21
141.0194285326253
 31
0.0
  0
LINE
  5
379
330
1F
100
AcDbEntity
  8
0
  6
Continuous
 62
     8
370
    15
100
AcDbLine
 10
129.9514520574688
 20
141.0194285326253
 30
0.0
 11
130.3099340531117
 21
139.8764885080327
 31
0.0
  0
LINE
  5
37A
330
1F
100
AcDbEntity
  8
0
  6
Continuous
 62
     8
370
    15
100
AcDbLine
 10
130.1817625233398
 20
139.8280222829366
 30
0.0
 11
129.8232805276969
 21
140.9709551108209
 31
0.0
  0
LINE
  5
37B
330
1F
100
AcDbEntity
  8
0
  6
Continuous
 62
     8
370
    15
100
AcDbLine
 10
129.8232805276969
 20
140.9709551108209
 30
0.0
 11
129.8162090767701
 21
140.9691248846445
 31
0.0
  0
LINE
  5
37C
330
1F
100
AcDbEntity
  8
0
  6
Continuous
 62
     8
370
    15
100
AcDbLine
 10
129.9514520574688
 20
141.0194285326253
 30
0.0
 11
129.944380606542
 21
141.0175983064489
 31
0.0
  0
LINE
  5
37D
330
1F
100
AcDbEntity
  8
0
  6
Continuous
 62
     8
370
    15
100
AcDbLine
 10
129.3674030920458
 20
143.456201288262
 30
0.0
 11
130.67174169852
 21
140.0325140002854
 31
0.0
  0
LINE
  5
37E
330
1F
100
AcDbEntity
  8
0
  6
Continuous
 62
     8
370
    15
100
AcDbLine
 10
130.0206002186237
 20
143.2871414316974
 30
0.0
 11
131.1616395434534
 21
140.292095978746
 31
0.0
  0
LINE
  5
37F
330
1F
100
AcDbEntity
  8
0
  6
Continuous
 62
     8
370
    15
100
AcDbLine
 10
131.0142967952373
 20
141.5825806623604
 30
0.0
 11
131.1301423474533
 21
141.6634053436108
 31
0.0
  0
LINE
  5
380
330
1F
100
AcDbEntity
  8
0
  6
Continuous
 62
     8
370
    15
100
AcDbLine
 10
131.1301423474533
 20
141.6634053436108
 30
0.0
 11
131.6166733835897
 21
140.5883151950746
 31
0.0
  0
LINE
  5
381
330
1F
100
AcDbEntity
  8
0
  6
Continuous
 62
     8
370
    15
100
AcDbLine
 10
131.5008278313737
 20
140.5074905138241
 30
0.0
 11
131.0142967952373
 21
141.5825806623604
 31
0.0
  0
LINE
  5
382
330
1F
100
AcDbEntity
  8
0
  6
Continuous
 62
     8
370
    15
100
AcDbLine
 10
131.1301423474533
 20
141.6634053436108
 30
0.0
 11
131.1230708965266
 21
141.6615751174345
 31
0.0
  0
LINE
  5
383
330
1F
100
AcDbEntity
  8
0
  6
Continuous
 62
     8
370
    15
100
AcDbLine
 10
131.0142967952373
 20
141.5825806623604
 30
0.0
 11
131.0072253443106
 21
141.580750436184
 31
0.0
  0
LINE
  5
384
330
1F
100
AcDbEntity
  8
0
  6
Continuous
 62
     8
370
    15
100
AcDbLine
 10
130.988775561375
 20
143.0087943136842
 30
0.0
 11
131.0129978161953
 21
143.0302900331319
 31
0.0
  0
LINE
  5
385
330
1F
100
AcDbEntity
  8
0
  6
Continuous
 62
     8
370
    15
100
AcDbLine
 10
130.988775561375
 20
143.0087943136842
 30
0.0
 11
130.9817041104482
 21
143.0069640875079
 31
0.0
  0
LINE
  5
386
330
1F
100
AcDbEntity
  8
0
  6
Continuous
 62
     8
370
    15
100
AcDbLine
 10
132.0792067285829
 20
140.9513867305867
 30
0.0
 11
130.988775561375
 21
143.0087943136842
 31
0.0
  0
LINE
  5
387
330
1F
100
AcDbEntity
  8
0
  6
Continuous
 62
     8
370
    15
100
AcDbLine
 10
131.2486395291307
 20
142.9693014700036
 30
0.0
 11
132.2417088421005
 21
141.0955932908739
 31
0.0
  0
LINE
  5
388
330
1F
100
AcDbEntity
  8
0
  6
Continuous
 62
     8
370
    15
100
AcDbLine
 10
132.0702841090443
 20
142.4976994459739
 30
0.0
 11
132.1702837633092
 21
142.6084183496592
 31
0.0
  0
LINE
  5
389
330
1F
100
AcDbEntity
  8
0
  6
Continuous
 62
     8
370
    15
100
AcDbLine
 10
132.1702837633092
 20
142.6084183496592
 30
0.0
 11
132.7700808328238
 21
141.6338414107998
 31
0.0
  0
LINE
  5
38A
330
1F
100
AcDbEntity
  8
0
  6
Continuous
 62
     8
370
    15
100
AcDbLine
 10
132.6700808492866
 20
141.5231225923363
 30
0.0
 11
132.0702841090443
 21
142.4976994459739
 31
0.0
  0
LINE
  5
38B
330
1F
100
AcDbEntity
  8
0
  6
Continuous
 62
     8
370
    15
100
AcDbLine
 10
132.1702837633092
 20
142.6084183496592
 30
0.0
 11
132.1632123123824
 21
142.6065881234829
 31
0.0
  0
LINE
  5
38C
330
1F
100
AcDbEntity
  8
0
  6
Continuous
 62
     8
370
    15
100
AcDbLine
 10
132.0702841090443
 20
142.4976994459739
 30
0.0
 11
132.0632126581175
 21
142.4958692197976
 31
0.0
  0
LINE
  5
38D
330
1F
100
AcDbEntity
  8
0
  6
Continuous
 62
     8
370
    15
100
AcDbLine
 10
133.1642157695844
 20
142.1170033248548
 30
0.0
 11
132.8531832228306
 21
142.554015003375
 31
0.0
  0
LINE
  5
38E
330
1F
100
AcDbEntity
  8
0
  6
Continuous
 62
     8
370
    15
100
AcDbLine
 10
133.183202266294
 20
142.4685997896801
 30
0.0
 11
133.3005720197737
 21
142.303694195415
 31
0.0
  0
LWPOLYLINE
  5
38F
330
1F
100
AcDbEntity
  8
0
  6
Continuous
 62
     8
370
    15
100
AcDbPolyline
 90
       17
 70
   128
 43
0.0
 10
122.9890597232671
 20
155.4900018292719
 10
122.6597466395162
 20
155.2936017795304
 10
122.3866442807887
 20
154.9480682042216
 10
122.2113291960516
 20
154.5059963709272
 10
122.1604908771244
 20
154.0346888038115
 10
122.2418698561538
 20
153.605899396076
 10
122.4430762767668
 20
153.2849124890494
 10
122.733478599719
 20
153.1205892815539
 10
123.0688647809225
 20
153.1379453783962
 10
123.3981778646733
 20
153.3343454281377
 10
123.6712802234008
 20
153.6798862001548
 10
123.8465953081379
 20
154.1219580334492
 10
123.8974336270652
 20
154.5932584038567
 10
123.8160546480357
 20
155.0220478115922
 10
123.6148482274227
 20
155.3430347186187
 10
123.3244459044706
 20
155.5073579261142
 10
122.9890597232671
 20
155.4900018292719
  0
ARC
  5
390
330
1F
100
AcDbEntity
  8
0
  6
Continuous
 62
     8
370
    15
100
AcDbCircle
 10
123.5683849637026
 20
154.3506663778079
 30
0.0
 40
1.323600815814854
100
AcDbArc
 50
112.4973655338656
 51
152.2439601831118
  0
LWPOLYLINE
  5
391
330
1F
100
AcDbEntity
  8
0
  6
Continuous
 62
     8
370
    15
100
AcDbPolyline
 90
       15
 70
   128
 43
0.0
 10
122.1595741831693
 20
154.0494287102836
 10
122.1605712195543
 20
153.990393083269
 10
122.2490980406734
 20
153.5239365483649
 10
122.4679784787917
 20
153.1747574011491
 10
122.7838901818051
 20
152.9959933322087
 10
123.1487383272067
 20
153.0148791346297
 10
123.5069773199262
 20
153.2285316935629
 10
123.8040691379904
 20
153.604419153906
 10
123.9947849445912
 20
154.0853234485255
 10
124.0500881952826
 20
154.5980306173798
 10
123.9615613741635
 20
155.0644799555757
 10
123.7426809360453
 20
155.4136662994997
 10
123.4267692330319
 20
155.5924231717319
 10
123.0619210876303
 20
155.5735373693109
 10
123.0619210876303
 20
155.5735373693109
  0
LINE
  5
392
330
1F
100
AcDbEntity
  8
0
  6
Continuous
 62
     8
370
    15
100
AcDbLine
 10
123.640689513916
 20
154.5106947079524
 30
0.0
 11
123.3104847609013
 21
155.1297171966876
 31
0.0
  0
LINE
  5
393
330
1F
100
AcDbEntity
  8
0
  6
Continuous
 62
     8
370
    15
100
AcDbLine
 10
123.3104847609013
 20
155.1297171966876
 30
0.0
 11
122.6987574990801
 21
154.9329960925692
 31
0.0
  0
LINE
  5
394
330
1F
100
AcDbEntity
  8
0
  6
Continuous
 62
     8
370
    15
100
AcDbLine
 10
122.6987574990801
 20
154.9329960925692
 30
0.0
 11
122.4172349902736
 21
154.1172524997158
 31
0.0
  0
LINE
  5
395
330
1F
100
AcDbEntity
  8
0
  6
Continuous
 62
     8
370
    15
100
AcDbLine
 10
122.4172349902736
 20
154.1172524997158
 30
0.0
 11
122.7474397432882
 21
153.4982300109806
 31
0.0
  0
LINE
  5
396
330
1F
100
AcDbEntity
  8
0
  6
Continuous
 62
     8
370
    15
100
AcDbLine
 10
122.7474397432882
 20
153.4982300109806
 30
0.0
 11
123.3591670051094
 21
153.6949511150989
 31
0.0
  0
LINE
  5
397
330
1F
100
AcDbEntity
  8
0
  6
Continuous
 62
     8
370
    15
100
AcDbLine
 10
123.3591670051094
 20
153.6949511150989
 30
0.0
 11
123.640689513916
 21
154.5106947079524
 31
0.0
  0
LINE
  5
398
330
1F
100
AcDbEntity
  8
0
  6
Continuous
 62
     8
370
    15
100
AcDbLine
 10
123.5302140628903
 20
154.7177992986797
 30
0.0
 11
122.6987574990801
 21
154.9329960925692
 31
0.0
  0
LINE
  5
399
330
1F
100
AcDbEntity
  8
0
  6
Continuous
 62
     8
370
    15
100
AcDbLine
 10
123.4157208318215
 20
153.8588253476579
 30
0.0
 11
122.4172349902736
 21
154.1172524997158
 31
0.0
  0
LINE
  5
39A
330
1F
100
AcDbEntity
  8
0
  6
Continuous
 62
     8
370
    15
100
AcDbLine
 10
122.9976892904997
 20
208.4139146841272
 30
0.0
 11
122.9976892904997
 21
157.6681339482602
 31
0.0
  0
LINE
  5
39B
330
1F
100
AcDbEntity
  8
0
  6
Continuous
 62
     8
370
    15
100
AcDbLine
 10
122.9976892904997
 20
208.4139146841272
 30
0.0
 11
108.8579504263346
 21
204.792405174294
 31
0.0
  0
LINE
  5
39C
330
1F
100
AcDbEntity
  8
0
  6
Continuous
 62
     8
370
    15
100
AcDbLine
 10
108.8140274832857
 20
212.605154764044
 30
0.0
 11
108.8579504263346
 21
204.792405174294
 31
0.0
  0
LINE
  5
39D
330
1F
100
AcDbEntity
  8
0
  6
Continuous
 62
     8
370
    15
100
AcDbLine
 10
108.8140274832857
 20
213.6163759306051
 30
0.0
 11
108.8140274832857
 21
212.605154764044
 31
0.0
  0
LINE
  5
39E
330
1F
100
AcDbEntity
  8
0
  6
Continuous
 62
     8
370
    15
100
AcDbLine
 10
108.8140274832857
 20
213.6163759306051
 30
0.0
 11
128.7552451421164
 21
218.5818882771003
 31
0.0
  0
LINE
  5
39F
330
1F
100
AcDbEntity
  8
0
  6
Continuous
 62
     8
370
    15
100
AcDbLine
 10
128.7552451421164
 20
218.5818882771003
 30
0.0
 11
128.7552451421164
 21
146.6204163667822
 31
0.0
  0
LINE
  5
3A0
330
1F
100
AcDbEntity
  8
0
  6
Continuous
 62
     8
370
    15
100
AcDbLine
 10
128.7552451421164
 20
146.6204163667822
 30
0.0
 11
122.9976892904997
 21
145.104804426083
 31
0.0
  0
LINE
  5
3A1
330
1F
100
AcDbEntity
  8
0
  6
Continuous
 62
     8
370
    15
100
AcDbLine
 10
122.9976892904997
 20
150.9760013355231
 30
0.0
 11
122.9976892904997
 21
145.104804426083
 31
0.0
  0
ELLIPSE
  5
3A2
330
1F
100
AcDbEntity
  8
0
  6
Continuous
 62
     8
370
    15
100
AcDbEllipse
 10
122.6422849003906
 20
150.8849760908627
 30
0.0
 11
0.1265221862570343
 21
0.4837282346221628
 31
0.0
210
0.0
220
0.0
230
1.0
 40
0.6865865952806915
 41
5.076367353200119
 42
5.440352370596793
  0
LINE
  5
3A3
330
1F
100
AcDbEntity
  8
0
  6
Continuous
 62
     8
370
    15
100
AcDbLine
 10
122.9681278860809
 20
152.7695354805556
 30
0.0
 11
122.9744057908755
 21
151.1419744017945
 31
0.0
  0
ELLIPSE
  5
3A4
330
1F
100
AcDbEntity
  8
0
  6
Continuous
 62
     8
370
    15
100
AcDbEllipse
 10
122.9976895091256
 20
154.3220685262427
 30
0.0
 11
0.4048709960224529
 21
1.547930350790892
 31
0.0
210
0.0
220
0.0
230
1.0
 40
0.6865865952806804
 41
3.479575446736217
 42
6.68363089806035
  0
LINE
  5
3A5
330
1F
100
AcDbEntity
  8
0
  6
Continuous
 62
     8
370
    15
100
AcDbLine
 10
122.9502128412857
 20
157.4148194761809
 30
0.0
 11
122.9562246940991
 21
155.8559043899545
 31
0.0
  0
ELLIPSE
  5
3A6
330
1F
100
AcDbEntity
  8
0
  6
Continuous
 62
     8
370
    15
100
AcDbEllipse
 10
122.6422849003906
 20
157.5771065207539
 30
0.0
 11
0.1265221862570201
 21
0.4837282346221345
 31
0.0
210
0.0
220
0.0
230
1.0
 40
0.6865865952807212
 41
4.553545610115355
 42
5.076367353200123
  0
LINE
  5
3A7
330
1F
100
AcDbEntity
  8
0
  6
Continuous
 62
     8
370
    15
100
AcDbLine
 10
127.5190876241873
 20
144.7050411929874
 30
0.0
 11
129.0722938222229
 21
145.1181522555011
 31
0.0
  0
LINE
  5
3A8
330
1F
100
AcDbEntity
  8
0
  6
Continuous
 62
     8
370
    15
100
AcDbLine
 10
129.0722938222229
 20
145.1181522555011
 30
0.0
 11
129.6700974775118
 21
145.1352439540365
 31
0.0
  0
LINE
  5
3A9
330
1F
100
AcDbEntity
  8
0
  6
Continuous
 62
     8
370
    15
100
AcDbLine
 10
129.6700974775118
 20
145.1352439540365
 30
0.0
 11
127.7894892918875
 21
144.6350560915591
 31
0.0
  0
LINE
  5
3AA
330
1F
100
AcDbEntity
  8
0
  6
Continuous
 62
     8
370
    15
100
AcDbLine
 10
127.7894892918875
 20
144.6350560915591
 30
0.0
 11
128.3536788598554
 21
144.4890330863209
 31
0.0
  0
LINE
  5
3AB
330
1F
100
AcDbEntity
  8
0
  6
Continuous
 62
     8
370
    15
100
AcDbLine
 10
128.3536788598554
 20
144.4890330863209
 30
0.0
 11
131.1275736946
 21
145.2292429656725
 31
0.0
  0
LINE
  5
3AC
330
1F
100
AcDbEntity
  8
0
  6
Continuous
 62
     8
370
    15
100
AcDbLine
 10
131.1275736946
 20
145.2292429656725
 30
0.0
 11
130.5739807663099
 21
145.372523358748
 31
0.0
  0
LINE
  5
3AD
330
1F
100
AcDbEntity
  8
0
  6
Continuous
 62
     8
370
    15
100
AcDbLine
 10
130.5739807663099
 20
145.372523358748
 30
0.0
 11
129.3308729696435
 21
145.3265976114025
 31
0.0
  0
LINE
  5
3AE
330
1F
100
AcDbEntity
  8
0
  6
Continuous
 62
     8
370
    15
100
AcDbLine
 10
129.3308729696435
 20
145.3265976114025
 30
0.0
 11
129.4893286564318
 21
145.6532519820951
 31
0.0
  0
LINE
  5
3AF
330
1F
100
AcDbEntity
  8
0
  6
Continuous
 62
     8
370
    15
100
AcDbLine
 10
129.4893286564318
 20
145.6532519820951
 30
0.0
 11
128.9365885432796
 21
145.796311650371
 31
0.0
  0
LINE
  5
3B0
330
1F
100
AcDbEntity
  8
0
  6
Continuous
 62
     8
370
    15
100
AcDbLine
 10
128.9365885432796
 20
145.796311650371
 30
0.0
 11
126.1528277239888
 21
145.0586552757186
 31
0.0
  0
LINE
  5
3B1
330
1F
100
AcDbEntity
  8
0
  6
Continuous
 62
     8
370
    15
100
AcDbLine
 10
126.1528277239888
 20
145.0586552757186
 30
0.0
 11
126.7173827841587
 21
144.9125376741377
 31
0.0
  0
LINE
  5
3B2
330
1F
100
AcDbEntity
  8
0
  6
Continuous
 62
     8
370
    15
100
AcDbLine
 10
126.7173827841587
 20
144.9125376741377
 30
0.0
 11
128.597990969783
 21
145.4127255366151
 31
0.0
  0
LINE
  5
3B3
330
1F
100
AcDbEntity
  8
0
  6
Continuous
 62
     8
370
    15
100
AcDbLine
 10
128.597990969783
 20
145.4127255366151
 30
0.0
 11
128.5409909791668
 21
145.2556635500011
 31
0.0
  0
LINE
  5
3B4
330
1F
100
AcDbEntity
  8
0
  6
Continuous
 62
     8
370
    15
100
AcDbLine
 10
128.5409909791668
 20
145.2556635500011
 30
0.0
 11
126.9877847811312
 21
144.8425524874875
 31
0.0
  0
LINE
  5
3B5
330
1F
100
AcDbEntity
  8
0
  6
Continuous
 62
     8
370
    15
100
AcDbLine
 10
126.9877847811312
 20
144.8425524874875
 30
0.0
 11
127.5190876241873
 21
144.7050411929874
 31
0.0
  0
LINE
  5
3B6
330
1F
100
AcDbEntity
  8
0
  6
Continuous
 62
     8
370
    15
100
AcDbLine
 10
122.9976892904997
 20
145.104804426083
 30
0.0
 11
137.1998048319163
 21
141.4290264432179
 31
0.0
  0
LINE
  5
3B7
330
1F
100
AcDbEntity
  8
0
  6
Continuous
 62
     8
370
    15
100
AcDbLine
 10
142.897380449746
 20
142.9601624107509
 30
0.0
 11
128.7552451421164
 21
146.6204163667822
 31
0.0
  0
LINE
  5
3B8
330
1F
100
AcDbEntity
  8
0
  6
Continuous
 62
     8
370
    15
100
AcDbLine
 10
137.1998048319163
 20
141.4290264432179
 30
0.0
 11
142.897380449746
 21
142.9601624107509
 31
0.0
  0
SPLINE
  5
3B9
330
1F
100
AcDbEntity
  8
0
  6
Continuous
 62
     8
370
    15
100
AcDbSpline
210
0.0
220
0.0
230
1.0
 70
     8
 71
     3
 72
    12
 73
     8
 74
     0
 42
0.000000001
 43
0.00000001
 40
0.0
 40
0.0
 40
0.0
 40
0.0
 40
0.2949158815898359
 40
0.5512905834462218
 40
0.685137501827339
 40
0.8310721373506689
 40
1.0
 40
1.0
 40
1.0
 40
1.0
 10
129.1887584062763
 20
144.2567945993647
 30
0.0
 10
129.0922875005908
 20
144.2848477755475
 30
0.0
 10
128.9119530215038
 20
144.3372879892856
 30
0.0
 10
128.815792794978
 20
144.425578827504
 30
0.0
 10
128.8567999237299
 20
144.4943865121848
 30
0.0
 10
128.9513507269444
 20
144.5475602708232
 30
0.0
 10
129.0548058869792
 20
144.5779617511633
 30
0.0
 10
129.1103109381242
 20
144.5942725443668
 30
0.0
  0
SPLINE
  5
3BA
330
1F
100
AcDbEntity
  8
0
  6
Continuous
 62
     8
370
    15
100
AcDbSpline
210
0.0
220
0.0
230
1.0
 70
     8
 71
     3
 72
    12
 73
     8
 74
     0
 42
0.000000001
 43
0.00000001
 40
0.0
 40
0.0
 40
0.0
 40
0.0
 40
0.2101102933435012
 40
0.3877229051525285
 40
0.555323891375015
 40
0.7643110238656848
 40
1.0
 40
1.0
 40
1.0
 40
1.0
 10
130.4760835153868
 20
144.2407845900925
 30
0.0
 10
130.3985786566345
 20
144.2225466433573
 30
0.0
 10
130.2555565870317
 20
144.1888916063782
 30
0.0
 10
129.9912672530077
 20
144.1643826372984
 30
0.0
 10
129.7157699233846
 20
144.1673674712993
 30
0.0
 10
129.435958693956
 20
144.1989365936803
 30
0.0
 10
129.2743924048581
 20
144.2367516923632
 30
0.0
 10
129.1887584062763
 20
144.2567945993647
 30
0.0
  0
LINE
  5
3BB
330
1F
100
AcDbEntity
  8
0
  6
Continuous
 62
     8
370
    15
100
AcDbLine
 10
130.4760835153868
 20
144.2407845900925
 30
0.0
 11
131.4422078212679
 21
144.4977448002816
 31
0.0
  0
SPLINE
  5
3BC
330
1F
100
AcDbEntity
  8
0
  6
Continuous
 62
     8
370
    15
100
AcDbSpline
210
0.0
220
0.0
230
1.0
 70
     8
 71
     3
 72
    12
 73
     8
 74
     0
 42
0.000000001
 43
0.00000001
 40
0.0
 40
0.0
 40
0.0
 40
0.0
 40
0.2945964234950857
 40
0.5509999187794087
 40
0.6849418689001832
 40
0.8309835957488416
 40
1.0
 40
1.0
 40
1.0
 40
1.0
 10
131.3646105340755
 20
144.8355058525364
 30
0.0
 10
131.4610130861083
 20
144.8074540550602
 30
0.0
 10
131.6413200895336
 20
144.7549872330004
 30
0.0
 10
131.7371819574103
 20
144.6666352918224
 30
0.0
 10
131.6960411847716
 20
144.5977598412342
 30
0.0
 10
131.6013631671534
 20
144.5445172080958
 30
0.0
 10
131.4977774955938
 20
144.5140755584802
 30
0.0
 10
131.4422078212679
 20
144.4977448002816
 30
0.0
  0
SPLINE
  5
3BD
330
1F
100
AcDbEntity
  8
0
  6
Continuous
 62
     8
370
    15
100
AcDbSpline
210
0.0
220
0.0
230
1.0
 70
     8
 71
     3
 72
    12
 73
     8
 74
     0
 42
0.000000001
 43
0.00000001
 40
0.0
 40
0.0
 40
0.0
 40
0.0
 40
0.2102204371388592
 40
0.3878899118780293
 40
0.555453513340214
 40
0.7643369221291366
 40
0.9999999999999999
 40
0.9999999999999999
 40
0.9999999999999999
 40
0.9999999999999999
 10
130.0764352440053
 20
144.8512327545559
 30
0.0
 10
130.1540166512503
 20
144.8694907951427
 30
0.0
 10
130.2971666019839
 20
144.9031797639732
 30
0.0
 10
130.5615614867973
 20
144.9277999471966
 30
0.0
 10
130.8372313236988
 20
144.9249227386123
 30
0.0
 10
131.1172825940771
 20
144.8933957843981
 30
0.0
 10
131.2789221424051
 20
144.8555622002146
 30
0.0
 10
131.3646105340755
 20
144.8355058525364
 30
0.0
  0
LINE
  5
3BE
330
1F
100
AcDbEntity
  8
0
  6
Continuous
 62
     8
370
    15
100
AcDbLine
 10
130.0764352440053
 20
144.8512327545559
 30
0.0
 11
129.1103109381242
 21
144.5942725443668
 31
0.0
  0
LINE
  5
3BF
330
1F
100
AcDbEntity
  8
0
  6
Continuous
 62
     8
370
    15
100
AcDbLine
 10
130.9243229871981
 20
143.8239608816057
 30
0.0
 11
131.4725564950665
 21
143.682067608606
 31
0.0
  0
LINE
  5
3C0
330
1F
100
AcDbEntity
  8
0
  6
Continuous
 62
     8
370
    15
100
AcDbLine
 10
131.4725564950665
 20
143.682067608606
 30
0.0
 11
134.2493752674264
 21
144.4206241063766
 31
0.0
  0
LINE
  5
3C1
330
1F
100
AcDbEntity
  8
0
  6
Continuous
 62
     8
370
    15
100
AcDbLine
 10
134.2493752674264
 20
144.4206241063766
 30
0.0
 11
133.6778774812016
 21
144.5685386176854
 31
0.0
  0
LINE
  5
3C2
330
1F
100
AcDbEntity
  8
0
  6
Continuous
 62
     8
370
    15
100
AcDbLine
 10
133.6778774812016
 20
144.5685386176854
 30
0.0
 11
132.8272197351722
 21
144.3422837769954
 31
0.0
  0
SPLINE
  5
3C3
330
1F
100
AcDbEntity
  8
0
  6
Continuous
 62
     8
370
    15
100
AcDbSpline
210
0.0
220
0.0
230
1.0
 70
     8
 71
     3
 72
    11
 73
     7
 74
     0
 42
0.000000001
 43
0.00000001
 40
0.0
 40
0.0
 40
0.0
 40
0.0
 40
0.3410919473459152
 40
0.6136035345262544
 40
0.8039966130527878
 40
1.0
 40
1.0
 40
1.0
 40
1.0
 10
132.6470705633151
 20
144.5046041934582
 30
0.0
 10
132.7019565288165
 20
144.4895566436784
 30
0.0
 10
132.8006930211012
 20
144.4624870227074
 30
0.0
 10
132.8792103671674
 20
144.41680650179
 30
0.0
 10
132.884681325218
 20
144.3752482536144
 30
0.0
 10
132.8465581093519
 20
144.3533777857583
 30
0.0
 10
132.8272197351722
 20
144.3422837769954
 30
0.0
  0
SPLINE
  5
3C4
330
1F
100
AcDbEntity
  8
0
  6
Continuous
 62
     8
370
    15
100
AcDbSpline
210
0.0
220
0.0
230
1.0
 70
     8
 71
     3
 72
    11
 73
     7
 74
     0
 42
0.000000001
 43
0.00000001
 40
0.0
 40
0.0
 40
0.0
 40
0.0
 40
0.3097701773618864
 40
0.5784314468730101
 40
0.7830808801211933
 40
1.0
 40
1.0
 40
1.0
 40
1.0
 10
131.7855670008295
 20
144.4964484168217
 30
0.0
 10
131.8657963480397
 20
144.5121813358216
 30
0.0
 10
132.0156079851177
 20
144.5415592933066
 30
0.0
 10
132.2712098521278
 20
144.5521419329952
 30
0.0
 10
132.4888541958941
 20
144.5380640397758
 30
0.0
 10
132.5933183036829
 20
144.5159718058983
 30
0.0
 10
132.6470705633151
 20
144.5046041934582
 30
0.0
  0
LINE
  5
3C5
330
1F
100
AcDbEntity
  8
0
  6
Continuous
 62
     8
370
    15
100
AcDbLine
 10
131.7855670008295
 20
144.4964484168217
 30
0.0
 11
130.4822968828196
 21
144.1498103555153
 31
0.0
  0
SPLINE
  5
3C6
330
1F
100
AcDbEntity
  8
0
  6
Continuous
 62
     8
370
    15
100
AcDbSpline
210
0.0
220
0.0
230
1.0
 70
     8
 71
     3
 72
    11
 73
     7
 74
     0
 42
0.000000001
 43
0.00000001
 40
0.0
 40
0.0
 40
0.0
 40
0.0
 40
0.271622902943746
 40
0.5313905143832174
 40
0.7509788408140602
 40
1.0
 40
1.0
 40
1.0
 40
1.0
 10
130.4622042782907
 20
143.9234951343472
 30
0.0
 10
130.4074956580189
 20
143.9413555165366
 30
0.0
 10
130.3004662376264
 20
143.9762967441573
 30
0.0
 10
130.277347735394
 20
144.0417082868487
 30
0.0
 10
130.3436007157483
 20
144.1012620095801
 30
0.0
 10
130.4341686701396
 20
144.1329638545069
 30
0.0
 10
130.4822968828196
 20
144.1498103555153
 30
0.0
  0
SPLINE
  5
3C7
330
1F
100
AcDbEntity
  8
0
  6
Continuous
 62
     8
370
    15
100
AcDbSpline
210
0.0
220
0.0
230
1.0
 70
     8
 71
     3
 72
    11
 73
     7
 74
     0
 42
0.000000001
 43
0.00000001
 40
0.0
 40
0.0
 40
0.0
 40
0.0
 40
0.274606092687894
 40
0.5360608339945109
 40
0.7547195587042161
 40
1.0
 40
1.0
 40
1.0
 40
1.0
 10
131.1333344773196
 20
143.8795539512041
 30
0.0
 10
131.0678076763226
 20
143.8744293880335
 30
0.0
 10
130.9398922639309
 20
143.8644256857115
 30
0.0
 10
130.7517539764756
 20
143.8723085648834
 30
0.0
 10
130.5912653539353
 20
143.8930389939742
 30
0.0
 10
130.5068394762778
 20
143.9129620138949
 30
0.0
 10
130.4622042782907
 20
143.9234951343472
 30
0.0
  0
LINE
  5
3C8
330
1F
100
AcDbEntity
  8
0
  6
Continuous
 62
     8
370
    15
100
AcDbLine
 10
131.1333344773196
 20
143.8795539512041
 30
0.0
 11
130.9243229871981
 21
143.8239608816057
 31
0.0
  0
LINE
  5
3C9
330
1F
100
AcDbEntity
  8
0
  6
Continuous
 62
     8
370
    15
100
AcDbLine
 10
132.5261494439399
 20
143.4104011087237
 30
0.0
 11
133.0564778880784
 21
143.2731420072211
 31
0.0
  0
LINE
  5
3CA
330
1F
100
AcDbEntity
  8
0
  6
Continuous
 62
     8
370
    15
100
AcDbLine
 10
133.0564778880784
 20
143.2731420072211
 30
0.0
 11
135.1548641083146
 21
143.8312494616363
 31
0.0
  0
LINE
  5
3CB
330
1F
100
AcDbEntity
  8
0
  6
Continuous
 62
     8
370
    15
100
AcDbLine
 10
135.1548641083146
 20
143.8312494616363
 30
0.0
 11
134.6010277655108
 21
143.9745928550239
 31
0.0
  0
LINE
  5
3CC
330
1F
100
AcDbEntity
  8
0
  6
Continuous
 62
     8
370
    15
100
AcDbLine
 10
134.6010277655108
 20
143.9745928550239
 30
0.0
 11
133.2522048067947
 21
143.6158481958226
 31
0.0
  0
SPLINE
  5
3CD
330
1F
100
AcDbEntity
  8
0
  6
Continuous
 62
     8
370
    15
100
AcDbSpline
210
0.0
220
0.0
230
1.0
 70
     8
 71
     3
 72
    14
 73
    10
 74
     0
 42
0.000000001
 43
0.00000001
 40
0.0
 40
0.0
 40
0.0
 40
0.0
 40
0.0585318657476998
 40
0.1243325132001526
 40
0.1989416702324135
 40
0.2849017049147388
 40
0.3855835436031172
 40
0.640804792485027
 40
1.0
 40
1.0
 40
1.0
 40
1.0
 10
132.807995380418
 20
143.576769323634
 30
0.0
 10
132.8155662636192
 20
143.5750798165507
 30
0.0
 10
132.831648220405
 20
143.5714909908905
 30
0.0
 10
132.8630104137461
 20
143.5679323754592
 30
0.0
 10
132.9009265109666
 20
143.5659322722567
 30
0.0
 10
132.9457759962837
 20
143.5662028609846
 30
0.0
 10
133.0197762895877
 20
143.5705450820499
 30
0.0
 10
133.1302178687989
 20
143.5857630616048
 30
0.0
 10
133.2072000835239
 20
143.6047488669741
 30
0.0
 10
133.2522048067947
 20
143.6158481958226
 30
0.0
  0
SPLINE
  5
3CE
330
1F
100
AcDbEntity
  8
0
  6
Continuous
 62
     8
370
    15
100
AcDbSpline
210
0.0
220
0.0
230
1.0
 70
     8
 71
     3
 72
    13
 73
     9
 74
     0
 42
0.000000001
 43
0.00000001
 40
0.0
 40
0.0
 40
0.0
 40
0.0
 40
0.3483567287838279
 40
0.5958898734953396
 40
0.6956788570728005
 40
0.7902027504062269
 40
0.8890175515207941
 40
0.9999999999999999
 40
0.9999999999999999
 40
0.9999999999999999
 40
0.9999999999999999
 10
132.8869209107239
 20
143.6583568226449
 30
0.0
 10
132.8577768939775
 20
143.650232406517
 30
0.0
 10
132.8079239041621
 20
143.6363349936103
 30
0.0
 10
132.765492270664
 20
143.6163818300104
 30
0.0
 10
132.758314095264
 20
143.6022300234861
 30
0.0
 10
132.7647223113481
 20
143.5929347576301
 30
0.0
 10
132.7816199270083
 20
143.5842287467705
 30
0.0
 10
132.7988700759902
 20
143.5793501136556
 30
0.0
 10
132.807995380418
 20
143.576769323634
 30
0.0
  0
LINE
  5
3CF
330
1F
100
AcDbEntity
  8
0
  6
Continuous
 62
     8
370
    15
100
AcDbLine
 10
132.8869209107239
 20
143.6583568226449
 30
0.0
 11
134.3348890622059
 21
144.0434746200781
 31
0.0
  0
LINE
  5
3D0
330
1F
100
AcDbEntity
  8
0
  6
Continuous
 62
     8
370
    15
100
AcDbLine
 10
134.3348890622059
 20
144.0434746200781
 30
0.0
 11
133.7814180572576
 21
144.1867234570707
 31
0.0
  0
LINE
  5
3D1
330
1F
100
AcDbEntity
  8
0
  6
Continuous
 62
     8
370
    15
100
AcDbLine
 10
133.7814180572576
 20
144.1867234570707
 30
0.0
 11
132.1375935007456
 21
143.7495181305159
 31
0.0
  0
SPLINE
  5
3D2
330
1F
100
AcDbEntity
  8
0
  6
Continuous
 62
     8
370
    15
100
AcDbSpline
210
0.0
220
0.0
230
1.0
 70
     8
 71
     3
 72
    11
 73
     7
 74
     0
 42
0.000000001
 43
0.00000001
 40
0.0
 40
0.0
 40
0.0
 40
0.0
 40
0.2629235733150628
 40
0.5087911125749185
 40
0.7264079977348717
 40
1.0
 40
1.0
 40
1.0
 40
1.0
 10
132.0703650277007
 20
143.5125150568544
 30
0.0
 10
132.0141565386241
 20
143.5309509683588
 30
0.0
 10
131.9053858440347
 20
143.566626841037
 30
0.0
 10
131.8737192417024
 20
143.6343027740535
 30
0.0
 10
131.9629246869252
 20
143.6978420686455
 30
0.0
 10
132.0751092762231
 20
143.7310320677682
 30
0.0
 10
132.1375935007456
 20
143.7495181305159
 30
0.0
  0
SPLINE
  5
3D3
330
1F
100
AcDbEntity
  8
0
  6
Continuous
 62
     8
370
    15
100
AcDbSpline
210
0.0
220
0.0
230
1.0
 70
     8
 71
     3
 72
    11
 73
     7
 74
     0
 42
0.000000001
 43
0.00000001
 40
0.0
 40
0.0
 40
0.0
 40
0.0
 40
0.2930496245104856
 40
0.5617008824935619
 40
0.7735287060847145
 40
0.9999999999999999
 40
0.9999999999999999
 40
0.9999999999999999
 40
0.9999999999999999
 10
132.7283384129588
 20
143.4641780029675
 30
0.0
 10
132.6584608849411
 20
143.4607958847395
 30
0.0
 10
132.5245236065037
 20
143.4543132325383
 30
0.0
 10
132.3383939530067
 20
143.4635219003624
 30
0.0
 10
132.1857033070864
 20
143.4836762222982
 30
0.0
 10
132.1096580060307
 20
143.5026903593878
 30
0.0
 10
132.0703650277007
 20
143.5125150568544
 30
0.0
  0
LINE
  5
3D4
330
1F
100
AcDbEntity
  8
0
  6
Continuous
 62
     8
370
    15
100
AcDbLine
 10
132.7283384129588
 20
143.4641780029675
 30
0.0
 11
132.5261494439399
 21
143.4104011087237
 31
0.0
  0
LINE
  5
3D5
330
1F
100
AcDbEntity
  8
0
  6
Continuous
 62
     8
370
    15
100
AcDbLine
 10
135.4993395208172
 20
143.1447001262595
 30
0.0
 11
136.3127371478572
 21
142.9341773291403
 31
0.0
  0
LINE
  5
3D6
330
1F
100
AcDbEntity
  8
0
  6
Continuous
 62
     8
370
    15
100
AcDbLine
 10
136.3127371478572
 20
142.9341773291403
 30
0.0
 11
136.8640073896676
 21
143.0808003628233
 31
0.0
  0
SPLINE
  5
3D7
330
1F
100
AcDbEntity
  8
0
  6
Continuous
 62
     8
370
    15
100
AcDbSpline
210
0.0
220
0.0
230
1.0
 70
     8
 71
     3
 72
    13
 73
     9
 74
     0
 42
0.000000001
 43
0.00000001
 40
0.0
 40
0.0
 40
0.0
 40
0.0
 40
0.2066778267371521
 40
0.3833352425650455
 40
0.5447522070347443
 40
0.6761823818848892
 40
0.8246047921045533
 40
1.0
 40
1.0
 40
1.0
 40
1.0
 10
136.841951087734
 20
143.4222175750958
 30
0.0
 10
136.912105628583
 20
143.4025421336331
 30
0.0
 10
137.0422246082431
 20
143.3660491520457
 30
0.0
 10
137.1682002578551
 20
143.3020091725516
 30
0.0
 10
137.1983045777073
 20
143.2396121302771
 30
0.0
 10
137.1449487196416
 20
143.1825473701475
 30
0.0
 10
137.0336537353997
 20
143.1294604725476
 30
0.0
 10
136.9236115394972
 20
143.0978967786536
 30
0.0
 10
136.8640073896676
 20
143.0808003628233
 30
0.0
  0
SPLINE
  5
3D8
330
1F
100
AcDbEntity
  8
0
  6
Continuous
 62
     8
370
    15
100
AcDbSpline
210
0.0
220
0.0
230
1.0
 70
     8
 71
     3
 72
    13
 73
     9
 74
     0
 42
0.000000001
 43
0.00000001
 40
0.0
 40
0.0
 40
0.0
 40
0.0
 40
0.1747405213046962
 40
0.321268706494615
 40
0.4508161244599391
 40
0.5745687965012087
 40
0.776401608526032
 40
1.0
 40
1.0
 40
1.0
 40
1.0
 10
135.5346539700578
 20
143.4309943116626
 30
0.0
 10
135.5992053764736
 20
143.4467394661482
 30
0.0
 10
135.717886187809
 20
143.4756876767714
 30
0.0
 10
135.9209510169747
 20
143.5036509220944
 30
0.0
 10
136.1193515572015
 20
143.514822310181
 30
0.0
 10
136.3481907709505
 20
143.509275317191
 30
0.0
 10
136.6025790230483
 20
143.4790367877283
 30
0.0
 10
136.7594845730448
 20
143.4417924675935
 30
0.0
 10
136.841951087734
 20
143.4222175750958
 30
0.0
  0
LINE
  5
3D9
330
1F
100
AcDbEntity
  8
0
  6
Continuous
 62
     8
370
    15
100
AcDbLine
 10
135.5346539700578
 20
143.4309943116626
 30
0.0
 11
134.5582958825226
 21
143.1713134367958
 31
0.0
  0
SPLINE
  5
3DA
330
1F
100
AcDbEntity
  8
0
  6
Continuous
 62
     8
370
    15
100
AcDbSpline
210
0.0
220
0.0
230
1.0
 70
     8
 71
     3
 72
    11
 73
     7
 74
     0
 42
0.000000001
 43
0.00000001
 40
0.0
 40
0.0
 40
0.0
 40
0.0
 40
0.3018053873788334
 40
0.5727925414780157
 40
0.7791179341814478
 40
1.0
 40
1.0
 40
1.0
 40
1.0
 10
134.6539211548932
 20
142.840260916845
 30
0.0
 10
134.5615363463403
 20
142.8687794981408
 30
0.0
 10
134.3862004129942
 20
142.9229045447535
 30
0.0
 10
134.3010544893425
 20
143.0198667626917
 30
0.0
 10
134.3625547348599
 20
143.107786322116
 30
0.0
 10
134.4915833259427
 20
143.1496621065413
 30
0.0
 10
134.5582958825226
 20
143.1713134367958
 30
0.0
  0
SPLINE
  5
3DB
330
1F
100
AcDbEntity
  8
0
  6
Continuous
 62
     8
370
    15
100
AcDbSpline
210
0.0
220
0.0
230
1.0
 70
     8
 71
     3
 72
    12
 73
     8
 74
     0
 42
0.000000001
 43
0.00000001
 40
0.0
 40
0.0
 40
0.0
 40
0.0
 40
0.1903490688415483
 40
0.3599496964638624
 40
0.5276124991754882
 40
0.7448852049723903
 40
1.0
 40
1.0
 40
1.0
 40
1.0
 10
135.8610994217486
 20
142.8140535621461
 30
0.0
 10
135.7949558864571
 20
142.7987064861557
 30
0.0
 10
135.6698785976838
 20
142.7696851971209
 30
0.0
 10
135.433487120512
 20
142.7489534068501
 30
0.0
 10
135.1760764042936
 20
142.7520100273247
 30
0.0
 10
134.9016707067772
 20
142.7824316034531
 30
0.0
 10
134.7408000231902
 20
142.8199817871203
 30
0.0
 10
134.6539211548932
 20
142.840260916845
 30
0.0
  0
LINE
  5
3DC
330
1F
100
AcDbEntity
  8
0
  6
Continuous
 62
     8
370
    15
100
AcDbLine
 10
135.8610994217486
 20
142.8140535621461
 30
0.0
 11
136.1595096459179
 21
142.8934252337555
 31
0.0
  0
LINE
  5
3DD
330
1F
100
AcDbEntity
  8
0
  6
Continuous
 62
     8
370
    15
100
AcDbLine
 10
136.1595096459179
 20
142.8934252337555
 30
0.0
 11
135.6424577060145
 21
143.0272481231097
 31
0.0
  0
LINE
  5
3DE
330
1F
100
AcDbEntity
  8
0
  6
Continuous
 62
     8
370
    15
100
AcDbLine
 10
135.6424577060145
 20
143.0272481231097
 30
0.0
 11
135.3813184668191
 21
142.9577891704453
 31
0.0
  0
SPLINE
  5
3DF
330
1F
100
AcDbEntity
  8
0
  6
Continuous
 62
     8
370
    15
100
AcDbSpline
210
0.0
220
0.0
230
1.0
 70
     8
 71
     3
 72
    12
 73
     8
 74
     0
 42
0.000000001
 43
0.00000001
 40
0.0
 40
0.0
 40
0.0
 40
0.0
 40
0.1778652272485819
 40
0.3376176636224144
 40
0.4961267142835741
 40
0.7138426168374543
 40
0.9999999999999999
 40
0.9999999999999999
 40
0.9999999999999999
 40
0.9999999999999999
 10
135.0530610299145
 20
142.9483992516427
 30
0.0
 10
135.0697067491541
 20
142.9445032484769
 30
0.0
 10
135.1013030815341
 20
142.9371079891187
 30
0.0
 10
135.1600572795124
 20
142.9307233805089
 30
0.0
 10
135.2290838843455
 20
142.930680471182
 30
0.0
 10
135.3078995533242
 20
142.9398169252657
 30
0.0
 10
135.354725367351
 20
142.9512794349974
 30
0.0
 10
135.3813184668191
 20
142.9577891704453
 30
0.0
  0
SPLINE
  5
3E0
330
1F
100
AcDbEntity
  8
0
  6
Continuous
 62
     8
370
    15
100
AcDbSpline
210
0.0
220
0.0
230
1.0
 70
     8
 71
     3
 72
    12
 73
     8
 74
     0
 42
0.000000001
 43
0.00000001
 40
0.0
 40
0.0
 40
0.0
 40
0.0
 40
0.2497984029067559
 40
0.4474331746094311
 40
0.6136965857699002
 40
0.7994981006004762
 40
0.9999999999999999
 40
0.9999999999999999
 40
0.9999999999999999
 40
0.9999999999999999
 10
135.0849727796823
 20
143.0344890782103
 30
0.0
 10
135.0637671099929
 20
143.028367347654
 30
0.0
 10
135.0257840004196
 20
143.0174022441744
 30
0.0
 10
134.9911725417336
 20
142.9989222925561
 30
0.0
 10
134.9828337305661
 20
142.9806262955949
 30
0.0
 10
135.004117108047
 20
142.9627595510524
 30
0.0
 10
135.0363376822035
 20
142.9533059340478
 30
0.0
 10
135.0530610299145
 20
142.9483992516427
 30
0.0
  0
LINE
  5
3E1
330
1F
100
AcDbEntity
  8
0
  6
Continuous
 62
     8
370
    15
100
AcDbLine
 10
135.0849727796823
 20
143.0344890782103
 30
0.0
 11
135.4993395208172
 21
143.1447001262595
 31
0.0
  0
LINE
  5
3E2
330
1F
100
AcDbEntity
  8
0
  6
Continuous
 62
     8
370
    15
100
AcDbLine
 10
138.811736407179
 20
143.2394132524693
 30
0.0
 11
138.2107621893564
 21
143.3946973720354
 31
0.0
  0
LINE
  5
3E3
330
1F
100
AcDbEntity
  8
0
  6
Continuous
 62
     8
370
    15
100
AcDbLine
 10
138.2107621893564
 20
143.3946973720354
 30
0.0
 11
137.3503655578706
 21
142.9375347352904
 31
0.0
  0
SPLINE
  5
3E4
330
1F
100
AcDbEntity
  8
0
  6
Continuous
 62
     8
370
    15
100
AcDbSpline
210
0.0
220
0.0
230
1.0
 70
     8
 71
     3
 72
     9
 73
     5
 74
     0
 42
0.000000001
 43
0.00000001
 40
0.0
 40
0.0
 40
0.0
 40
0.0
 40
0.51678586240639
 40
1.0
 40
1.0
 40
1.0
 40
1.0
 10
137.013826594506
 20
142.8999930761277
 30
0.0
 10
137.0703494781485
 20
142.9073831161417
 30
0.0
 10
137.1797233750647
 20
142.9216831203632
 30
0.0
 10
137.2947722938154
 20
142.9323704611358
 30
0.0
 10
137.3503655578706
 20
142.9375347352904
 30
0.0
  0
SPLINE
  5
3E5
330
1F
100
AcDbEntity
  8
0
  6
Continuous
 62
     8
370
    15
100
AcDbSpline
210
0.0
220
0.0
230
1.0
 70
     8
 71
     3
 72
    11
 73
     7
 74
     0
 42
0.000000001
 43
0.00000001
 40
0.0
 40
0.0
 40
0.0
 40
0.0
 40
0.4695408002808569
 40
0.7916607392609427
 40
0.9531790908047375
 40
1.0
 40
1.0
 40
1.0
 40
1.0
 10
135.3149411316815
 20
142.6873258324187
 30
0.0
 10
135.5810169141655
 20
142.7205121041257
 30
0.0
 10
136.0296291551778
 20
142.7764652148611
 30
0.0
 10
136.5693300150656
 20
142.8440750988241
 30
0.0
 10
136.8699559041392
 20
142.88155780148
 30
0.0
 10
136.9874268765121
 20
142.8966102741782
 30
0.0
 10
137.013826594506
 20
142.8999930761277
 30
0.0
  0
LINE
  5
3E6
330
1F
100
AcDbEntity
  8
0
  6
Continuous
 62
     8
370
    15
100
AcDbLine
 10
135.3149411316815
 20
142.6873258324187
 30
0.0
 11
135.9583025667604
 21
142.5208116401357
 31
0.0
  0
SPLINE
  5
3E7
330
1F
100
AcDbEntity
  8
0
  6
Continuous
 62
     8
370
    15
100
AcDbSpline
210
0.0
220
0.0
230
1.0
 70
     8
 71
     3
 72
     9
 73
     5
 74
     0
 42
0.000000001
 43
0.00000001
 40
0.0
 40
0.0
 40
0.0
 40
0.0
 40
0.3574227478456064
 40
1.0
 40
1.0
 40
1.0
 40
1.0
 10
136.7081117946541
 20
142.6205275876161
 30
0.0
 10
136.6189432080451
 20
142.6085614739914
 30
0.0
 10
136.369466678791
 20
142.5750825930392
 30
0.0
 10
136.1191502254909
 20
142.5420424709796
 30
0.0
 10
135.9583025667604
 20
142.5208116401357
 30
0.0
  0
SPLINE
  5
3E8
330
1F
100
AcDbEntity
  8
0
  6
Continuous
 62
     8
370
    15
100
AcDbSpline
210
0.0
220
0.0
230
1.0
 70
     8
 71
     3
 72
     9
 73
     5
 74
     0
 42
0.000000001
 43
0.00000001
 40
0.0
 40
0.0
 40
0.0
 40
0.0
 40
0.556591599947451
 40
1.0
 40
1.0
 40
1.0
 40
1.0
 10
137.0107877408739
 20
142.6664473766861
 30
0.0
 10
136.955749893384
 20
142.6574074172815
 30
0.0
 10
136.8568661741631
 20
142.641165779058
 30
0.0
 10
136.7538084536292
 20
142.6268675447945
 30
0.0
 10
136.7081117946541
 20
142.6205275876161
 30
0.0
  0
SPLINE
  5
3E9
330
1F
100
AcDbEntity
  8
0
  6
Continuous
 62
     8
370
    15
100
AcDbSpline
210
0.0
220
0.0
230
1.0
 70
     8
 71
     3
 72
     9
 73
     5
 74
     0
 42
0.000000001
 43
0.00000001
 40
0.0
 40
0.0
 40
0.0
 40
0.0
 40
0.5627556775836517
 40
1.0
 40
1.0
 40
1.0
 40
1.0
 10
136.8396583650295
 20
142.586480829885
 30
0.0
 10
136.8701049296849
 20
142.6017241862126
 30
0.0
 10
136.9242075640399
 20
142.628811174287
 30
0.0
 10
136.9844479667909
 20
142.6549975378802
 30
0.0
 10
137.0107877408739
 20
142.6664473766861
 30
0.0
  0
SPLINE
  5
3EA
330
1F
100
AcDbEntity
  8
0
  6
Continuous
 62
     8
370
    15
100
AcDbSpline
210
0.0
220
0.0
230
1.0
 70
     8
 71
     3
 72
     9
 73
     5
 74
     0
 42
0.000000001
 43
0.00000001
 40
0.0
 40
0.0
 40
0.0
 40
0.0
 40
0.762630542694253
 40
1.0
 40
1.0
 40
1.0
 40
1.0
 10
136.4693861177878
 20
142.3885334834912
 30
0.0
 10
136.5627323938452
 20
142.4389490965235
 30
0.0
 10
136.6851327841149
 20
142.5050566154464
 30
0.0
 10
136.8100151141273
 20
142.5708609020787
 30
0.0
 10
136.8396583650295
 20
142.586480829885
 30
0.0
  0
LINE
  5
3EB
330
1F
100
AcDbEntity
  8
0
  6
Continuous
 62
     8
370
    15
100
AcDbLine
 10
136.4693861177878
 20
142.3885334834912
 30
0.0
 11
137.1132345465304
 21
142.2218932479733
 31
0.0
  0
SPLINE
  5
3EC
330
1F
100
AcDbEntity
  8
0
  6
Continuous
 62
     8
370
    15
100
AcDbSpline
210
0.0
220
0.0
230
1.0
 70
     8
 71
     3
 72
    11
 73
     7
 74
     0
 42
0.000000001
 43
0.00000001
 40
0.0
 40
0.0
 40
0.0
 40
0.0
 40
0.0395024780024263
 40
0.1112239052323452
 40
0.3283412063988709
 40
1.0
 40
1.0
 40
1.0
 40
1.0
 10
137.900793191983
 20
142.6704292283308
 30
0.0
 10
137.8901901388638
 20
142.6645510194501
 30
0.0
 10
137.8603359870499
 20
142.6480002261696
 30
0.0
 10
137.7740879236306
 20
142.5989097738496
 30
0.0
 10
137.5216062585815
 20
142.4553556184905
 30
0.0
 10
137.2890101931156
 20
142.3223825764942
 30
0.0
 10
137.1132345465304
 20
142.2218932479733
 30
0.0
  0
SPLINE
  5
3ED
330
1F
100
AcDbEntity
  8
0
  6
Continuous
 62
     8
370
    15
100
AcDbSpline
210
0.0
220
0.0
230
1.0
 70
     8
 71
     3
 72
     9
 73
     5
 74
     0
 42
0.000000001
 43
0.00000001
 40
0.0
 40
0.0
 40
0.0
 40
0.0
 40
0.6029954035344248
 40
1.0
 40
1.0
 40
1.0
 40
1.0
 10
138.0392811507448
 20
142.7592302593865
 30
0.0
 10
138.0154841207969
 20
142.7409501105272
 30
0.0
 10
137.9760194253643
 20
142.7106345413667
 30
0.0
 10
137.9221711892371
 20
142.6818548844224
 30
0.0
 10
137.900793191983
 20
142.6704292283308
 30
0.0
  0
LINE
  5
3EE
330
1F
100
AcDbEntity
  8
0
  6
Continuous
 62
     8
370
    15
100
AcDbLine
 10
138.0392811507448
 20
142.7592302593865
 30
0.0
 11
139.7698353604136
 21
142.9911795426574
 31
0.0
  0
LINE
  5
3EF
330
1F
100
AcDbEntity
  8
0
  6
Continuous
 62
     8
370
    15
100
AcDbLine
 10
139.7698353604136
 20
142.9911795426574
 30
0.0
 11
139.169957948469
 21
143.1466986952175
 31
0.0
  0
SPLINE
  5
3F0
330
1F
100
AcDbEntity
  8
0
  6
Continuous
 62
     8
370
    15
100
AcDbSpline
210
0.0
220
0.0
230
1.0
 70
     8
 71
     3
 72
     9
 73
     5
 74
     0
 42
0.000000001
 43
0.00000001
 40
0.0
 40
0.0
 40
0.0
 40
0.0
 40
0.4489139277438435
 40
1.0
 40
1.0
 40
1.0
 40
1.0
 10
138.580804933837
 20
143.0619142469721
 30
0.0
 10
138.6666787474295
 20
143.0757038508776
 30
0.0
 10
138.8579711272941
 20
143.1064215520969
 30
0.0
 10
139.0591120096445
 20
143.1323886108186
 30
0.0
 10
139.169957948469
 20
143.1466986952175
 30
0.0
  0
SPLINE
  5
3F1
330
1F
100
AcDbEntity
  8
0
  6
Continuous
 62
     8
370
    15
100
AcDbSpline
210
0.0
220
0.0
230
1.0
 70
     8
 71
     3
 72
     9
 73
     5
 74
     0
 42
0.000000001
 43
0.00000001
 40
0.0
 40
0.0
 40
0.0
 40
0.0
 40
0.6335497835247338
 40
1.0
 40
1.0
 40
1.0
 40
1.0
 10
138.3369567685154
 20
143.019170439498
 30
0.0
 10
138.388908313042
 20
143.0280167828766
 30
0.0
 10
138.4709090427046
 20
143.0419799213839
 30
0.0
 10
138.5513334078277
 20
143.0565683237625
 30
0.0
 10
138.580804933837
 20
143.0619142469721
 30
0.0
  0
SPLINE
  5
3F2
330
1F
100
AcDbEntity
  8
0
  6
Continuous
 62
     8
370
    15
100
AcDbSpline
210
0.0
220
0.0
230
1.0
 70
     8
 71
     3
 72
     9
 73
     5
 74
     0
 42
0.000000001
 43
0.00000001
 40
0.0
 40
0.0
 40
0.0
 40
0.0
 40
0.4861939363337759
 40
1.0
 40
1.0
 40
1.0
 40
1.0
 10
138.496517492988
 20
143.0837294419267
 30
0.0
 10
138.4699751770849
 20
143.0733815180525
 30
0.0
 10
138.4153831430846
 20
143.052097986727
 30
0.0
 10
138.3635757309916
 20
143.030346490271
 30
0.0
 10
138.3369567685154
 20
143.019170439498
 30
0.0
  0
SPLINE
  5
3F3
330
1F
100
AcDbEntity
  8
0
  6
Continuous
 62
     8
370
    15
100
AcDbSpline
210
0.0
220
0.0
230
1.0
 70
     8
 71
     3
 72
     9
 73
     5
 74
     0
 42
0.000000001
 43
0.00000001
 40
0.0
 40
0.0
 40
0.0
 40
0.0
 40
0.6708678125854999
 40
1.0
 40
1.0
 40
1.0
 40
1.0
 10
138.811736407179
 20
143.2394132524693
 30
0.0
 10
138.7471945529029
 20
143.2037575774069
 30
0.0
 10
138.6509880379006
 20
143.1506089922557
 30
0.0
 10
138.5347689391719
 20
143.1002907839072
 30
0.0
 10
138.496517492988
 20
143.0837294419267
 30
0.0
  0
LINE
  5
3F4
330
1F
100
AcDbEntity
  8
0
  6
Continuous
 62
     8
370
    15
100
AcDbLine
 10
136.5967560342575
 20
143.8126923575098
 30
0.0
 11
136.0424324508358
 21
143.9561618580487
 31
0.0
  0
LINE
  5
3F5
330
1F
100
AcDbEntity
  8
0
  6
Continuous
 62
     8
370
    15
100
AcDbLine
 10
136.0424324508358
 20
143.9561618580487
 30
0.0
 11
133.2663433457907
 21
143.2178014087841
 31
0.0
  0
LINE
  5
3F6
330
1F
100
AcDbEntity
  8
0
  6
Continuous
 62
     8
370
    15
100
AcDbLine
 10
133.2663433457907
 20
143.2178014087841
 30
0.0
 11
133.8206669292123
 21
143.0743319082451
 31
0.0
  0
LINE
  5
3F7
330
1F
100
AcDbEntity
  8
0
  6
Continuous
 62
     8
370
    15
100
AcDbLine
 10
133.8206669292123
 20
143.0743319082451
 30
0.0
 11
136.5967560342575
 21
143.8126923575098
 31
0.0
  0
LINE
  5
3F8
330
1F
100
AcDbEntity
  8
0
  6
Continuous
 62
     8
370
    15
100
AcDbLine
 10
128.7552451421164
 20
218.5818882771003
 30
0.0
 11
142.897380449746
 21
214.921634321069
 31
0.0
  0
LINE
  5
3F9
330
1F
100
AcDbEntity
  8
0
  6
Continuous
 62
     8
370
    15
100
AcDbLine
 10
142.897380449746
 20
214.921634321069
 30
0.0
 11
142.897380449746
 21
142.9601624107509
 31
0.0
  0
LINE
  5
3FA
330
1F
100
AcDbEntity
  8
0
  6
Continuous
 62
     8
370
    15
100
AcDbLine
 10
129.8745014609833
 20
144.3718105814696
 30
0.0
 11
130.9241818940372
 21
144.6509940354883
 31
0.0
  0
SPLINE
  5
3FB
330
1F
100
AcDbEntity
  8
0
  6
Continuous
 62
     8
370
    15
100
AcDbSpline
210
0.0
220
0.0
230
1.0
 70
     8
 71
     3
 72
    12
 73
     8
 74
     0
 42
0.000000001
 43
0.00000001
 40
0.0
 40
0.0
 40
0.0
 40
0.0
 40
0.1940890483121912
 40
0.3516714672727452
 40
0.503480472418479
 40
0.7177037696325828
 40
0.9999999999999999
 40
0.9999999999999999
 40
0.9999999999999999
 40
0.9999999999999999
 10
130.9672974615194
 20
144.7298381594522
 30
0.0
 10
130.9827286537665
 20
144.7254786306733
 30
0.0
 10
131.0106885518983
 20
144.7175795663231
 30
0.0
 10
131.0326259251718
 20
144.7027612686736
 30
0.0
 10
131.0258264005042
 20
144.6862460200005
 30
0.0
 10
130.9870280971506
 20
144.6685392730063
 30
0.0
 10
130.9469616671103
 20
144.6573536325582
 30
0.0
 10
130.9241818940372
 20
144.6509940354883
 30
0.0
  0
SPLINE
  5
3FC
330
1F
100
AcDbEntity
  8
0
  6
Continuous
 62
     8
370
    15
100
AcDbSpline
210
0.0
220
0.0
230
1.0
 70
     8
 71
     3
 72
    13
 73
     9
 74
     0
 42
0.000000001
 43
0.00000001
 40
0.0
 40
0.0
 40
0.0
 40
0.0
 40
0.2437912033556063
 40
0.4364267214197532
 40
0.5940437940764713
 40
0.7121312710081534
 40
0.8430034942805097
 40
0.9999999999999999
 40
0.9999999999999999
 40
0.9999999999999999
 40
0.9999999999999999
 10
130.6670566482541
 20
144.7175429460736
 30
0.0
 10
130.6877422490628
 20
144.7228061510793
 30
0.0
 10
130.7247729081567
 20
144.7322281616901
 30
0.0
 10
130.7836141631786
 20
144.7425228206197
 30
0.0
 10
130.8380795318927
 20
144.7466170811445
 30
0.0
 10
130.886181690174
 20
144.7447926538758
 30
0.0
 10
130.9289632998581
 20
144.7390380447839
 30
0.0
 10
130.9537690287247
 20
144.7330848726979
 30
0.0
 10
130.9672974615194
 20
144.7298381594522
 30
0.0
  0
LINE
  5
3FD
330
1F
100
AcDbEntity
  8
0
  6
Continuous
 62
     8
370
    15
100
AcDbLine
 10
130.6670566482541
 20
144.7175429460736
 30
0.0
 11
129.6173762152001
 21
144.4383594920549
 31
0.0
  0
SPLINE
  5
3FE
330
1F
100
AcDbEntity
  8
0
  6
Continuous
 62
     8
370
    15
100
AcDbSpline
210
0.0
220
0.0
230
1.0
 70
     8
 71
     3
 72
    12
 73
     8
 74
     0
 42
0.000000001
 43
0.00000001
 40
0.0
 40
0.0
 40
0.0
 40
0.0
 40
0.1948260120657787
 40
0.3526151259619391
 40
0.5042705378254984
 40
0.7181343472242996
 40
1.0
 40
1.0
 40
1.0
 40
1.0
 10
129.5746233411057
 20
144.3594201325838
 30
0.0
 10
129.5591043116334
 20
144.3638008694871
 30
0.0
 10
129.5310164578908
 20
144.3717295545666
 30
0.0
 10
129.5089016576146
 20
144.3865819128485
 30
0.0
 10
129.5156598450241
 20
144.4031178692172
 30
0.0
 10
129.5545187918807
 20
144.4208194370941
 30
0.0
 10
129.5945914158681
 20
144.4320015058148
 30
0.0
 10
129.6173762152001
 20
144.4383594920549
 30
0.0
  0
SPLINE
  5
3FF
330
1F
100
AcDbEntity
  8
0
  6
Continuous
 62
     8
370
    15
100
AcDbSpline
210
0.0
220
0.0
230
1.0
 70
     8
 71
     3
 72
    13
 73
     9
 74
     0
 42
0.000000001
 43
0.00000001
 40
0.0
 40
0.0
 40
0.0
 40
0.0
 40
0.2441766159946212
 40
0.4371301778235818
 40
0.5949698313338275
 40
0.7130472733724669
 40
0.8436326480128492
 40
1.0
 40
1.0
 40
1.0
 40
1.0
 10
129.8745014609833
 20
144.3718105814695
 30
0.0
 10
129.8538104824607
 20
144.3665479654837
 30
0.0
 10
129.8167690520844
 20
144.3571267182756
 30
0.0
 10
129.757894895908
 20
144.3468437492142
 30
0.0
 10
129.7034620302622
 20
144.3427502906385
 30
0.0
 10
129.655435188848
 20
144.3445525396844
 30
0.0
 10
129.6127780728611
 20
144.3502687533074
 30
0.0
 10
129.5880812345289
 20
144.3561922685336
 30
0.0
 10
129.5746233411057
 20
144.3594201325838
 30
0.0
  0
ELLIPSE
  5
400
330
1F
100
AcDbEntity
  8
0
  6
Continuous
 62
     8
370
    15
100
AcDbEllipse
 10
122.9920545207046
 20
154.323526968565
 30
0.0
 11
0.3041035679826791
 21
1.572959890748535
 31
0.0
210
0.0
220
0.0
230
1.0
 40
0.5727966419483609
 41
0.3629785125214745
 42
3.4421063568636
  0
LINE
  5
401
330
1F
100
AcDbEntity
  8
0
  6
Continuous
 62
     8
370
    15
100
AcDbLine
 10
122.9564393778549
 20
155.8558459410835
 30
0.0
 11
122.9562247253524
 21
155.8559022506783
 31
0.0
  0
LINE
  5
402
330
1F
100
AcDbEntity
  8
0
  6
Continuous
 62
     8
370
    15
100
AcDbLine
 10
131.5274827084475
 20
143.990646160348
 30
0.0
 11
132.3437907729406
 21
144.2077659611838
 31
0.0
  0
SPLINE
  5
403
330
1F
100
AcDbEntity
  8
0
  6
Continuous
 62
     8
370
    15
100
AcDbSpline
210
0.0
220
0.0
230
1.0
 70
     8
 71
     3
 72
    12
 73
     8
 74
     0
 42
0.000000001
 43
0.00000001
 40
0.0
 40
0.0
 40
0.0
 40
0.0
 40
0.0957823123422884
 40
0.2005700012478348
 40
0.4465817085055809
 40
0.7249123552637655
 40
1.0
 40
1.0
 40
1.0
 40
1.0
 10
132.4570659847829
 20
144.3193233377208
 30
0.0
 10
132.4663078017912
 20
144.3161609941445
 30
0.0
 10
132.4856603440671
 20
144.3095389859728
 30
0.0
 10
132.4982571256029
 20
144.2908688998515
 30
0.0
 10
132.4820236712047
 20
144.2647979099685
 30
0.0
 10
132.4317690615113
 20
144.2336742567597
 30
0.0
 10
132.3730020786567
 20
144.2163682556242
 30
0.0
 10
132.3437907729406
 20
144.2077659611838
 30
0.0
  0
SPLINE
  5
404
330
1F
100
AcDbEntity
  8
0
  6
Continuous
 62
     8
370
    15
100
AcDbSpline
210
0.0
220
0.0
230
1.0
 70
     8
 71
     3
 72
    12
 73
     8
 74
     0
 42
0.000000001
 43
0.00000001
 40
0.0
 40
0.0
 40
0.0
 40
0.0
 40
0.2489112024452803
 40
0.4503286970353463
 40
0.6168463107479213
 40
0.7968610892402488
 40
1.0
 40
1.0
 40
1.0
 40
1.0
 10
132.1775311279376
 20
144.3067919669903
 30
0.0
 10
132.1975740533353
 20
144.3114350831436
 30
0.0
 10
132.2338355971728
 20
144.3198353818323
 30
0.0
 10
132.2913352495871
 20
144.3287198840206
 30
0.0
 10
132.3488010661612
 20
144.3328270895692
 30
0.0
 10
132.4092363912758
 20
144.3300825585511
 30
0.0
 10
132.4404939667719
 20
144.3230511971549
 30
0.0
 10
132.4570659847829
 20
144.3193233377208
 30
0.0
  0
LINE
  5
405
330
1F
100
AcDbEntity
  8
0
  6
Continuous
 62
     8
370
    15
100
AcDbLine
 10
132.1775311279376
 20
144.3067919669903
 30
0.0
 11
131.2104295420066
 21
144.0495644246954
 31
0.0
  0
SPLINE
  5
406
330
1F
100
AcDbEntity
  8
0
  6
Continuous
 62
     8
370
    15
100
AcDbSpline
210
0.0
220
0.0
230
1.0
 70
     8
 71
     3
 72
    12
 73
     8
 74
     0
 42
0.000000001
 43
0.00000001
 40
0.0
 40
0.0
 40
0.0
 40
0.0
 40
0.1664375153661134
 40
0.3166078817502089
 40
0.4752014225358366
 40
0.7036093093718926
 40
1.0
 40
1.0
 40
1.0
 40
1.0
 10
131.1691410239438
 20
143.9702546222537
 30
0.0
 10
131.156553683177
 20
143.9739412301696
 30
0.0
 10
131.1326092540122
 20
143.9809541269947
 30
0.0
 10
131.1160282938583
 20
143.9948089975693
 30
0.0
 10
131.1220933861188
 20
144.0110119271689
 30
0.0
 10
131.1544693923007
 20
144.029871718542
 30
0.0
 10
131.1902319236701
 20
144.042456763887
 30
0.0
 10
131.2104295420066
 20
144.0495644246954
 30
0.0
  0
SPLINE
  5
407
330
1F
100
AcDbEntity
  8
0
  6
Continuous
 62
     8
370
    15
100
AcDbSpline
210
0.0
220
0.0
230
1.0
 70
     8
 71
     3
 72
    12
 73
     8
 74
     0
 42
0.000000001
 43
0.00000001
 40
0.0
 40
0.0
 40
0.0
 40
0.0
 40
0.3286804698205963
 40
0.624324543367916
 40
0.7624962911146463
 40
0.887011303652831
 40
1.0
 40
1.0
 40
1.0
 40
1.0
 10
131.5274827084475
 20
143.990646160348
 30
0.0
 10
131.4944913060783
 20
143.982829856414
 30
0.0
 10
131.4318245396881
 20
143.9679828824302
 30
0.0
 10
131.3305587100704
 20
143.9600853490667
 30
0.0
 10
131.2563063378589
 20
143.9599684471174
 30
0.0
 10
131.206352477067
 20
143.9628188006402
 30
0.0
 10
131.1811369288901
 20
143.967857526688
 30
0.0
 10
131.1691410239438
 20
143.9702546222537
 30
0.0
  0
ELLIPSE
  5
408
330
1F
100
AcDbEntity
  8
0
  6
Continuous
 62
     8
370
    15
100
AcDbEllipse
 10
122.696936777034
 20
150.8708311443368
 30
0.0
 11
0.09503236499458013
 21
0.4915499658589511
 31
0.0
210
0.0
220
0.0
230
1.0
 40
0.5727966419483329
 41
5.402890125023104
 42
6.466347858415606
  0
ELLIPSE
  5
409
330
1F
100
AcDbEntity
  8
0
  6
Continuous
 62
     8
370
    15
100
AcDbEllipse
 10
122.9920545207046
 20
154.323526968565
 30
0.0
 11
0.5701941899664293
 21
2.949299795147851
 31
0.0
210
0.0
220
0.0
230
1.0
 40
0.5727966419483462
 41
0.4698576890472612
 42
3.32475520482587
  0
ELLIPSE
  5
40A
330
1F
100
AcDbEntity
  8
0
  6
Continuous
 62
     8
370
    15
100
AcDbEllipse
 10
122.6928455320284
 20
157.5640204663536
 30
0.0
 11
0.09503236499459433
 21
0.4915499658589511
 31
0.0
210
0.0
220
0.0
230
1.0
 40
0.5727966419483298
 41
3.611450342637088
 42
4.516068822154446
  0
LINE
  5
40B
330
1F
100
AcDbEntity
  8
0
  6
Continuous
 62
     8
370
    15
100
AcDbLine
 10
136.1046894376231
 20
143.3057086320281
 30
0.0
 11
135.8864214458973
 21
143.2476550331496
 31
0.0
  0
LINE
  5
40C
330
1F
100
AcDbEntity
  8
0
  6
Continuous
 62
     8
370
    15
100
AcDbLine
 10
135.8864214458973
 20
143.2476550331496
 30
0.0
 11
136.182767133034
 21
143.1709551253846
 31
0.0
  0
LINE
  5
40D
330
1F
100
AcDbEntity
  8
0
  6
Continuous
 62
     8
370
    15
100
AcDbLine
 10
136.182767133034
 20
143.1709551253846
 30
0.0
 11
136.4010351247598
 21
143.2290087242632
 31
0.0
  0
SPLINE
  5
40E
330
1F
100
AcDbEntity
  8
0
  6
Continuous
 62
     8
370
    15
100
AcDbSpline
210
0.0
220
0.0
230
1.0
 70
     8
 71
     3
 72
    12
 73
     8
 74
     0
 42
0.000000001
 43
0.00000001
 40
0.0
 40
0.0
 40
0.0
 40
0.0
 40
0.174274451022913
 40
0.335463610373691
 40
0.500387199096851
 40
0.7234811119416276
 40
1.0
 40
1.0
 40
1.0
 40
1.0
 10
136.4435408800276
 20
143.3182277694425
 30
0.0
 10
136.4583935132113
 20
143.3138041189164
 30
0.0
 10
136.4869835786061
 20
143.3052889649863
 30
0.0
 10
136.5076119508414
 20
143.288815422809
 30
0.0
 10
136.5038362612097
 20
143.2699276408545
 30
0.0
 10
136.4685566817411
 20
143.2487404355679
 30
0.0
 10
136.4250915911069
 20
143.2360387050603
 30
0.0
 10
136.4010351247598
 20
143.2290087242632
 30
0.0
  0
SPLINE
  5
40F
330
1F
100
AcDbEntity
  8
0
  6
Continuous
 62
     8
370
    15
100
AcDbSpline
210
0.0
220
0.0
230
1.0
 70
     8
 71
     3
 72
    12
 73
     8
 74
     0
 42
0.000000001
 43
0.00000001
 40
0.0
 40
0.0
 40
0.0
 40
0.0
 40
0.2393045762195752
 40
0.4380068366388416
 40
0.609158223069365
 40
0.798050692690312
 40
1.0
 40
1.0
 40
1.0
 40
1.0
 10
136.1046894376231
 20
143.3057086320281
 30
0.0
 10
136.1274045328962
 20
143.3112613735434
 30
0.0
 10
136.168980699895
 20
143.3214247343291
 30
0.0
 10
136.239488143208
 20
143.3312671066186
 30
0.0
 10
136.3111363408453
 20
143.3349900273227
 30
0.0
 10
136.3847263074437
 20
143.3311009161989
 30
0.0
 10
136.4235042052044
 20
143.3226133331588
 30
0.0
 10
136.4435408800276
 20
143.3182277694425
 30
0.0
  0
LINE
  5
410
330
1F
100
AcDbEntity
  8
0
  6
Continuous
 62
     8
370
    15
100
AcDbLine
 10
122.9976892904997
 20
201.5784811365747
 30
0.0
 11
115.312821935297
 21
199.5685527594484
 31
0.0
  0
LINE
  5
411
330
1F
100
AcDbEntity
  8
0
  6
Continuous
 62
     8
370
    15
100
AcDbLine
 10
115.312821935297
 20
199.7666340568911
 30
0.0
 11
115.312821935297
 21
199.5685527594484
 31
0.0
  0
LINE
  5
412
330
1F
100
AcDbEntity
  8
0
  6
Continuous
 62
     8
370
    15
100
AcDbLine
 10
103.0239507282313
 20
202.749146670649
 30
0.0
 11
99.23890163123882
 21
203.7287894635988
 31
0.0
  0
ARC
  5
413
330
1F
100
AcDbEntity
  8
0
  6
Continuous
 62
     8
370
    15
100
AcDbCircle
 10
108.5375407128339
 20
163.6622752384969
 30
0.0
 40
41.13137793607286
100
AcDbArc
 50
89.55366654620096
 51
103.0659038971533
  0
LINE
  5
414
330
1F
100
AcDbEntity
  8
0
  6
Continuous
 62
     8
370
    15
100
AcDbLine
 10
122.9976899490442
 20
207.8648766589001
 30
0.0
 11
103.0239507282313
 21
202.749146670649
 31
0.0
  0
LWPOLYLINE
  5
415
330
1F
100
AcDbEntity
  8
0
  6
Continuous
 62
     8
370
    15
100
AcDbPolyline
 90
       22
 70
   128
 43
0.0
 10
95.19719798315022
 20
214.3005143882545
 10
95.27828390987364
 20
214.6844918516649
 10
95.56828649630948
 20
215.1233293987476
 10
96.0644530264144
 20
215.5496168234783
 10
96.7592616048182
 20
215.9568922582096
 10
97.64218029384087
 20
216.3389817575858
 10
98.6998238882444
 20
216.6900933942068
 10
99.91616045125423
 20
217.0049044619683
 10
101.2727516421455
 20
217.2786427671306
 10
102.7490321037508
 20
217.5071589391266
 10
104.322623547031
 20
217.6869886319181
 10
105.9696716789096
 20
217.8154059794517
 10
107.66520976
 20
217.8904641719503
 10
109.3835341396111
 20
217.9110254966436
 10
111.0985960897297
 20
217.8767782117104
 10
112.7843995659031
 20
217.7882416595943
 10
114.4153874435933
 20
217.6467576595888
 10
115.9668353277926
 20
217.454471077237
 10
117.4152264294848
 20
217.2142968860559
 10
118.7386040721726
 20
216.9298759746388
 10
119.9169064588624
 20
216.6055195233666
 10
120.3070133258219
 20
216.4782154512148
  0
LINE
  5
416
330
1F
100
AcDbEntity
  8
0
  6
Continuous
 62
     8
370
    15
100
AcDbLine
 10
99.23890163123882
 20
203.7287894635988
 30
0.0
 11
99.27787627085476
 21
213.8867093792323
 31
0.0
  0
ELLIPSE
  5
417
330
1F
100
AcDbEntity
  8
0
  6
Continuous
 62
     8
370
    15
100
AcDbEllipse
 10
109.1686574906745
 20
211.3269251812189
 30
0.0
 11
13.9872870761454
 21
-0.05350840144956238
 31
0.0
210
0.0
220
0.0
230
1.0
 40
0.2552392743316355
 41
2.357198324240882
 42
3.141185492676853
  0
ARC
  5
418
330
1F
100
AcDbEntity
  8
0
  6
Continuous
 62
     8
370
    15
100
AcDbCircle
 10
117.9121670928376
 20
205.864482206508
 30
0.0
 40
7.37155650128427
100
AcDbArc
 50
279.2561506659535
 51
313.6209627282686
  0
LINE
  5
419
330
1F
100
AcDbEntity
  8
0
  6
Continuous
 62
     8
370
    15
100
AcDbLine
 10
115.312821935297
 20
199.5685527594484
 30
0.0
 11
119.0978710322895
 21
198.5889099664986
 31
0.0
  0
LINE
  5
41A
330
1F
100
AcDbEntity
  8
0
  6
Continuous
 62
     8
370
    15
100
AcDbLine
 10
117.2732740327027
 20
206.3987232501585
 30
0.0
 11
122.9976899490442
 21
207.8241451686877
 31
0.0
  0
ARC
  5
41B
330
1F
100
AcDbEntity
  8
0
  6
Continuous
 62
     8
370
    15
100
AcDbCircle
 10
131.8018858356536
 20
152.9304091699929
 30
0.0
 40
10.41879249610355
100
AcDbArc
 50
182.5196683420958
 51
212.3248018907814
  0
ARC
  5
41C
330
1F
100
AcDbEntity
  8
0
  6
Continuous
 62
     8
370
    15
100
AcDbCircle
 10
126.4548455270934
 20
154.3168822152173
 30
0.0
 40
4.784658204379209
100
AcDbArc
 50
136.2919240906533
 51
148.2523385342015
  0
LINE
  5
41D
330
1F
100
AcDbEntity
  8
0
  6
Continuous
 62
     8
370
    15
100
AcDbLine
 10
126.5632125757561
 20
144.1567718032121
 30
0.0
 11
126.62246410625
 21
144.1666428195432
 31
0.0
  0
LINE
  5
41E
330
1F
100
AcDbEntity
  8
0
  6
Continuous
 62
     8
370
    15
100
AcDbLine
 10
126.6027137455012
 20
144.1717545890526
 30
0.0
 11
126.5632125757561
 21
144.1567718032121
 31
0.0
  0
LINE
  5
41F
330
1F
100
AcDbEntity
  8
0
  6
Continuous
 62
     8
370
    15
100
AcDbLine
 10
126.5632125757561
 20
144.1819818721046
 30
0.0
 11
126.5632125757561
 21
144.1567718032121
 31
0.0
  0
LINE
  5
420
330
1F
100
AcDbEntity
  8
0
  6
Continuous
 62
     8
370
    15
100
AcDbLine
 10
115.2176754247837
 20
199.7424328193838
 30
0.0
 11
115.312821935297
 21
199.7178034920338
 31
0.0
  0
ELLIPSE
  5
421
330
1F
100
AcDbEntity
  8
0
  6
Continuous
 62
     8
370
    15
100
AcDbEllipse
 10
109.1683863317642
 20
201.3083310040232
 30
0.0
 11
13.99999325523882
 21
-0.05383725023725106
 31
0.0
210
0.0
220
0.0
230
1.0
 40
0.2552580117587137
 41
2.357176089596706
 42
5.469258362952308
  0
LINE
  5
422
330
1F
100
AcDbEntity
  8
0
  6
Continuous
 62
     8
370
    15
100
AcDbLine
 10
122.9976892904997
 20
201.7213090268381
 30
0.0
 11
115.2176754247837
 21
199.7424328193838
 31
0.0
  0
ELLIPSE
  5
423
330
1F
100
AcDbEntity
  8
0
  6
Continuous
 62
     8
370
    15
100
AcDbEllipse
 10
109.1683863317642
 20
211.3101667869459
 30
0.0
 11
13.99999332625309
 21
-0.05355701067742304
 31
0.0
210
0.0
220
0.0
230
1.0
 40
0.2552392743314462
 41
2.357170908386113
 42
3.142569071783609
  0
LINE
  5
424
330
1F
100
AcDbEntity
  8
0
  6
Continuous
 62
     8
370
    15
100
AcDbLine
 10
99.26889108958787
 20
211.5450270165144
 30
0.0
 11
99.26889108958787
 21
213.8723446244215
 31
0.0
  0
LINE
  5
425
330
1F
100
AcDbEntity
  8
0
  6
Continuous
 62
     8
370
    15
100
AcDbLine
 10
99.2778123920375
 20
213.8700356214404
 30
0.0
 11
99.26889108958787
 21
213.8723446244215
 31
0.0
  0
ARC
  5
426
330
1F
100
AcDbEntity
  8
0
  6
Continuous
 62
     8
370
    15
100
AcDbCircle
 10
88.45071983212324
 20
214.774553574136
 30
0.0
 40
1.580987196726068
100
AcDbArc
 50
160.0482377735171
 51
208.9292822018097
  0
LWPOLYLINE
  5
427
330
1F
100
AcDbEntity
  8
0
  6
Continuous
 62
     8
370
    15
100
AcDbPolyline
 90
        3
 70
   128
 43
0.0
 10
124.5349491213877
 20
219.225355004299
 10
125.0782895406642
 20
219.0893751372348
 10
125.5701618255097
 20
218.9580051587438
  0
ARC
  5
428
330
1F
100
AcDbEntity
  8
0
  6
Continuous
 62
     8
370
    15
100
AcDbCircle
 10
95.22117754270249
 20
139.6769822217774
 30
0.0
 40
28.37889195999096
100
AcDbArc
 50
203.0107505369955
 51
212.8235319721232
  0
LWPOLYLINE
  5
429
330
1F
100
AcDbEntity
  8
0
  6
Continuous
 62
     8
370
    15
100
AcDbPolyline
 90
        8
 70
   128
 43
0.0
 10
113.1259793582042
 20
145.5227183617336
 10
113.2778107457867
 20
145.4663077348372
 10
113.4271264933486
 20
145.3270735848516
 10
113.5368992773843
 20
145.1276757071242
 10
113.5904139211919
 20
144.898470801357
 10
113.5795255462969
 20
144.6743551198672
 10
113.5058897335924
 20
144.489444366242
 10
113.3928887643786
 20
144.3787079976137
  0
LWPOLYLINE
  5
42A
330
1F
100
AcDbEntity
  8
0
  6
Continuous
 62
     8
370
    15
100
AcDbPolyline
 90
        9
 70
   128
 43
0.0
 10
113.1710672664877
 20
144.5214979649199
 10
113.2547577367402
 20
144.6000946195297
 10
113.303990524157
 20
144.7237298572607
 10
113.3112713922372
 20
144.8735808260348
 10
113.2754900349405
 20
145.0268334608169
 10
113.2020952495259
 20
145.1601491391589
 10
113.1022599021157
 20
145.2532416667535
 10
112.9911845170432
 20
145.2919359426116
 10
112.9758312103841
 20
145.2925632014583
  0
LINE
  5
42B
330
1F
100
AcDbEntity
  8
0
  6
Continuous
 62
     8
370
    15
100
AcDbLine
 10
113.8610289573128
 20
151.3403506298055
 30
0.0
 11
113.9180892047515
 21
151.3495580763014
 31
0.0
  0
LINE
  5
42C
330
1F
100
AcDbEntity
  8
0
  6
Continuous
 62
     8
370
    15
100
AcDbLine
 10
113.3935703579444
 20
152.1985970940781
 30
0.0
 11
113.3434768528556
 21
152.1121209065295
 31
0.0
  0
LINE
  5
42D
330
1F
100
AcDbEntity
  8
0
  6
Continuous
 62
     8
370
    15
100
AcDbLine
 10
113.6571271140286
 20
151.5148418089426
 30
0.0
 11
113.8886713630353
 21
151.6375302185834
 31
0.0
  0
LINE
  5
42E
330
1F
100
AcDbEntity
  8
0
  6
Continuous
 62
     8
370
    15
100
AcDbLine
 10
114.1231151835107
 20
152.1790349806487
 30
0.0
 11
113.4633938564922
 21
151.829475813694
 31
0.0
  0
LINE
  5
42F
330
1F
100
AcDbEntity
  8
0
  6
Continuous
 62
     8
370
    15
100
AcDbLine
 10
116.1894935064809
 20
148.3146013263071
 30
0.0
 11
116.3593347692676
 21
148.4045955029417
 31
0.0
  0
SPLINE
  5
430
330
1F
100
AcDbEntity
  8
0
  6
Continuous
 62
     8
370
    15
100
AcDbSpline
210
0.0
220
0.0
230
1.0
 70
     8
 71
     3
 72
    11
 73
     7
 74
     0
 42
0.000000001
 43
0.00000001
 40
0.0
 40
0.0
 40
0.0
 40
0.0
 40
0.2971244781500161
 40
0.5934549768460741
 40
0.8957665988621895
 40
1.0
 40
1.0
 40
1.0
 40
1.0
 10
113.8886713630353
 20
151.6375302185834
 30
0.0
 10
113.917451244035
 20
151.6480139054599
 30
0.0
 10
113.9749341001048
 20
151.6689532645841
 30
0.0
 10
114.0795049912729
 20
151.6483054348229
 30
0.0
 10
114.163846868821
 20
151.6107621622285
 30
0.0
 10
114.2055817679741
 20
151.5709339227479
 30
0.0
 10
114.2162821092331
 20
151.5607224267856
 30
0.0
  0
LINE
  5
431
330
1F
100
AcDbEntity
  8
0
  6
Continuous
 62
     8
370
    15
100
AcDbLine
 10
114.068523160888
 20
151.53178535353
 30
0.0
 11
113.7707905790174
 21
151.3740300202825
 31
0.0
  0
LINE
  5
432
330
1F
100
AcDbEntity
  8
0
  6
Continuous
 62
     8
370
    15
100
AcDbLine
 10
113.3608683547669
 20
152.0041252800504
 30
0.0
 11
114.1028260857643
 21
152.3972568339281
 31
0.0
  0
LINE
  5
433
330
1F
100
AcDbEntity
  8
0
  6
Continuous
 62
     8
370
    15
100
AcDbLine
 10
114.1013028723173
 20
151.5399149370906
 30
0.0
 11
114.068523160888
 21
151.53178535353
 31
0.0
  0
LWPOLYLINE
  5
434
330
1F
100
AcDbEntity
  8
0
  6
Continuous
 62
     8
370
    15
100
AcDbPolyline
 90
        8
 70
   128
 43
0.0
 10
116.859003439066
 20
147.5022756520274
 10
117.0132819780401
 20
147.4455699010308
 10
117.1625990426911
 20
147.3063354101575
 10
117.2723705096377
 20
147.1069378733178
 10
117.3258858119899
 20
146.8777327971067
 10
117.3149967785504
 20
146.6536172860608
 10
117.2413622829349
 20
146.4687061915479
 10
117.1161914112136
 20
146.3511521845817
  0
LINE
  5
435
330
1F
100
AcDbEntity
  8
0
  6
Continuous
 62
     8
370
    15
100
AcDbLine
 10
116.3764977562347
 20
148.1154801666617
 30
0.0
 11
116.4227855326118
 21
148.1263030995239
 31
0.0
  0
LINE
  5
436
330
1F
100
AcDbEntity
  8
0
  6
Continuous
 62
     8
370
    15
100
AcDbLine
 10
116.5636403003352
 20
148.2679986429282
 30
0.0
 11
116.3141388596848
 21
148.1358019714138
 31
0.0
  0
LWPOLYLINE
  5
437
330
1F
100
AcDbEntity
  8
0
  6
Continuous
 62
     8
370
    15
100
AcDbPolyline
 90
        9
 70
   128
 43
0.0
 10
116.9098615143285
 20
146.5025628534335
 10
116.9902289689937
 20
146.5793639824315
 10
117.039462414955
 20
146.7029918530104
 10
117.0467426244907
 20
146.8528429922284
 10
117.0109619257385
 20
147.0060954565667
 10
116.9375671403238
 20
147.1394111349086
 10
116.8377324514582
 20
147.2325034920594
 10
116.7266557492967
 20
147.2711981088052
 10
116.7104344809761
 20
147.2718269147055
  0
LWPOLYLINE
  5
438
330
1F
100
AcDbEntity
  8
0
  6
Continuous
 62
     8
370
    15
100
AcDbPolyline
 90
       12
 70
   128
 43
0.0
 10
122.9976901136803
 20
166.7819065224666
 10
121.6646844885472
 20
167.8109692327454
 10
120.0521297655439
 20
168.8695785513824
 10
118.4014215256079
 20
169.7582479241385
 10
116.7279722515955
 20
170.4686855080857
 10
115.0474054906812
 20
170.9942527905853
 10
113.3754130922473
 20
171.3300462167255
 10
111.7276055350739
 20
171.4729275203547
 10
110.1193680652287
 20
171.4215667741656
 10
108.5657165264696
 20
171.176439356348
 10
107.08115684331
 20
170.7398382591932
 10
106.6549947468565
 20
170.5735879304402
  0
ARC
  5
439
330
1F
100
AcDbEntity
  8
0
  6
Continuous
 62
     8
370
    15
100
AcDbCircle
 10
118.7490150378815
 20
143.5276925246303
 30
0.0
 40
14.47032446228109
100
AcDbArc
 50
305.7663176969925
 51
354.3561573882955
  0
ARC
  5
43A
330
1F
100
AcDbEntity
  8
0
  6
Continuous
 62
     8
370
    15
100
AcDbCircle
 10
116.157828924261
 20
144.4569556797621
 30
0.0
 40
17.84979354205488
100
AcDbArc
 50
334.5895764349974
 51
353.0252244880956
  0
ARC
  5
43B
330
1F
100
AcDbEntity
  8
0
  6
Continuous
 62
     8
370
    15
100
AcDbCircle
 10
110.2575666243514
 20
152.1546609157845
 30
0.0
 40
20.0889280949621
100
AcDbArc
 50
50.64033938062961
 51
80.59033616087306
  0
LWPOLYLINE
  5
43C
330
1F
100
AcDbEntity
  8
0
  6
Continuous
 62
     8
370
    15
100
AcDbPolyline
 90
       19
 70
   128
 43
0.0
 10
151.5592433635674
 20
146.8140588746945
 10
151.6648370241554
 20
147.0255030101474
 10
152.3441711237106
 20
148.6306568739226
 10
152.8679550348468
 20
150.3523889612742
 10
153.2312964304142
 20
152.1746274406105
 10
153.4308077574636
 20
154.0803474996969
 10
153.4646200666814
 20
156.0517687048813
 10
153.332421207971
 20
158.0704752989539
 10
153.0354452937401
 20
160.1176202838145
 10
152.5764674305455
 20
162.1740935195998
 10
151.9597668406
 20
164.2206915663138
 10
151.1911057883485
 20
166.2383086232857
 10
150.2776597747499
 20
168.2081033028113
 10
149.2279569511826
 20
170.1116870319856
 10
148.0518004111926
 20
171.9312833268146
 10
146.7601707259057
 20
173.6499057779393
 10
145.3651258452633
 20
175.2515079313021
 10
143.8796917796333
 20
176.7211363129349
 10
142.8973804497459
 20
177.5782286227181
  0
ARC
  5
43D
330
1F
100
AcDbEntity
  8
0
  6
Continuous
 62
     8
370
    15
100
AcDbCircle
 10
118.5021837230384
 20
143.6365583597822
 30
0.0
 40
14.43270023043024
100
AcDbArc
 50
312.6509800609077
 51
352.1897642545152
  0
LWPOLYLINE
  5
43E
330
1F
100
AcDbEntity
  8
0
  6
Continuous
 62
     8
370
    15
100
AcDbPolyline
 90
       12
 70
   128
 43
0.0
 10
108.2800980586115
 20
170.7687718821042
 10
108.3055419726604
 20
170.7753879369353
 10
109.8440853479534
 20
171.0672278345679
 10
111.4415835209165
 20
171.1626162671087
 10
113.0826513689591
 20
171.0606363945429
 10
114.751484955763
 20
170.7622680762711
 10
116.432012065296
 20
170.2703894086367
 10
118.1080491669247
 20
169.5897330768241
 10
119.7634534877471
 20
168.726856425448
 10
121.3822845515019
 20
167.6900710311106
 10
122.9489502468277
 20
166.4893583443872
 10
122.997689784408
 20
166.4486574512717
  0
SPLINE
  5
43F
330
1F
100
AcDbEntity
  8
0
  6
Continuous
 62
     8
370
    15
100
AcDbSpline
210
0.0
220
0.0
230
1.0
 70
     8
 71
     3
 72
    11
 73
     7
 74
     0
 42
0.000000001
 43
0.00000001
 40
0.0
 40
0.0
 40
0.0
 40
0.0
 40
0.0952580735740256
 40
0.3179812612511442
 40
0.6588656522373314
 40
1.0
 40
1.0
 40
1.0
 40
1.0
 10
122.1415485028967
 20
164.9487167088728
 30
0.0
 10
122.1050027220502
 20
165.0692112871307
 30
0.0
 10
121.9830091413387
 20
165.4714346003974
 30
0.0
 10
121.6352788286537
 20
166.2602547466275
 30
0.0
 10
121.0724614651543
 20
167.2917515470104
 30
0.0
 10
120.5376712977718
 20
167.9608842553931
 30
0.0
 10
120.2701782149943
 20
168.2955732266369
 30
0.0
  0
SPLINE
  5
440
330
1F
100
AcDbEntity
  8
0
  6
Continuous
 62
     8
370
    15
100
AcDbSpline
210
0.0
220
0.0
230
1.0
 70
     8
 71
     3
 72
     9
 73
     5
 74
     0
 42
0.000000001
 43
0.00000001
 40
0.0
 40
0.0
 40
0.0
 40
0.0
 40
0.6542234715847983
 40
0.9999999999999999
 40
0.9999999999999999
 40
0.9999999999999999
 40
0.9999999999999999
 10
121.0250702540368
 20
167.8186661971157
 30
0.0
 10
121.3922543763076
 20
167.234467891108
 30
0.0
 10
121.9535062087759
 20
166.341503435717
 30
0.0
 10
122.1352214058538
 20
165.2613055575854
 30
0.0
 10
122.1980542558597
 20
164.8877984852836
 30
0.0
  0
LINE
  5
441
330
1F
100
AcDbEntity
  8
0
  6
Continuous
 62
     8
370
    15
100
AcDbLine
 10
132.2821309625449
 20
141.283246874856
 30
0.0
 11
132.5375507426886
 21
141.2182965751209
 31
0.0
  0
LINE
  5
442
330
1F
100
AcDbEntity
  8
0
  6
Continuous
 62
     8
370
    15
100
AcDbLine
 10
119.6550563208705
 20
166.9353553734593
 30
0.0
 11
119.8741155538227
 21
167.0498078672688
 31
0.0
  0
LINE
  5
443
330
1F
100
AcDbEntity
  8
0
  6
Continuous
 62
     8
370
    15
100
AcDbLine
 10
130.2714470657039
 20
136.0603967241432
 30
0.0
 11
130.4709017579256
 21
136.1553396427479
 31
0.0
  0
LINE
  5
444
330
1F
100
AcDbEntity
  8
0
  6
Continuous
 62
     8
370
    15
100
AcDbLine
 10
122.8598124610414
 20
151.3328306934116
 30
0.0
 11
122.7390959843721
 21
151.3640744166313
 31
0.0
  0
TEXT
  5
492
330
1F
100
AcDbEntity
  8
文字
 62
     7
100
AcDbText
 10
34.0337837837838
 20
72.24324324324326
 30
0.0
 40
10.0
  1
MMP-060S/5H/FC･FS
 41
0.9
 11
34.0337837837838
 21
72.24324324324326
 31
0.0
100
AcDbText
 73
     1
  0
ENDSEC
  0
SECTION
  2
OBJECTS
  0
DICTIONARY
  5
C
330
0
100
AcDbDictionary
281
     1
  3
ACAD_GROUP
350
D
  3
ACAD_IMAGE_VARS
350
468
  3
ACAD_LAYOUT
350
1A
  3
ACAD_MLINESTYLE
350
17
  3
ACAD_PLOTSETTINGS
350
19
  3
ACAD_PLOTSTYLENAME
350
E
  3
ACAD_SCALELIST
350
47
  3
APPDATA
350
466
  3
DWGPROPS
350
494
  0
DICTIONARY
  5
48D
330
2
100
AcDbDictionary
280
     1
281
     1
  3
ACAD_LAYERSTATES
360
48E
  0
DICTIONARY
  5
D
102
{ACAD_REACTORS
330
C
102
}
330
C
100
AcDbDictionary
281
     1
  0
RASTERVARIABLES
  5
468
102
{ACAD_REACTORS
330
C
102
}
330
C
100
AcDbRasterVariables
 90
        0
 70
     1
 71
     1
 72
     1
  0
DICTIONARY
  5
1A
102
{ACAD_REACTORS
330
C
102
}
330
C
100
AcDbDictionary
281
     1
  3
Layout1
350
1E
  3
Layout2
350
26
  3
Model
350
22
  0
DICTIONARY
  5
17
102
{ACAD_REACTORS
330
C
102
}
330
C
100
AcDbDictionary
281
     1
  3
Standard
350
18
  0
DICTIONARY
  5
19
102
{ACAD_REACTORS
330
C
102
}
330
C
100
AcDbDictionary
281
     1
  0
ACDBDICTIONARYWDFLT
  5
E
102
{ACAD_REACTORS
330
C
102
}
330
C
100
AcDbDictionary
281
     1
  3
Normal
350
F
100
AcDbDictionaryWithDefault
340
F
  0
DICTIONARY
  5
47
102
{ACAD_REACTORS
330
C
102
}
330
C
100
AcDbDictionary
281
     1
  3
A0
350
48
  3
A1
350
49
  3
A2
350
4A
  3
A3
350
4B
  3
A4
350
4C
  3
A5
350
4D
  3
A6
350
4E
  3
A7
350
4F
  3
A8
350
50
  3
A9
350
51
  3
B0
350
52
  3
B1
350
53
  3
B2
350
54
  3
B3
350
55
  3
B4
350
56
  3
B5
350
57
  3
B6
350
58
  3
B7
350
59
  3
B8
350
5A
  3
B9
350
5B
  3
C0
350
5C
  3
C1
350
5D
  3
C2
350
5E
  3
C3
350
5F
  3
C4
350
60
  3
C5
350
61
  3
C6
350
62
  3
C7
350
63
  3
C8
350
64
  3
C9
350
65
  3
D0
350
66
  3
D1
350
67
  3
D2
350
68
  0
DICTIONARY
  5
466
102
{ACAD_REACTORS
330
C
102
}
330
C
100
AcDbDictionary
281
     1
  0
XRECORD
  5
494
102
{ACAD_REACTORS
330
C
102
}
330
C
100
AcDbXrecord
280
     1
  1
DWGPROPS COOKIE
  2

  3

  4

  6

  7

  8
ModuleX
  9

300
=
301
=
302
=
303
=
304
=
305
=
306
=
307
=
308
=
309
=
 40
0.0
 41
2458025.534678241
 42
2458025.535243357
  1

 90
        0
  0
DICTIONARY
  5
48E
102
{ACAD_REACTORS
330
48D
102
}
330
48D
100
AcDbDictionary
281
     1
  0
LAYOUT
  5
1E
102
{ACAD_REACTORS
330
1A
102
}
330
1A
100
AcDbPlotSettings
  1

  2
none_device
  4

  6

 40
0.0
 41
0.0
 42
0.0
 43
0.0
 44
0.0
 45
0.0
 46
0.0
 47
0.0
 48
0.0
 49
0.0
140
0.0
141
0.0
142
1.0
143
1.0
 70
   688
 72
     1
 73
     0
 74
     5
  7

 75
    16
147
1.0
148
0.0
149
0.0
100
AcDbLayout
  1
Layout1
 70
     1
 71
     1
 10
0.0
 20
0.0
 11
420.0
 21
297.0
 12
0.0
 22
0.0
 32
0.0
 14
1.000000000000000E+20
 24
1.000000000000000E+20
 34
1.000000000000000E+20
 15
-1.000000000000000E+20
 25
-1.000000000000000E+20
 35
-1.000000000000000E+20
146
0.0
 13
0.0
 23
0.0
 33
0.0
 16
1.0
 26
0.0
 36
0.0
 17
0.0
 27
1.0
 37
0.0
 76
     0
330
1B
  0
LAYOUT
  5
26
102
{ACAD_REACTORS
330
1A
102
}
330
1A
100
AcDbPlotSettings
  1

  2
none_device
  4

  6

 40
0.0
 41
0.0
 42
0.0
 43
0.0
 44
0.0
 45
0.0
 46
0.0
 47
0.0
 48
0.0
 49
0.0
140
0.0
141
0.0
142
1.0
143
1.0
 70
   688
 72
     1
 73
     0
 74
     5
  7

 75
    16
147
1.0
148
0.0
149
0.0
100
AcDbLayout
  1
Layout2
 70
     1
 71
     2
 10
0.0
 20
0.0
 11
0.0
 21
0.0
 12
0.0
 22
0.0
 32
0.0
 14
0.0
 24
0.0
 34
0.0
 15
0.0
 25
0.0
 35
0.0
146
0.0
 13
0.0
 23
0.0
 33
0.0
 16
1.0
 26
0.0
 36
0.0
 17
0.0
 27
1.0
 37
0.0
 76
     0
330
23
  0
LAYOUT
  5
22
102
{ACAD_REACTORS
330
1A
102
}
330
1A
100
AcDbPlotSettings
  1

  2
none_device
  4
Letter_(8.50_x_11.00_Inches)
  6

 40
6.35
 41
6.35
 42
6.35000508
 43
6.35000508
 44
215.9
 45
279.4
 46
0.0
 47
0.0
 48
0.0
 49
0.0
140
0.0
141
0.0
142
1.0
143
1.0
 70
  1712
 72
     1
 73
     0
 74
     0
  7

 75
     0
147
1.0
148
0.0
149
0.0
100
AcDbLayout
  1
Model
 70
     1
 71
     0
 10
0.0
 20
0.0
 11
210.0
 21
297.0
 12
0.0
 22
0.0
 32
0.0
 14
34.0337837837838
 24
72.24324324324326
 34
0.0
 15
177.4337837837838
 25
237.2652368941949
 35
0.0
146
0.0
 13
0.0
 23
0.0
 33
0.0
 16
1.0
 26
0.0
 36
0.0
 17
0.0
 27
1.0
 37
0.0
 76
     0
330
1F
331
29
  0
MLINESTYLE
  5
18
102
{ACAD_REACTORS
330
17
102
}
330
17
100
AcDbMlineStyle
  2
Standard
 70
     0
  3

 62
   256
 51
90.0
 52
90.0
 71
     2
 49
0.5
 62
   256
  6
BYLAYER
 49
-0.5
 62
   256
  6
BYLAYER
  0
ACDBPLACEHOLDER
  5
F
102
{ACAD_REACTORS
330
E
102
}
330
E
  0
SCALE
  5
48
102
{ACAD_REACTORS
330
47
102
}
330
47
100
AcDbScale
 70
     0
300
1:1
140
1.0
141
1.0
290
     1
  0
SCALE
  5
49
102
{ACAD_REACTORS
330
47
102
}
330
47
100
AcDbScale
 70
     0
300
1:2
140
1.0
141
2.0
290
     0
  0
SCALE
  5
4A
102
{ACAD_REACTORS
330
47
102
}
330
47
100
AcDbScale
 70
     0
300
1:4
140
1.0
141
4.0
290
     0
  0
SCALE
  5
4B
102
{ACAD_REACTORS
330
47
102
}
330
47
100
AcDbScale
 70
     0
300
1:5
140
1.0
141
5.0
290
     0
  0
SCALE
  5
4C
102
{ACAD_REACTORS
330
47
102
}
330
47
100
AcDbScale
 70
     0
300
1:8
140
1.0
141
8.0
290
     0
  0
SCALE
  5
4D
102
{ACAD_REACTORS
330
47
102
}
330
47
100
AcDbScale
 70
     0
300
1:10
140
1.0
141
10.0
290
     0
  0
SCALE
  5
4E
102
{ACAD_REACTORS
330
47
102
}
330
47
100
AcDbScale
 70
     0
300
1:16
140
1.0
141
16.0
290
     0
  0
SCALE
  5
4F
102
{ACAD_REACTORS
330
47
102
}
330
47
100
AcDbScale
 70
     0
300
1:20
140
1.0
141
20.0
290
     0
  0
SCALE
  5
50
102
{ACAD_REACTORS
330
47
102
}
330
47
100
AcDbScale
 70
     0
300
1:30
140
1.0
141
30.0
290
     0
  0
SCALE
  5
51
102
{ACAD_REACTORS
330
47
102
}
330
47
100
AcDbScale
 70
     0
300
1:40
140
1.0
141
40.0
290
     0
  0
SCALE
  5
52
102
{ACAD_REACTORS
330
47
102
}
330
47
100
AcDbScale
 70
     0
300
1:50
140
1.0
141
50.0
290
     0
  0
SCALE
  5
53
102
{ACAD_REACTORS
330
47
102
}
330
47
100
AcDbScale
 70
     0
300
1:100
140
1.0
141
100.0
290
     0
  0
SCALE
  5
54
102
{ACAD_REACTORS
330
47
102
}
330
47
100
AcDbScale
 70
     0
300
2:1
140
2.0
141
1.0
290
     0
  0
SCALE
  5
55
102
{ACAD_REACTORS
330
47
102
}
330
47
100
AcDbScale
 70
     0
300
4:1
140
4.0
141
1.0
290
     0
  0
SCALE
  5
56
102
{ACAD_REACTORS
330
47
102
}
330
47
100
AcDbScale
 70
     0
300
8:1
140
8.0
141
1.0
290
     0
  0
SCALE
  5
57
102
{ACAD_REACTORS
330
47
102
}
330
47
100
AcDbScale
 70
     0
300
10:1
140
10.0
141
1.0
290
     0
  0
SCALE
  5
58
102
{ACAD_REACTORS
330
47
102
}
330
47
100
AcDbScale
 70
     0
300
100:1
140
100.0
141
1.0
290
     0
  0
SCALE
  5
59
102
{ACAD_REACTORS
330
47
102
}
330
47
100
AcDbScale
 70
     0
300
1/128" = 1'-0"
140
0.0078125
141
12.0
290
     0
  0
SCALE
  5
5A
102
{ACAD_REACTORS
330
47
102
}
330
47
100
AcDbScale
 70
     0
300
1/64" = 1'-0"
140
0.015625
141
12.0
290
     0
  0
SCALE
  5
5B
102
{ACAD_REACTORS
330
47
102
}
330
47
100
AcDbScale
 70
     0
300
1/32" = 1'-0"
140
0.03125
141
12.0
290
     0
  0
SCALE
  5
5C
102
{ACAD_REACTORS
330
47
102
}
330
47
100
AcDbScale
 70
     0
300
1/16" = 1'-0"
140
0.0625
141
12.0
290
     0
  0
SCALE
  5
5D
102
{ACAD_REACTORS
330
47
102
}
330
47
100
AcDbScale
 70
     0
300
3/32" = 1'-0"
140
0.09375
141
12.0
290
     0
  0
SCALE
  5
5E
102
{ACAD_REACTORS
330
47
102
}
330
47
100
AcDbScale
 70
     0
300
1/8" = 1'-0"
140
0.125
141
12.0
290
     0
  0
SCALE
  5
5F
102
{ACAD_REACTORS
330
47
102
}
330
47
100
AcDbScale
 70
     0
300
3/16" = 1'-0"
140
0.1875
141
12.0
290
     0
  0
SCALE
  5
60
102
{ACAD_REACTORS
330
47
102
}
330
47
100
AcDbScale
 70
     0
300
1/4" = 1'-0"
140
0.25
141
12.0
290
     0
  0
SCALE
  5
61
102
{ACAD_REACTORS
330
47
102
}
330
47
100
AcDbScale
 70
     0
300
3/8" = 1'-0"
140
0.375
141
12.0
290
     0
  0
SCALE
  5
62
102
{ACAD_REACTORS
330
47
102
}
330
47
100
AcDbScale
 70
     0
300
1/2" = 1'-0"
140
0.5
141
12.0
290
     0
  0
SCALE
  5
63
102
{ACAD_REACTORS
330
47
102
}
330
47
100
AcDbScale
 70
     0
300
3/4" = 1'-0"
140
0.75
141
12.0
290
     0
  0
SCALE
  5
64
102
{ACAD_REACTORS
330
47
102
}
330
47
100
AcDbScale
 70
     0
300
1" = 1'-0"
140
1.0
141
12.0
290
     0
  0
SCALE
  5
65
102
{ACAD_REACTORS
330
47
102
}
330
47
100
AcDbScale
 70
     0
300
1-1/2" = 1'-0"
140
1.5
141
12.0
290
     0
  0
SCALE
  5
66
102
{ACAD_REACTORS
330
47
102
}
330
47
100
AcDbScale
 70
     0
300
3" = 1'-0"
140
3.0
141
12.0
290
     0
  0
SCALE
  5
67
102
{ACAD_REACTORS
330
47
102
}
330
47
100
AcDbScale
 70
     0
300
6" = 1'-0"
140
6.0
141
12.0
290
     0
  0
SCALE
  5
68
102
{ACAD_REACTORS
330
47
102
}
330
47
100
AcDbScale
 70
     0
300
1'-0" = 1'-0"
140
12.0
141
12.0
290
     0
  0
ENDSEC
  0
EOF
