  0
SECTION
  2
HEADER
  9
$ACADVER
  1
AC1015
  9
$ACADMAINTVER
 70
     6
  9
$DWGCODEPAGE
  3
ANSI_932
  9
$INSBASE
 10
0.0
 20
0.0
 30
0.0
  9
$EXTMIN
 10
34.87452862758397
 20
88.62859459459463
 30
0.0
  9
$EXTMAX
 10
197.4778986486487
 20
232.6734371834752
 30
0.0
  9
$LIMMIN
 10
0.0
 20
0.0
  9
$LIMMAX
 10
210.0
 20
297.0
  9
$ORTHOMODE
 70
     0
  9
$REGENMODE
 70
     1
  9
$FILLMODE
 70
     1
  9
$QTEXTMODE
 70
     0
  9
$MIRRTEXT
 70
     1
  9
$LTSCALE
 40
1.0
  9
$ATTMODE
 70
     1
  9
$TEXTSIZE
 40
3.5
  9
$TRACEWID
 40
1.0
  9
$TEXTSTYLE
  7
Standard
  9
$CLAYER
  8
0
  9
$CELTYPE
  6
ByLayer
  9
$CECOLOR
 62
   256
  9
$CELTSCALE
 40
1.0
  9
$DISPSILH
 70
     0
  9
$DIMSCALE
 40
1.0
  9
$DIMASZ
 40
3.302
  9
$DIMEXO
 40
1.0
  9
$DIMDLI
 40
3.75
  9
$DIMRND
 40
0.0
  9
$DIMDLE
 40
0.0
  9
$DIMEXE
 40
1.0
  9
$DIMTP
 40
0.0
  9
$DIMTM
 40
0.0
  9
$DIMTXT
 40
3.5
  9
$DIMCEN
 40
2.5
  9
$DIMTSZ
 40
0.0
  9
$DIMTOL
 70
     0
  9
$DIMLIM
 70
     0
  9
$DIMTIH
 70
     1
  9
$DIMTOH
 70
     1
  9
$DIMSE1
 70
     0
  9
$DIMSE2
 70
     0
  9
$DIMTAD
 70
     1
  9
$DIMZIN
 70
     0
  9
$DIMBLK
  1

  9
$DIMASO
 70
     1
  9
$DIMSHO
 70
     1
  9
$DIMPOST
  1

  9
$DIMAPOST
  1

  9
$DIMALT
 70
     0
  9
$DIMALTD
 70
     3
  9
$DIMALTF
 40
0.0393700787401575
  9
$DIMLFAC
 40
2.0
  9
$DIMTOFL
 70
     1
  9
$DIMTVP
 40
0.0
  9
$DIMTIX
 70
     0
  9
$DIMSOXD
 70
     0
  9
$DIMSAH
 70
     0
  9
$DIMBLK1
  1

  9
$DIMBLK2
  1

  9
$DIMSTYLE
  2
ISO-25
  9
$DIMCLRD
 70
     0
  9
$DIMCLRE
 70
     0
  9
$DIMCLRT
 70
     0
  9
$DIMTFAC
 40
1.0
  9
$DIMGAP
 40
1.524
  9
$DIMJUST
 70
     0
  9
$DIMSD1
 70
     0
  9
$DIMSD2
 70
     0
  9
$DIMTOLJ
 70
     0
  9
$DIMTZIN
 70
     0
  9
$DIMALTZ
 70
     0
  9
$DIMALTTZ
 70
     0
  9
$DIMUPT
 70
     0
  9
$DIMDEC
 70
     2
  9
$DIMTDEC
 70
     2
  9
$DIMALTU
 70
     2
  9
$DIMALTTD
 70
     3
  9
$DIMTXSTY
  7
Standard
  9
$DIMAUNIT
 70
     0
  9
$DIMADEC
 70
     2
  9
$DIMALTRND
 40
0.0
  9
$DIMAZIN
 70
     0
  9
$DIMDSEP
 70
    44
  9
$DIMATFIT
 70
     3
  9
$DIMFRAC
 70
     0
  9
$DIMLDRBLK
  1

  9
$DIMLUNIT
 70
     2
  9
$DIMLWD
 70
    -2
  9
$DIMLWE
 70
    -2
  9
$DIMTMOVE
 70
     0
  9
$LUNITS
 70
     2
  9
$LUPREC
 70
     2
  9
$SKETCHINC
 40
1.0
  9
$FILLETRAD
 40
10.0
  9
$AUNITS
 70
     0
  9
$AUPREC
 70
     2
  9
$MENU
  1
.
  9
$ELEVATION
 40
0.0
  9
$PELEVATION
 40
0.0
  9
$THICKNESS
 40
0.0
  9
$LIMCHECK
 70
     0
  9
$CHAMFERA
 40
0.0
  9
$CHAMFERB
 40
0.0
  9
$CHAMFERC
 40
0.0
  9
$CHAMFERD
 40
0.0
  9
$SKPOLY
 70
     0
  9
$TDCREATE
 40
2458025.901670451
  9
$TDUCREATE
 40
2458025.526670451
  9
$TDUPDATE
 40
2458214.650405266
  9
$TDUUPDATE
 40
2458214.275405266
  9
$TDINDWG
 40
0.0052564468
  9
$TDUSRTIMER
 40
0.0001615278
  9
$USRTIMER
 70
     1
  9
$ANGBASE
 50
0.0
  9
$ANGDIR
 70
     0
  9
$PDMODE
 70
     0
  9
$PDSIZE
 40
-1.0
  9
$PLINEWID
 40
0.0
  9
$SPLFRAME
 70
     0
  9
$SPLINETYPE
 70
     6
  9
$SPLINESEGS
 70
     8
  9
$HANDSEED
  5
1003
  9
$SURFTAB1
 70
     6
  9
$SURFTAB2
 70
     6
  9
$SURFTYPE
 70
     6
  9
$SURFU
 70
     6
  9
$SURFV
 70
     6
  9
$UCSBASE
  2

  9
$UCSNAME
  2

  9
$UCSORG
 10
0.0
 20
0.0
 30
0.0
  9
$UCSXDIR
 10
1.0
 20
0.0
 30
0.0
  9
$UCSYDIR
 10
0.0
 20
1.0
 30
0.0
  9
$UCSORTHOREF
  2

  9
$UCSORTHOVIEW
 70
     0
  9
$UCSORGTOP
 10
0.0
 20
0.0
 30
0.0
  9
$UCSORGBOTTOM
 10
0.0
 20
0.0
 30
0.0
  9
$UCSORGLEFT
 10
0.0
 20
0.0
 30
0.0
  9
$UCSORGRIGHT
 10
0.0
 20
0.0
 30
0.0
  9
$UCSORGFRONT
 10
0.0
 20
0.0
 30
0.0
  9
$UCSORGBACK
 10
0.0
 20
0.0
 30
0.0
  9
$PUCSBASE
  2

  9
$PUCSNAME
  2

  9
$PUCSORG
 10
0.0
 20
0.0
 30
0.0
  9
$PUCSXDIR
 10
1.0
 20
0.0
 30
0.0
  9
$PUCSYDIR
 10
0.0
 20
1.0
 30
0.0
  9
$PUCSORTHOREF
  2

  9
$PUCSORTHOVIEW
 70
     0
  9
$PUCSORGTOP
 10
0.0
 20
0.0
 30
0.0
  9
$PUCSORGBOTTOM
 10
0.0
 20
0.0
 30
0.0
  9
$PUCSORGLEFT
 10
0.0
 20
0.0
 30
0.0
  9
$PUCSORGRIGHT
 10
0.0
 20
0.0
 30
0.0
  9
$PUCSORGFRONT
 10
0.0
 20
0.0
 30
0.0
  9
$PUCSORGBACK
 10
0.0
 20
0.0
 30
0.0
  9
$USERI1
 70
     0
  9
$USERI2
 70
     0
  9
$USERI3
 70
     0
  9
$USERI4
 70
     0
  9
$USERI5
 70
     0
  9
$USERR1
 40
0.0
  9
$USERR2
 40
0.0
  9
$USERR3
 40
0.0
  9
$USERR4
 40
0.0
  9
$USERR5
 40
0.0
  9
$WORLDVIEW
 70
     1
  9
$SHADEDGE
 70
     3
  9
$SHADEDIF
 70
    70
  9
$TILEMODE
 70
     1
  9
$MAXACTVP
 70
    64
  9
$PINSBASE
 10
0.0
 20
0.0
 30
0.0
  9
$PLIMCHECK
 70
     0
  9
$PEXTMIN
 10
1.000000000000000E+20
 20
1.000000000000000E+20
 30
1.000000000000000E+20
  9
$PEXTMAX
 10
-1.000000000000000E+20
 20
-1.000000000000000E+20
 30
-1.000000000000000E+20
  9
$PLIMMIN
 10
0.0
 20
0.0
  9
$PLIMMAX
 10
0.0
 20
0.0
  9
$UNITMODE
 70
     0
  9
$VISRETAIN
 70
     1
  9
$PLINEGEN
 70
     0
  9
$PSLTSCALE
 70
     1
  9
$TREEDEPTH
 70
  3020
  9
$CMLSTYLE
  2
Standard
  9
$CMLJUST
 70
     0
  9
$CMLSCALE
 40
20.0
  9
$PROXYGRAPHICS
 70
     1
  9
$MEASUREMENT
 70
     1
  9
$CELWEIGHT
370
    -1
  9
$ENDCAPS
280
     0
  9
$JOINSTYLE
280
     0
  9
$LWDISPLAY
290
     1
  9
$INSUNITS
 70
     4
  9
$HYPERLINKBASE
  1

  9
$STYLESHEET
  1

  9
$XEDIT
290
     1
  9
$CEPSNTYPE
380
     0
  9
$PSTYLEMODE
290
     1
  9
$FINGERPRINTGUID
  2
{75375FFD-739C-48ED-822E-76A46AAE9E82}
  9
$VERSIONGUID
  2
{FAEB1C32-E019-11D5-929B-00C0DF256EC4}
  9
$EXTNAMES
290
     1
  9
$PSVPSCALE
 40
0.0
  9
$OLESTARTUP
290
     0
  0
ENDSEC
  0
SECTION
  2
CLASSES
  0
CLASS
  1
ACDBDICTIONARYWDFLT
  2
AcDbDictionaryWithDefault
  3
ObjectDBX Classes
 90
        0
280
     0
281
     0
  0
CLASS
  1
VISUALSTYLE
  2
AcDbVisualStyle
  3
ObjectDBX Classes
 90
     4095
280
     0
281
     0
  0
CLASS
  1
MATERIAL
  2
AcDbMaterial
  3
ObjectDBX Classes
 90
     1153
280
     0
281
     0
  0
CLASS
  1
SCALE
  2
AcDbScale
  3
ObjectDBX Classes
 90
     1153
280
     0
281
     0
  0
CLASS
  1
TABLESTYLE
  2
AcDbTableStyle
  3
ObjectDBX Classes
 90
     4095
280
     0
281
     0
  0
CLASS
  1
MLEADERSTYLE
  2
AcDbMLeaderStyle
  3
ACDB_MLEADERSTYLE_CLASS
 90
     4095
280
     0
281
     0
  0
CLASS
  1
SUN
  2
AcDbSun
  3
SCENEOE
 90
     1153
280
     0
281
     0
  0
CLASS
  1
ACDBPLACEHOLDER
  2
AcDbPlaceHolder
  3
ObjectDBX Classes
 90
        0
280
     0
281
     0
  0
CLASS
  1
LAYOUT
  2
AcDbLayout
  3
ObjectDBX Classes
 90
        0
280
     0
281
     0
  0
CLASS
  1
RASTERVARIABLES
  2
AcDbRasterVariables
  3
ISM
 90
        0
280
     0
281
     0
  0
CLASS
  1
DICTIONARYVAR
  2
AcDbDictionaryVar
  3
ObjectDBX Classes
 90
        0
280
     0
281
     0
  0
CLASS
  1
SORTENTSTABLE
  2
AcDbSortentsTable
  3
ObjectDBX Classes
 90
        0
280
     0
281
     0
  0
CLASS
  1
CELLSTYLEMAP
  2
AcDbCellStyleMap
  3
ObjectDBX Classes
 90
     1152
280
     0
281
     0
  0
ENDSEC
  0
SECTION
  2
TABLES
  0
TABLE
  2
VPORT
  5
8
330
0
100
AcDbSymbolTable
 70
     1
  0
VPORT
  5
29
330
8
100
AcDbSymbolTableRecord
100
AcDbViewportTableRecord
  2
*Active
 70
     0
 10
0.0
 20
0.0
 11
1.0
 21
1.0
 12
116.1762136381163
 22
160.6510158890349
 13
0.0
 23
0.0
 14
10.0
 24
10.0
 15
10.0
 25
10.0
 16
0.0
 26
0.0
 36
1.0
 17
0.0
 27
0.0
 37
0.0
 40
146.9257394406582
 41
2.043890865954923
 42
50.0
 43
0.0
 44
0.0
 50
0.0
 51
0.0
 71
    16
 72
  2000
 73
     1
 74
     3
 75
     0
 76
     0
 77
     0
 78
     0
281
     0
 65
     1
110
0.0
120
0.0
130
0.0
111
1.0
121
0.0
131
0.0
112
0.0
122
1.0
132
0.0
 79
     0
146
0.0
  0
ENDTAB
  0
TABLE
  2
LTYPE
  5
5
330
0
100
AcDbSymbolTable
 70
     6
  0
LTYPE
  5
14
330
5
100
AcDbSymbolTableRecord
100
AcDbLinetypeTableRecord
  2
ByBlock
 70
     0
  3

 72
    65
 73
     0
 40
0.0
  0
LTYPE
  5
15
330
5
100
AcDbSymbolTableRecord
100
AcDbLinetypeTableRecord
  2
ByLayer
 70
     0
  3

 72
    65
 73
     0
 40
0.0
  0
LTYPE
  5
16
330
5
100
AcDbSymbolTableRecord
100
AcDbLinetypeTableRecord
  2
Continuous
 70
     0
  3
Solid line
 72
    65
 73
     0
 40
0.0
  0
LTYPE
  5
6E
330
5
100
AcDbSymbolTableRecord
100
AcDbLinetypeTableRecord
  2
HIDDEN
 70
     0
  3
Hidden __ __ __ __ __ __ __ __ __ __ __ __ __ __
 72
    65
 73
     2
 40
1.905
 49
1.27
 74
     0
 49
-0.635
 74
     0
  0
LTYPE
  5
6F
330
5
100
AcDbSymbolTableRecord
100
AcDbLinetypeTableRecord
  2
PHANTOM
 70
     0
  3
Phantom ______  __  __  ______  __  __  ______
 72
    65
 73
     6
 40
12.7
 49
6.35
 74
     0
 49
-1.27
 74
     0
 49
1.27
 74
     0
 49
-1.27
 74
     0
 49
1.27
 74
     0
 49
-1.27
 74
     0
  0
LTYPE
  5
70
330
5
100
AcDbSymbolTableRecord
100
AcDbLinetypeTableRecord
  2
CENTER
 70
     0
  3
Center ____ _ ____ _ ____ _ ____ _ ____ _ ____
 72
    65
 73
     4
 40
10.16
 49
6.35
 74
     0
 49
-1.27
 74
     0
 49
1.27
 74
     0
 49
-1.27
 74
     0
  0
LTYPE
  5
71
330
5
100
AcDbSymbolTableRecord
100
AcDbLinetypeTableRecord
  2
CENTERX2
 70
     0
  3
Center (2x) ________  __  ________  __  _____
 72
    65
 73
     4
 40
20.32
 49
12.7
 74
     0
 49
-2.54
 74
     0
 49
2.54
 74
     0
 49
-2.54
 74
     0
  0
LTYPE
  5
72
330
5
100
AcDbSymbolTableRecord
100
AcDbLinetypeTableRecord
  2
DOT2
 70
     0
  3
Dot (.5x) ........................................
 72
    65
 73
     2
 40
0.635
 49
0.0
 74
     0
 49
-0.635
 74
     0
  0
ENDTAB
  0
TABLE
  2
LAYER
  5
2
102
{ACAD_XDICTIONARY
360
66F
102
}
330
0
100
AcDbSymbolTable
 70
    13
  0
LAYER
  5
10
330
2
100
AcDbSymbolTableRecord
100
AcDbLayerTableRecord
  2
0
 70
     0
 62
     7
  6
Continuous
370
    -3
390
F
  0
LAYER
  5
73
330
2
100
AcDbSymbolTableRecord
100
AcDbLayerTableRecord
  2
SLD-0
 70
     0
 62
   179
  6
Continuous
370
    -3
390
F
  0
LAYER
  5
74
330
2
100
AcDbSymbolTableRecord
100
AcDbLayerTableRecord
  2
中心線
 70
     0
 62
     1
  6
CENTER
370
    -3
390
F
  0
LAYER
  5
75
330
2
100
AcDbSymbolTableRecord
100
AcDbLayerTableRecord
  2
破線
 70
     0
 62
     3
  6
HIDDEN
370
    -3
390
F
  0
LAYER
  5
76
330
2
100
AcDbSymbolTableRecord
100
AcDbLayerTableRecord
  2
寸法線
 70
     0
 62
     7
  6
Continuous
370
    -3
390
F
  0
LAYER
  5
77
330
2
100
AcDbSymbolTableRecord
100
AcDbLayerTableRecord
  2
実線
 70
     0
 62
     4
  6
Continuous
370
    25
390
F
  0
LAYER
  5
78
330
2
100
AcDbSymbolTableRecord
100
AcDbLayerTableRecord
  2
ﾊｯﾁﾝｸﾞ
 70
     0
 62
     8
  6
Continuous
370
    -3
390
F
  0
LAYER
  5
79
330
2
100
AcDbSymbolTableRecord
100
AcDbLayerTableRecord
  2
輪郭線
 70
     0
 62
     6
  6
Continuous
370
    25
390
F
  0
LAYER
  5
7A
330
2
100
AcDbSymbolTableRecord
100
AcDbLayerTableRecord
  2
文字
 70
     0
 62
   179
  6
Continuous
370
    -3
390
F
  0
LAYER
  5
7B
330
2
100
AcDbSymbolTableRecord
100
AcDbLayerTableRecord
  2
想像線
 70
     0
 62
     3
  6
PHANTOM
370
    -3
390
F
  0
LAYER
  5
7C
330
2
100
AcDbSymbolTableRecord
100
AcDbLayerTableRecord
  2
姿図
 70
     0
 62
     8
  6
Continuous
370
    -3
390
F
  0
LAYER
  5
7D
330
2
100
AcDbSymbolTableRecord
100
AcDbLayerTableRecord
  2
注記
 70
     0
 62
     7
  6
Continuous
370
    25
390
F
  0
LAYER
  5
7E
330
2
100
AcDbSymbolTableRecord
100
AcDbLayerTableRecord
  2
ロゴ：MODULEX
 70
     0
 62
     7
  6
Continuous
370
    -3
390
F
  0
ENDTAB
  0
TABLE
  2
STYLE
  5
3
330
0
100
AcDbSymbolTable
 70
     1
  0
STYLE
  5
11
330
3
100
AcDbSymbolTableRecord
100
AcDbTextStyleTableRecord
  2
Standard
 70
     0
 40
0.0
 41
1.0
 50
0.0
 71
     0
 42
3.5
  3
txt
  4
bigfont
  0
ENDTAB
  0
TABLE
  2
VIEW
  5
6
330
0
100
AcDbSymbolTable
 70
     0
  0
ENDTAB
  0
TABLE
  2
UCS
  5
7
330
0
100
AcDbSymbolTable
 70
     0
  0
ENDTAB
  0
TABLE
  2
APPID
  5
9
330
0
100
AcDbSymbolTable
 70
     5
  0
APPID
  5
12
330
9
100
AcDbSymbolTableRecord
100
AcDbRegAppTableRecord
  2
ACAD
 70
     0
  0
APPID
  5
64B
330
9
100
AcDbSymbolTableRecord
100
AcDbRegAppTableRecord
  2
ACAD_DSTYLE_DIMJAG
 70
     0
  0
APPID
  5
64C
330
9
100
AcDbSymbolTableRecord
100
AcDbRegAppTableRecord
  2
ACAD_DSTYLE_DIMTALN
 70
     0
  0
APPID
  5
64D
330
9
100
AcDbSymbolTableRecord
100
AcDbRegAppTableRecord
  2
ACAD_PSEXT
 70
     0
  0
APPID
  5
FE7
330
9
100
AcDbSymbolTableRecord
100
AcDbRegAppTableRecord
  2
ACAD_MLEADERVER
 70
     0
  0
ENDTAB
  0
TABLE
  2
DIMSTYLE
  5
A
330
0
100
AcDbSymbolTable
 70
     3
100
AcDbDimStyleTable
  0
DIMSTYLE
105
27
330
A
100
AcDbSymbolTableRecord
100
AcDbDimStyleTableRecord
  2
ISO-25
 70
     0
 41
2.5
 42
0.625
 43
3.75
 44
1.25
 73
     0
 74
     0
 77
     1
 78
     8
140
2.5
141
2.5
143
0.03937007874016
147
0.625
171
     3
172
     1
178
     0
271
     2
272
     2
274
     3
278
    44
283
     0
284
     8
340
11
  0
DIMSTYLE
105
643
330
A
100
AcDbSymbolTableRecord
100
AcDbDimStyleTableRecord
  2
STANDARD
 70
     0
 41
2.5
 42
1.5
 44
1.0
 73
     0
 74
     0
 77
     3
 78
     8
 79
     2
140
2.500000000000003
141
0.0
147
1.0
171
     0
172
     1
173
     1
176
     8
177
     8
271
     2
178
   256
179
     2
271
     2
272
     2
274
     0
289
     1
340
11
341
645
343
645
344
645
1001
ACAD_DSTYLE_DIMJAG
1070
   388
1040
1.5
1001
ACAD_DSTYLE_DIMTALN
1070
   392
1070
     0
  0
DIMSTYLE
105
6A7
330
A
100
AcDbSymbolTableRecord
100
AcDbDimStyleTableRecord
  2
STANDARD-10
 70
     0
 41
15.0
 42
15.0
 43
3.8
 44
1.0
 73
     0
 74
     0
 77
     1
 78
     8
 79
     2
140
20.0
141
0.0
147
0.0
171
     0
172
     1
173
     1
176
     8
177
     8
271
     2
178
   256
179
     2
271
     2
272
     2
274
     0
289
     2
340
11
341
645
343
645
344
645
  0
ENDTAB
  0
TABLE
  2
BLOCK_RECORD
  5
1
330
0
100
AcDbSymbolTable
 70
     3
  0
BLOCK_RECORD
  5
1F
330
1
100
AcDbSymbolTableRecord
100
AcDbBlockTableRecord
  2
*Model_Space
340
22
  0
BLOCK_RECORD
  5
1B
330
1
100
AcDbSymbolTableRecord
100
AcDbBlockTableRecord
  2
*Paper_Space
340
1E
  0
BLOCK_RECORD
  5
23
330
1
100
AcDbSymbolTableRecord
100
AcDbBlockTableRecord
  2
*Paper_Space0
340
26
  0
BLOCK_RECORD
  5
645
330
1
100
AcDbSymbolTableRecord
100
AcDbBlockTableRecord
  2
_OPEN
340
0
  0
ENDTAB
  0
ENDSEC
  0
SECTION
  2
BLOCKS
  0
BLOCK
  5
20
330
1F
100
AcDbEntity
  8
0
100
AcDbBlockBegin
  2
*Model_Space
 70
     0
 10
0.0
 20
0.0
 30
0.0
  3
*Model_Space
  1

  0
ENDBLK
  5
21
330
1F
100
AcDbEntity
  8
0
100
AcDbBlockEnd
  0
BLOCK
  5
1C
330
1B
100
AcDbEntity
 67
     1
  8
0
100
AcDbBlockBegin
  2
*Paper_Space
 70
     0
 10
0.0
 20
0.0
 30
0.0
  3
*Paper_Space
  1

  0
ENDBLK
  5
1D
330
1B
100
AcDbEntity
 67
     1
  8
0
100
AcDbBlockEnd
  0
BLOCK
  5
24
330
23
100
AcDbEntity
  8
0
100
AcDbBlockBegin
  2
*Paper_Space0
 70
     0
 10
0.0
 20
0.0
 30
0.0
  3
*Paper_Space0
  1

  0
ENDBLK
  5
25
330
23
100
AcDbEntity
  8
0
100
AcDbBlockEnd
  0
BLOCK
  5
646
330
645
100
AcDbEntity
  8
0
100
AcDbBlockBegin
  2
_OPEN
 70
     0
 10
0.0
 20
0.0
 30
0.0
  3
_OPEN
  1

  0
LINE
  5
647
330
645
100
AcDbEntity
  8
0
  6
ByBlock
 62
     0
100
AcDbLine
 10
-1.0
 20
0.1666666666666667
 30
0.0
 11
0.0
 21
0.0
 31
0.0
  0
LINE
  5
648
330
645
100
AcDbEntity
  8
0
  6
ByBlock
 62
     0
100
AcDbLine
 10
0.0
 20
0.0
 30
0.0
 11
-1.0
 21
-0.1666666666666667
 31
0.0
  0
LINE
  5
649
330
645
100
AcDbEntity
  8
0
  6
ByBlock
 62
     0
100
AcDbLine
 10
0.0
 20
0.0
 30
0.0
 11
-1.0
 21
0.0
 31
0.0
  0
ENDBLK
  5
64A
330
645
100
AcDbEntity
  8
0
100
AcDbBlockEnd
  0
ENDSEC
  0
SECTION
  2
ENTITIES
  0
TEXT
  5
674
330
1F
100
AcDbEntity
  8
文字
 62
     7
100
AcDbText
 10
42.97789864864868
 20
88.62859459459463
 30
0.0
 40
10.0
  1
MMT-103S/0900/LE/01
 41
0.9
 11
42.97789864864868
 21
88.62859459459463
 31
0.0
100
AcDbText
 73
     1
  0
LINE
  5
EE4
330
1F
100
AcDbEntity
  8
姿図
100
AcDbLine
 10
114.9270033883254
 20
182.4483726760006
 30
0.0
 11
101.0119611535461
 21
180.4315317551806
 31
0.0
  0
LINE
  5
EE5
330
1F
100
AcDbEntity
  8
姿図
100
AcDbLine
 10
106.1636829969298
 20
106.3054411464288
 30
0.0
 11
123.2516329467667
 21
109.3412213619555
 31
0.0
  0
LINE
  5
EE6
330
1F
100
AcDbEntity
  8
姿図
100
AcDbLine
 10
102.0119611535461
 20
175.6172592206564
 30
0.0
 11
94.92210894637861
 21
173.9024504606638
 31
0.0
  0
LINE
  5
EE7
330
1F
100
AcDbEntity
  8
姿図
100
AcDbLine
 10
94.92210894637952
 20
173.9024504606638
 30
0.0
 11
165.4726046829051
 21
113.9402917214117
 31
0.0
  0
LINE
  5
EE8
330
1F
100
AcDbEntity
  8
姿図
100
AcDbLine
 10
117.4270033883263
 20
232.6734371834752
 30
0.0
 11
37.6343510626071
 21
218.497777962453
 31
0.0
  0
LINE
  5
EE9
330
1F
100
AcDbEntity
  8
姿図
100
AcDbLine
 10
133.9576927445619
 20
109.7215310783319
 30
0.0
 11
63.36019031464599
 21
169.6753387871647
 31
0.0
  0
LINE
  5
EEA
330
1F
100
AcDbEntity
  8
姿図
100
AcDbLine
 10
133.957692744561
 20
108.3414722938448
 30
0.0
 11
63.36019031464508
 21
168.2952800026775
 31
0.0
  0
LINE
  5
EEB
330
1F
100
AcDbEntity
  8
姿図
100
AcDbLine
 10
126.0779023302526
 20
106.9415786897277
 30
0.0
 11
55.48039990033936
 21
166.8953863985604
 31
0.0
  0
LINE
  5
EEC
330
1F
100
AcDbEntity
  8
姿図
100
AcDbLine
 10
106.4680458374738
 20
220.3316145231144
 30
0.0
 11
45.39323370917242
 21
209.4812956217608
 31
0.0
  0
LINE
  5
EED
330
1F
100
AcDbEntity
  8
姿図
100
AcDbLine
 10
106.4270033883254
 20
220.5626362925029
 30
0.0
 11
45.1343510626071
 21
209.6736167299566
 31
0.0
  0
LINE
  5
EEE
330
1F
100
AcDbEntity
  8
姿図
100
AcDbLine
 10
106.1636829969298
 20
106.3054411464288
 30
0.0
 11
34.87452862758397
 21
166.8464956045934
 31
0.0
  0
LINE
  5
EEF
330
1F
100
AcDbEntity
  8
姿図
100
AcDbLine
 10
45.3932337091706
 20
209.4812956217608
 30
0.0
 11
105.9315345151841
 21
158.0903967098163
 31
0.0
  0
LINE
  5
EF0
330
1F
100
AcDbEntity
  8
姿図
100
AcDbLine
 10
63.36019031464508
 20
168.2952800026775
 30
0.0
 11
55.48039990033936
 21
166.8953863985604
 31
0.0
  0
LINE
  5
EF1
330
1F
100
AcDbEntity
  8
姿図
100
AcDbLine
 10
58.16316918560057
 20
171.7632299126378
 30
0.0
 11
63.36019031464508
 21
169.6753387871647
 31
0.0
  0
LINE
  5
EF2
330
1F
100
AcDbEntity
  8
姿図
100
AcDbLine
 10
57.97677505318512
 20
171.2992716953374
 30
0.0
 11
61.04255103296379
 21
170.0676033411143
 31
0.0
  0
LINE
  5
EF3
330
1F
100
AcDbEntity
  8
姿図
100
AcDbLine
 10
56.86045868482739
 20
170.7524323426839
 30
0.0
 11
59.22380873453091
 21
168.9404849631753
 31
0.0
  0
LINE
  5
EF4
330
1F
100
AcDbEntity
  8
姿図
100
AcDbLine
 10
61.14988622436027
 20
169.2826645666025
 30
0.0
 11
57.15418800863841
 21
168.5728040142182
 31
0.0
  0
LINE
  5
EF5
330
1F
100
AcDbEntity
  8
姿図
100
AcDbLine
 10
55.48039990033936
 20
170.5072563463543
 30
0.0
 11
55.48039990033936
 21
166.8953863985604
 31
0.0
  0
LINE
  5
EF6
330
1F
100
AcDbEntity
  8
姿図
100
AcDbLine
 10
56.86045868482648
 20
172.132491127171
 30
0.0
 11
56.86045868482739
 21
168.8189497967102
 31
0.0
  0
LINE
  5
EF7
330
1F
100
AcDbEntity
  8
姿図
100
AcDbLine
 10
57.97677505318512
 20
171.2992716953374
 30
0.0
 11
58.16316918560057
 21
171.7632299126378
 31
0.0
  0
ARC
  5
EF8
330
1F
100
AcDbEntity
  8
姿図
100
AcDbCircle
 10
57.11045868482739
 20
168.8189497967102
 30
0.0
 40
0.25
100
AcDbArc
 50
180.0
 51
280.0738452396399
  0
LINE
  5
EF9
330
1F
100
AcDbEntity
  8
姿図
100
AcDbLine
 10
61.35615690054834
 20
169.6036451238139
 30
0.0
 11
61.35615690054834
 21
169.5288103490945
 31
0.0
  0
ARC
  5
EFA
330
1F
100
AcDbEntity
  8
姿図
100
AcDbCircle
 10
61.10615690054834
 20
169.5288103490945
 30
0.0
 40
0.25
100
AcDbArc
 50
280.0738452396399
 51
0.0
  0
ARC
  5
EFB
330
1F
100
AcDbEntity
  8
姿図
100
AcDbCircle
 10
60.85615690054834
 20
169.6036451238139
 30
0.0
 40
0.5
100
AcDbArc
 50
0.0
 51
68.11232009494488
  0
LINE
  5
EFC
330
1F
100
AcDbEntity
  8
姿図
100
AcDbLine
 10
63.36019031464599
 20
169.6753387871647
 30
0.0
 11
63.36019031464508
 21
168.2952800026775
 31
0.0
  0
ELLIPSE
  5
EFD
330
1F
100
AcDbEntity
  8
姿図
100
AcDbEllipse
 10
41.24300762075342
 20
190.4773482970519
 30
0.0
 11
0.0
 21
-1.754236760817003
 31
0.0
210
0.0
220
0.0
230
1.0
 40
0.6840581766403772
 41
0.0
 42
6.283185307179586
  0
LINE
  5
EFE
330
1F
100
AcDbEntity
  8
姿図
100
AcDbLine
 10
45.1343510626071
 20
171.0649337040992
 30
0.0
 11
37.6343510626071
 21
169.7325122209328
 31
0.0
  0
ELLIPSE
  5
EFF
330
1F
100
AcDbEntity
  8
姿図
100
AcDbEllipse
 10
41.24300762075342
 20
174.8714770805033
 30
0.0
 11
0.0
 21
-1.754236760817003
 31
0.0
210
0.0
220
0.0
230
1.0
 40
0.6840581766403772
 41
0.0
 42
6.283185307179586
  0
LINE
  5
F00
330
1F
100
AcDbEntity
  8
姿図
100
AcDbLine
 10
34.87452862758397
 20
166.8464956045934
 30
0.0
 11
34.87452862758397
 21
168.2265543890805
 31
0.0
  0
ELLIPSE
  5
F01
330
1F
100
AcDbEntity
  8
姿図
100
AcDbEllipse
 10
41.44300762075324
 20
190.4773482970519
 30
0.0
 11
7.785699238618807E-16
 21
1.754236760817026
 31
0.0
210
0.0
220
0.0
230
1.0
 40
0.6840581766403936
 41
0.0834300866107265
 42
3.058162566979068
  0
LINE
  5
F02
330
1F
100
AcDbEntity
  8
姿図
100
AcDbLine
 10
35.9590714890806
 20
190.7756307201886
 30
0.0
 11
35.9590714890806
 21
188.4388012531996
 31
0.0
  0
LINE
  5
F03
330
1F
100
AcDbEntity
  8
姿図
100
AcDbLine
 10
37.6343510626071
 20
180.7438206196345
 30
0.0
 11
34.87452862758397
 21
180.2535210593484
 31
0.0
  0
LINE
  5
F04
330
1F
100
AcDbEntity
  8
姿図
100
AcDbLine
 10
37.6343510626071
 20
171.6601622484192
 30
0.0
 11
34.87452862758397
 21
171.1698626881332
 31
0.0
  0
LINE
  5
F05
330
1F
100
AcDbEntity
  8
姿図
100
AcDbLine
 10
37.6343510626071
 20
171.2004495695125
 30
0.0
 11
35.4255119294408
 21
170.8080356076604
 31
0.0
  0
LINE
  5
F06
330
1F
100
AcDbEntity
  8
姿図
100
AcDbLine
 10
37.6343510626071
 20
171.6601622484192
 30
0.0
 11
34.87452862758397
 21
171.1698626881332
 31
0.0
  0
LINE
  5
F07
330
1F
100
AcDbEntity
  8
姿図
100
AcDbLine
 10
37.6343510626071
 20
172.548229407617
 30
0.0
 11
34.87452862758397
 21
172.057929847331
 31
0.0
  0
LINE
  5
F08
330
1F
100
AcDbEntity
  8
姿図
100
AcDbLine
 10
37.6343510626071
 20
173.4362965668149
 30
0.0
 11
34.87452862758397
 21
172.9459970065288
 31
0.0
  0
LINE
  5
F09
330
1F
100
AcDbEntity
  8
姿図
100
AcDbLine
 10
37.6343510626071
 20
174.2736170312016
 30
0.0
 11
34.87452862758397
 21
173.7833174709137
 31
0.0
  0
LINE
  5
F0A
330
1F
100
AcDbEntity
  8
姿図
100
AcDbLine
 10
37.6343510626071
 20
174.8220290974456
 30
0.0
 11
35.78391174316636
 21
174.4932870837762
 31
0.0
  0
LINE
  5
F0B
330
1F
100
AcDbEntity
  8
姿図
100
AcDbLine
 10
37.6343510626071
 20
175.8721379177547
 30
0.0
 11
34.87452862758397
 21
175.3818383574687
 31
0.0
  0
LINE
  5
F0C
330
1F
100
AcDbEntity
  8
姿図
100
AcDbLine
 10
37.6343510626071
 20
176.7094583821415
 30
0.0
 11
34.87452862758397
 21
176.2191588218554
 31
0.0
  0
LINE
  5
F0D
330
1F
100
AcDbEntity
  8
姿図
100
AcDbLine
 10
37.6343510626071
 20
177.2578704483855
 30
0.0
 11
35.78391174316636
 21
176.9291284347161
 31
0.0
  0
LINE
  5
F0E
330
1F
100
AcDbEntity
  8
姿図
100
AcDbLine
 10
37.6343510626071
 20
178.3079792686946
 30
0.0
 11
34.87452862758397
 21
177.8176797084085
 31
0.0
  0
LINE
  5
F0F
330
1F
100
AcDbEntity
  8
姿図
100
AcDbLine
 10
37.6343510626071
 20
179.1452997330813
 30
0.0
 11
34.87452862758397
 21
178.6550001727953
 31
0.0
  0
LINE
  5
F10
330
1F
100
AcDbEntity
  8
姿図
100
AcDbLine
 10
37.6343510626071
 20
179.6937117993254
 30
0.0
 11
35.78391174316636
 21
179.364969785656
 31
0.0
  0
LINE
  5
F11
330
1F
100
AcDbEntity
  8
姿図
100
AcDbLine
 10
37.6343510626071
 20
184.0169824349611
 30
0.0
 11
34.87452862758397
 21
183.526682874675
 31
0.0
  0
LINE
  5
F12
330
1F
100
AcDbEntity
  8
姿図
100
AcDbLine
 10
37.6343510626071
 20
185.6155033215179
 30
0.0
 11
34.87452862758397
 21
185.12520376123
 31
0.0
  0
LINE
  5
F13
330
1F
100
AcDbEntity
  8
姿図
100
AcDbLine
 10
37.6343510626071
 20
184.5653945012052
 30
0.0
 11
35.78391174316636
 21
184.2366524875358
 31
0.0
  0
LINE
  5
F14
330
1F
100
AcDbEntity
  8
姿図
100
AcDbLine
 10
37.6343510626071
 20
187.1150123241202
 30
0.0
 11
35.60141680084467
 21
186.7538489528885
 31
0.0
  0
LINE
  5
F15
330
1F
100
AcDbEntity
  8
姿図
100
AcDbLine
 10
37.6343510626071
 20
186.4528237859028
 30
0.0
 11
34.87452862758397
 21
185.9625242256149
 31
0.0
  0
LINE
  5
F16
330
1F
100
AcDbEntity
  8
姿図
100
AcDbLine
 10
37.6343510626071
 20
187.7214911561838
 30
0.0
 11
34.87452862758397
 21
187.231191595896
 31
0.0
  0
LINE
  5
F17
330
1F
100
AcDbEntity
  8
姿図
100
AcDbLine
 10
37.6343510626071
 20
188.7364250524094
 30
0.0
 11
34.87452862758397
 21
188.2461254921215
 31
0.0
  0
LINE
  5
F18
330
1F
100
AcDbEntity
  8
姿図
100
AcDbLine
 10
37.6343510626071
 20
181.5811410840212
 30
0.0
 11
34.87452862758397
 21
181.0908415237352
 31
0.0
  0
LINE
  5
F19
330
1F
100
AcDbEntity
  8
姿図
100
AcDbLine
 10
37.6343510626071
 20
182.1295531502653
 30
0.0
 11
35.78391174316636
 21
181.8008111365959
 31
0.0
  0
LINE
  5
F1A
330
1F
100
AcDbEntity
  8
姿図
100
AcDbLine
 10
37.6343510626071
 20
183.179661970578
 30
0.0
 11
34.87452862758397
 21
182.6893624102883
 31
0.0
  0
LINE
  5
F1B
330
1F
100
AcDbEntity
  8
姿図
100
AcDbLine
 10
34.87452862758397
 20
180.2535210593484
 30
0.0
 11
34.87452862758397
 21
181.0908415237352
 31
0.0
  0
LINE
  5
F1C
330
1F
100
AcDbEntity
  8
姿図
100
AcDbLine
 10
34.87452862758397
 20
177.8176797084085
 30
0.0
 11
35.78391174316636
 21
176.9291284347161
 31
0.0
  0
LINE
  5
F1D
330
1F
100
AcDbEntity
  8
姿図
100
AcDbLine
 10
34.87452862758397
 20
180.2535210593484
 30
0.0
 11
35.78391174316636
 21
179.364969785656
 31
0.0
  0
LINE
  5
F1E
330
1F
100
AcDbEntity
  8
姿図
100
AcDbLine
 10
35.78391174316636
 20
179.364969785656
 30
0.0
 11
34.87452862758397
 21
178.6550001727953
 31
0.0
  0
LINE
  5
F1F
330
1F
100
AcDbEntity
  8
姿図
100
AcDbLine
 10
35.78391174316636
 20
176.9291284347161
 30
0.0
 11
34.87452862758397
 21
176.2191588218554
 31
0.0
  0
LINE
  5
F20
330
1F
100
AcDbEntity
  8
姿図
100
AcDbLine
 10
34.87452862758397
 20
175.3818383574687
 30
0.0
 11
35.78391174316636
 21
174.4932870837762
 31
0.0
  0
LINE
  5
F21
330
1F
100
AcDbEntity
  8
姿図
100
AcDbLine
 10
35.78391174316636
 20
174.4932870837762
 30
0.0
 11
34.87452862758397
 21
173.7833174709137
 31
0.0
  0
LINE
  5
F22
330
1F
100
AcDbEntity
  8
姿図
100
AcDbLine
 10
34.87452862758397
 20
177.8176797084085
 30
0.0
 11
34.87452862758397
 21
178.6550001727953
 31
0.0
  0
LINE
  5
F23
330
1F
100
AcDbEntity
  8
姿図
100
AcDbLine
 10
34.87452862758397
 20
175.3818383574687
 30
0.0
 11
34.87452862758397
 21
176.2191588218554
 31
0.0
  0
LINE
  5
F24
330
1F
100
AcDbEntity
  8
姿図
100
AcDbLine
 10
34.87452862758397
 20
172.9459970065288
 30
0.0
 11
34.87452862758397
 21
173.7833174709137
 31
0.0
  0
LINE
  5
F25
330
1F
100
AcDbEntity
  8
姿図
100
AcDbLine
 10
34.87452862758397
 20
172.057929847331
 30
0.0
 11
34.87452862758397
 21
171.1698626881332
 31
0.0
  0
LINE
  5
F26
330
1F
100
AcDbEntity
  8
姿図
100
AcDbLine
 10
34.87452862758397
 20
171.1698626881332
 30
0.0
 11
35.4255119294408
 21
170.8080356076604
 31
0.0
  0
LINE
  5
F27
330
1F
100
AcDbEntity
  8
姿図
100
AcDbLine
 10
34.87452862758397
 20
172.9459970065288
 30
0.0
 11
35.60141680084467
 21
172.4686543635214
 31
0.0
  0
LINE
  5
F28
330
1F
100
AcDbEntity
  8
姿図
100
AcDbLine
 10
35.60141680084467
 20
172.4686543635214
 30
0.0
 11
35.60141680084467
 21
172.1870660363854
 31
0.0
  0
LINE
  5
F29
330
1F
100
AcDbEntity
  8
姿図
100
AcDbLine
 10
34.87452862758397
 20
187.2311915958978
 30
0.0
 11
34.87452862758397
 21
188.2461254921215
 31
0.0
  0
LINE
  5
F2A
330
1F
100
AcDbEntity
  8
姿図
100
AcDbLine
 10
34.87452862758397
 20
185.12520376123
 30
0.0
 11
34.87452862758397
 21
185.9625242256149
 31
0.0
  0
LINE
  5
F2B
330
1F
100
AcDbEntity
  8
姿図
100
AcDbLine
 10
35.60141680084467
 20
186.7538489528903
 30
0.0
 11
35.60141680084467
 21
186.0916604146711
 31
0.0
  0
LINE
  5
F2C
330
1F
100
AcDbEntity
  8
姿図
100
AcDbLine
 10
34.87452862758397
 20
185.12520376123
 30
0.0
 11
35.78391174316636
 21
184.2366524875358
 31
0.0
  0
LINE
  5
F2D
330
1F
100
AcDbEntity
  8
姿図
100
AcDbLine
 10
34.87452862758397
 20
187.231191595896
 30
0.0
 11
35.60141680084467
 21
186.7538489528903
 31
0.0
  0
LINE
  5
F2E
330
1F
100
AcDbEntity
  8
姿図
100
AcDbLine
 10
35.78391174316636
 20
184.2366524875358
 30
0.0
 11
34.87452862758397
 21
183.526682874675
 31
0.0
  0
LINE
  5
F2F
330
1F
100
AcDbEntity
  8
姿図
100
AcDbLine
 10
34.87452862758397
 20
182.6893624102883
 30
0.0
 11
35.78391174316636
 21
181.8008111365959
 31
0.0
  0
LINE
  5
F30
330
1F
100
AcDbEntity
  8
姿図
100
AcDbLine
 10
35.78391174316636
 20
181.8008111365959
 30
0.0
 11
34.87452862758397
 21
181.0908415237352
 31
0.0
  0
LINE
  5
F31
330
1F
100
AcDbEntity
  8
姿図
100
AcDbLine
 10
34.87452862758397
 20
182.6893624102883
 30
0.0
 11
34.87452862758397
 21
183.526682874675
 31
0.0
  0
ELLIPSE
  5
F32
330
1F
100
AcDbEntity
  8
姿図
100
AcDbEllipse
 10
41.44300762075324
 20
174.8714770805033
 30
0.0
 11
7.785699238618807E-16
 21
1.754236760817026
 31
0.0
210
0.0
220
0.0
230
1.0
 40
0.6840581766403936
 41
0.0834300866107265
 42
3.058162566979068
  0
LINE
  5
F33
330
1F
100
AcDbEntity
  8
姿図
100
AcDbLine
 10
37.6343510626071
 20
192.6946672476876
 30
0.0
 11
34.87452862758397
 21
192.2043676874015
 31
0.0
  0
LINE
  5
F34
330
1F
100
AcDbEntity
  8
姿図
100
AcDbLine
 10
37.6343510626071
 20
191.0732545194002
 30
0.0
 11
35.60141680084467
 21
190.7120911481686
 31
0.0
  0
LINE
  5
F35
330
1F
100
AcDbEntity
  8
姿図
100
AcDbLine
 10
37.6343510626071
 20
191.6797333514621
 30
0.0
 11
34.87452862758397
 21
191.189433791176
 31
0.0
  0
LINE
  5
F36
330
1F
100
AcDbEntity
  8
姿図
100
AcDbLine
 10
34.87452862758397
 20
191.189433791176
 30
0.0
 11
34.87452862758397
 21
192.2043676874015
 31
0.0
  0
LINE
  5
F37
330
1F
100
AcDbEntity
  8
姿図
100
AcDbLine
 10
34.87452862758397
 20
191.189433791176
 30
0.0
 11
35.60141680084467
 21
190.7120911481686
 31
0.0
  0
LINE
  5
F38
330
1F
100
AcDbEntity
  8
姿図
100
AcDbLine
 10
37.6343510626071
 20
168.7168539493684
 30
0.0
 11
34.87452862758397
 21
168.2265543890805
 31
0.0
  0
LINE
  5
F39
330
1F
100
AcDbEntity
  8
姿図
100
AcDbLine
 10
37.6343510626071
 20
168.7168539493684
 30
0.0
 11
37.6343510626071
 21
218.497777962453
 31
0.0
  0
LINE
  5
F3A
330
1F
100
AcDbEntity
  8
姿図
100
AcDbLine
 10
35.4255119294408
 20
170.8080356076604
 30
0.0
 11
35.4255119294408
 21
168.3244399875145
 31
0.0
  0
LINE
  5
F3B
330
1F
100
AcDbEntity
  8
姿図
100
AcDbLine
 10
45.39323370917242
 20
171.2462052847365
 30
0.0
 11
45.1343510626071
 21
171.0649337040992
 31
0.0
  0
LINE
  5
F3C
330
1F
100
AcDbEntity
  8
姿図
100
AcDbLine
 10
45.39323370917242
 20
171.2462052847365
 30
0.0
 11
45.39323370917242
 21
209.4812956217608
 31
0.0
  0
LINE
  5
F3D
330
1F
100
AcDbEntity
  8
姿図
100
AcDbLine
 10
45.1343510626071
 20
171.0649337040992
 30
0.0
 11
45.1343510626071
 21
209.6736167299566
 31
0.0
  0
LINE
  5
F3E
330
1F
100
AcDbEntity
  8
姿図
100
AcDbLine
 10
55.48039990033936
 20
170.5072563463543
 30
0.0
 11
34.87452862758397
 21
166.8464956045934
 31
0.0
  0
LINE
  5
F3F
330
1F
100
AcDbEntity
  8
姿図
100
AcDbLine
 10
56.86045868482648
 20
172.132491127171
 30
0.0
 11
37.6343510626071
 21
168.7168539493684
 31
0.0
  0
LINE
  5
F40
330
1F
100
AcDbEntity
  8
姿図
100
AcDbLine
 10
97.08500548997796
 20
175.7341494489444
 30
0.0
 11
97.41279859390903
 21
176.2129597504024
 31
0.0
  0
ARC
  5
F41
330
1F
100
AcDbEntity
  8
姿図
100
AcDbCircle
 10
97.29129494061141
 20
175.5929238756323
 30
0.0
 40
0.25
100
AcDbArc
 50
145.6044933460367
 51
280.0738452396399
  0
LINE
  5
F42
330
1F
100
AcDbEntity
  8
姿図
100
AcDbLine
 10
98.28897186875616
 20
175.5162527973841
 30
0.0
 11
96.80967664526958
 21
176.6925444024343
 31
0.0
  0
LINE
  5
F43
330
1F
100
AcDbEntity
  8
姿図
100
AcDbLine
 10
97.92518253572013
 20
177.0766766021986
 30
0.0
 11
96.79232554427978
 21
176.875417536499
 31
0.0
  0
LINE
  5
F44
330
1F
100
AcDbEntity
  8
姿図
100
AcDbLine
 10
97.92518253571922
 20
176.9751107750414
 30
0.0
 11
96.8320501448739
 21
176.7809090308398
 31
0.0
  0
LINE
  5
F45
330
1F
100
AcDbEntity
  8
姿図
100
AcDbLine
 10
96.79232554427978
 20
176.875417536499
 30
0.0
 11
96.79232554428069
 21
176.7439523634236
 31
0.0
  0
ARC
  5
F46
330
1F
100
AcDbEntity
  8
姿図
100
AcDbCircle
 10
96.8407960096352
 20
176.7316798743411
 30
0.0
 40
0.05
100
AcDbArc
 50
100.0738452395327
 51
231.5093228075743
  0
LINE
  5
F47
330
1F
100
AcDbEntity
  8
姿図
100
AcDbLine
 10
97.94056424347451
 20
178.3115349514825
 30
0.0
 11
98.52441890490223
 21
177.8367134225552
 31
0.0
  0
LINE
  5
F48
330
1F
100
AcDbEntity
  8
姿図
100
AcDbLine
 10
98.52441890490405
 20
177.8367134225552
 30
0.0
 11
98.75788536382203
 21
176.5225658618871
 31
0.0
  0
LINE
  5
F49
330
1F
100
AcDbEntity
  8
姿図
100
AcDbLine
 10
98.0049494485798
 20
177.0779197688841
 30
0.0
 11
98.52441890490223
 21
177.8367134225552
 31
0.0
  0
LINE
  5
F4A
330
1F
100
AcDbEntity
  8
姿図
100
AcDbLine
 10
99.60227217170683
 20
175.7495687357184
 30
0.0
 11
98.28897186875707
 21
175.5162527973841
 31
0.0
  0
LINE
  5
F4B
330
1F
100
AcDbEntity
  8
姿図
100
AcDbLine
 10
98.28897186875707
 20
175.5162527973841
 30
0.0
 11
97.33502426442243
 21
175.3467780931384
 31
0.0
  0
LINE
  5
F4C
330
1F
100
AcDbEntity
  8
姿図
100
AcDbLine
 10
98.12450868136108
 20
176.9246423520887
 30
0.0
 11
98.12450868136199
 21
177.0262081792459
 31
0.0
  0
ARC
  5
F4D
330
1F
100
AcDbEntity
  8
姿図
100
AcDbCircle
 10
97.96891185953115
 20
176.8305308197047
 30
0.0
 40
0.25
100
AcDbArc
 50
51.50932280887653
 51
100.0738452396398
  0
LINE
  5
F4E
330
1F
100
AcDbEntity
  8
姿図
100
AcDbLine
 10
99.60227217170683
 20
175.7495687357184
 30
0.0
 11
98.12450868136108
 21
176.9246423520887
 31
0.0
  0
ARC
  5
F4F
330
1F
100
AcDbEntity
  8
姿図
100
AcDbCircle
 10
97.96891185953024
 20
176.7289649925476
 30
0.0
 40
0.25
100
AcDbArc
 50
51.50932280887653
 51
100.0738452396398
  0
LINE
  5
F50
330
1F
100
AcDbEntity
  8
姿図
100
AcDbLine
 10
101.011961153547
 20
180.4315317551806
 30
0.0
 11
101.011961153547
 21
176.4552612944678
 31
0.0
  0
LINE
  5
F51
330
1F
100
AcDbEntity
  8
姿図
100
AcDbLine
 10
101.011961153547
 20
176.4552612944678
 30
0.0
 11
99.60227217170683
 21
175.7495687357184
 31
0.0
  0
LINE
  5
F52
330
1F
100
AcDbEntity
  8
姿図
100
AcDbLine
 10
99.68065466198965
 20
175.7888071357044
 30
0.0
 11
98.12450868136199
 21
177.0262081792459
 31
0.0
  0
LINE
  5
F53
330
1F
100
AcDbEntity
  8
姿図
100
AcDbLine
 10
96.980256300039
 20
176.9088046000067
 30
0.0
 11
97.9405642434736
 21
178.3115349514825
 31
0.0
  0
LINE
  5
F54
330
1F
100
AcDbEntity
  8
姿図
100
AcDbLine
 10
94.92210894637861
 20
173.9024504606638
 30
0.0
 11
96.82426387191896
 21
176.6809450732559
 31
0.0
  0
LINE
  5
F55
330
1F
100
AcDbEntity
  8
姿図
100
AcDbLine
 10
173.0599372465863
 20
118.1899753205177
 30
0.0
 11
188.66856628494
 21
120.9629450076497
 31
0.0
  0
LINE
  5
F56
330
1F
100
AcDbEntity
  8
姿図
100
AcDbLine
 10
182.0502938988097
 20
177.8050631937728
 30
0.0
 11
187.5036920916023
 21
173.1701201690518
 31
0.0
  0
LINE
  5
F57
330
1F
100
AcDbEntity
  8
姿図
100
AcDbLine
 10
188.0937974313251
 20
131.3725268690156
 30
0.0
 11
117.4270033883245
 21
191.4335296694077
 31
0.0
  0
LINE
  5
F58
330
1F
100
AcDbEntity
  8
姿図
100
AcDbLine
 10
188.6685662849372
 20
146.3208170904579
 30
0.0
 11
117.4270033883254
 21
206.8703264687117
 31
0.0
  0
LINE
  5
F59
330
1F
100
AcDbEntity
  8
姿図
100
AcDbLine
 10
188.6685662849372
 20
145.3058831942323
 30
0.0
 11
117.4270033883263
 21
205.8553925724843
 31
0.0
  0
LINE
  5
F5A
330
1F
100
AcDbEntity
  8
姿図
100
AcDbLine
 10
188.1402945111672
 20
145.3058831942323
 30
0.0
 11
117.4270033883254
 21
205.4064047145618
 31
0.0
  0
LINE
  5
F5B
330
1F
100
AcDbEntity
  8
姿図
100
AcDbLine
 10
188.0797312972913
 20
125.2863120911895
 30
0.0
 11
117.4270033883245
 21
185.3353598265891
 31
0.0
  0
LINE
  5
F5C
330
1F
100
AcDbEntity
  8
姿図
100
AcDbLine
 10
188.019602401348
 20
141.2770918754647
 30
0.0
 11
117.4270033883245
 21
201.275034960701
 31
0.0
  0
LINE
  5
F5D
330
1F
100
AcDbEntity
  8
姿図
100
AcDbLine
 10
188.6685662849391
 20
141.3476409989523
 30
0.0
 11
117.4270033883254
 21
201.8971503772061
 31
0.0
  0
LINE
  5
F5E
330
1F
100
AcDbEntity
  8
姿図
100
AcDbLine
 10
188.6685662849391
 20
139.2416531642845
 30
0.0
 11
117.4270033883254
 21
199.7911625425383
 31
0.0
  0
LINE
  5
F5F
330
1F
100
AcDbEntity
  8
姿図
100
AcDbLine
 10
188.6685662849391
 20
136.8058118133446
 30
0.0
 11
117.4270033883254
 21
197.3553211915984
 31
0.0
  0
LINE
  5
F60
330
1F
100
AcDbEntity
  8
姿図
100
AcDbLine
 10
188.6685662849391
 20
134.3699704624048
 30
0.0
 11
117.4270033883254
 21
194.9194798406567
 31
0.0
  0
LINE
  5
F61
330
1F
100
AcDbEntity
  8
姿図
100
AcDbLine
 10
188.6685662849391
 20
131.9341291114649
 30
0.0
 11
117.4270033883254
 21
192.4836384897168
 31
0.0
  0
LINE
  5
F62
330
1F
100
AcDbEntity
  8
姿図
100
AcDbLine
 10
188.6685662849391
 20
129.498287760525
 30
0.0
 11
117.4270033883254
 21
190.047797138777
 31
0.0
  0
LINE
  5
F63
330
1F
100
AcDbEntity
  8
姿図
100
AcDbLine
 10
188.6685662849372
 20
127.0624464095833
 30
0.0
 11
117.4270033883245
 21
187.6119557878371
 31
0.0
  0
LINE
  5
F64
330
1F
100
AcDbEntity
  8
姿図
100
AcDbLine
 10
188.6685662849372
 20
142.3625748951796
 30
0.0
 11
117.4270033883245
 21
202.9120842734334
 31
0.0
  0
LINE
  5
F65
330
1F
100
AcDbEntity
  8
姿図
100
AcDbLine
 10
188.6685662849372
 20
140.0789736286712
 30
0.0
 11
117.4270033883245
 21
200.628483006925
 31
0.0
  0
LINE
  5
F66
330
1F
100
AcDbEntity
  8
姿図
100
AcDbLine
 10
188.6685662849372
 20
137.6431322777314
 30
0.0
 11
117.4270033883245
 21
198.1926416559833
 31
0.0
  0
LINE
  5
F67
330
1F
100
AcDbEntity
  8
姿図
100
AcDbLine
 10
188.6685662849372
 20
135.2072909267915
 30
0.0
 11
117.4270033883245
 21
195.7568003050434
 31
0.0
  0
LINE
  5
F68
330
1F
100
AcDbEntity
  8
姿図
100
AcDbLine
 10
188.6685662849372
 20
132.7714495758516
 30
0.0
 11
117.4270033883245
 21
193.3209589541036
 31
0.0
  0
LINE
  5
F69
330
1F
100
AcDbEntity
  8
姿図
100
AcDbLine
 10
188.6685662849372
 20
130.3356082249099
 30
0.0
 11
117.4270033883245
 21
190.8851176031637
 31
0.0
  0
LINE
  5
F6A
330
1F
100
AcDbEntity
  8
姿図
100
AcDbLine
 10
188.6685662849372
 20
127.89976687397
 30
0.0
 11
117.4270033883245
 21
188.4492762522238
 31
0.0
  0
LINE
  5
F6B
330
1F
100
AcDbEntity
  8
姿図
100
AcDbLine
 10
188.6685662849372
 20
126.1743792503873
 30
0.0
 11
117.4270033883245
 21
186.7238886286393
 31
0.0
  0
LINE
  5
F6C
330
1F
100
AcDbEntity
  8
姿図
100
AcDbLine
 10
188.6685662849372
 20
122.3430037921368
 30
0.0
 11
117.4270033883245
 21
182.8925131703906
 31
0.0
  0
LINE
  5
F6D
330
1F
100
AcDbEntity
  8
姿図
100
AcDbLine
 10
188.6685662849372
 20
120.9629450076497
 30
0.0
 11
117.4270033883245
 21
181.5124543859017
 31
0.0
  0
LINE
  5
F6E
330
1F
100
AcDbEntity
  8
姿図
100
AcDbLine
 10
173.0599372465863
 20
118.9000983235816
 30
0.0
 11
102.011961153547
 21
179.2291291684484
 31
0.0
  0
LINE
  5
F6F
330
1F
100
AcDbEntity
  8
姿図
100
AcDbLine
 10
173.0599372465927
 20
115.2882283757824
 30
0.0
 11
102.011961153547
 21
175.6172592206564
 31
0.0
  0
LINE
  5
F70
330
1F
100
AcDbEntity
  8
姿図
100
AcDbLine
 10
125.1761047732021
 20
219.5253960822226
 30
0.0
 11
182.0502938988097
 21
171.1869808675125
 31
0.0
  0
LINE
  5
F71
330
1F
100
AcDbEntity
  8
姿図
100
AcDbLine
 10
125.1761047732021
 20
224.774946385143
 30
0.0
 11
182.0502938988097
 21
176.4365311704311
 31
0.0
  0
LINE
  5
F72
330
1F
100
AcDbEntity
  8
姿図
100
AcDbLine
 10
125.1761047732021
 20
223.4625588094129
 30
0.0
 11
182.0502938988097
 21
175.1241435947028
 31
0.0
  0
LINE
  5
F73
330
1F
100
AcDbEntity
  8
姿図
100
AcDbLine
 10
133.957692744561
 20
109.7215310783319
 30
0.0
 11
133.957692744561
 21
108.3414722938448
 31
0.0
  0
LINE
  5
F74
330
1F
100
AcDbEntity
  8
姿図
100
AcDbLine
 10
125.1761047732021
 20
200.2842232461077
 30
0.0
 11
125.1761047732021
 21
226.0873339608731
 31
0.0
  0
LINE
  5
F75
330
1F
100
AcDbEntity
  8
姿図
100
AcDbLine
 10
117.4270033883245
 20
181.5124543859017
 30
0.0
 11
117.4270033883254
 21
205.4064047145618
 31
0.0
  0
LINE
  5
F76
330
1F
100
AcDbEntity
  8
姿図
100
AcDbLine
 10
116.6611069303813
 20
191.3506814715435
 30
0.0
 11
116.6611069303813
 21
190.7490513505706
 31
0.0
  0
LINE
  5
F77
330
1F
100
AcDbEntity
  8
姿図
100
AcDbLine
 10
116.3049655829814
 20
201.0913345749083
 30
0.0
 11
116.3049655829814
 21
200.429146036691
 31
0.0
  0
LINE
  5
F78
330
1F
100
AcDbEntity
  8
姿図
100
AcDbLine
 10
116.6611069303822
 20
193.7333047677564
 30
0.0
 11
116.6611069303813
 21
193.1848927015123
 31
0.0
  0
LINE
  5
F79
330
1F
100
AcDbEntity
  8
姿図
100
AcDbLine
 10
116.6611069303813
 20
196.1691461186962
 30
0.0
 11
116.6611069303813
 21
195.6207340524522
 31
0.0
  0
LINE
  5
F7A
330
1F
100
AcDbEntity
  8
姿図
100
AcDbLine
 10
117.4270033883245
 20
201.2906715451442
 30
0.0
 11
116.3049655829814
 21
201.0913345749083
 31
0.0
  0
LINE
  5
F7B
330
1F
100
AcDbEntity
  8
姿図
100
AcDbLine
 10
117.4270033883245
 20
198.7410537222292
 30
0.0
 11
116.6611069303813
 21
198.6049874696361
 31
0.0
  0
LINE
  5
F7C
330
1F
100
AcDbEntity
  8
姿図
100
AcDbLine
 10
117.4270033883245
 20
193.8693710203476
 30
0.0
 11
116.6611069303804
 21
193.7333047677564
 31
0.0
  0
LINE
  5
F7D
330
1F
100
AcDbEntity
  8
姿図
100
AcDbLine
 10
117.4270033883245
 20
188.9976883184679
 30
0.0
 11
116.6611069303813
 21
188.8616220658748
 31
0.0
  0
LINE
  5
F7E
330
1F
100
AcDbEntity
  8
姿図
100
AcDbLine
 10
117.4270033883245
 20
191.4335296694077
 30
0.0
 11
116.6611069303813
 21
191.2974634168165
 31
0.0
  0
LINE
  5
F7F
330
1F
100
AcDbEntity
  8
姿図
100
AcDbLine
 10
117.4270033883245
 20
185.3761087905365
 30
0.0
 11
116.3027071166558
 21
185.1763705897608
 31
0.0
  0
LINE
  5
F80
330
1F
100
AcDbEntity
  8
姿図
100
AcDbLine
 10
116.7186369110137
 20
196.1793666763112
 30
0.0
 11
116.6611069303813
 21
196.1691461186962
 31
0.0
  0
LINE
  5
F81
330
1F
100
AcDbEntity
  8
姿図
100
AcDbLine
 10
116.6472006600921
 20
196.2351380740108
 30
0.0
 11
116.6611069303859
 21
196.2223641734215
 31
0.0
  0
LINE
  5
F82
330
1F
100
AcDbEntity
  8
姿図
100
AcDbLine
 10
116.6611069303813
 20
198.6049874696361
 30
0.0
 11
116.6611069303813
 21
198.2541490238906
 31
0.0
  0
LINE
  5
F83
330
1F
100
AcDbEntity
  8
姿図
100
AcDbLine
 10
117.4270033883245
 20
198.1926416559851
 30
0.0
 11
116.8672624272127
 21
198.0932002051047
 31
0.0
  0
LINE
  5
F84
330
1F
100
AcDbEntity
  8
姿図
100
AcDbLine
 10
117.4270033883245
 20
188.4492762522238
 30
0.0
 11
116.8672624272127
 21
188.3498348013451
 31
0.0
  0
LINE
  5
F85
330
1F
100
AcDbEntity
  8
姿図
100
AcDbLine
 10
116.6611069303822
 20
188.9148401206054
 30
0.0
 11
116.6611069303813
 21
188.5107836201275
 31
0.0
  0
LINE
  5
F86
330
1F
100
AcDbEntity
  8
姿図
100
AcDbLine
 10
117.4270033883254
 20
205.4064047145618
 30
0.0
 11
116.3049655829823
 21
205.2070677443259
 31
0.0
  0
LINE
  5
F87
330
1F
100
AcDbEntity
  8
姿図
100
AcDbLine
 10
117.4270033883254
 20
205.4064047145618
 30
0.0
 11
117.4270033883263
 21
232.6734371834752
 31
0.0
  0
LINE
  5
F88
330
1F
100
AcDbEntity
  8
姿図
100
AcDbLine
 10
116.353255886605
 20
205.2156468160553
 30
0.0
 11
116.353255886605
 21
202.7213263749288
 31
0.0
  0
LINE
  5
F89
330
1F
100
AcDbEntity
  8
姿図
100
AcDbLine
 10
117.4270033883245
 20
232.6734371834752
 30
0.0
 11
125.1761047732021
 21
226.0873339608731
 31
0.0
  0
LINE
  5
F8A
330
1F
100
AcDbEntity
  8
姿図
100
AcDbLine
 10
114.9270033883245
 20
183.464030947565
 30
0.0
 11
106.4270033883245
 21
181.9539532666437
 31
0.0
  0
ELLIPSE
  5
F8B
330
1F
100
AcDbEntity
  8
姿図
100
AcDbEllipse
 10
110.3439468476604
 20
187.1121559653472
 30
0.0
 11
7.785699238618807E-16
 21
1.754236760817026
 31
0.0
210
0.0
220
0.0
230
1.0
 40
0.6840581766403936
 41
0.0834300866107265
 42
3.058162566979068
  0
ELLIPSE
  5
F8C
330
1F
100
AcDbEntity
  8
姿図
100
AcDbEllipse
 10
110.1439468476606
 20
187.1121559653472
 30
0.0
 11
0.0
 21
-1.754236760817003
 31
0.0
210
0.0
220
0.0
230
1.0
 40
0.6840581766403772
 41
0.0
 42
6.283185307179586
  0
LINE
  5
F8D
330
1F
100
AcDbEntity
  8
姿図
100
AcDbLine
 10
106.4270033883245
 20
181.9539532666437
 30
0.0
 11
106.4270033883254
 21
220.5626362925029
 31
0.0
  0
ELLIPSE
  5
F8E
330
1F
100
AcDbEntity
  8
姿図
100
AcDbEllipse
 10
110.3439468476604
 20
202.718027181894
 30
0.0
 11
0.0
 21
-1.754236760817003
 31
0.0
210
0.0
220
0.0
230
1.0
 40
0.6840581766403772
 41
0.0
 42
6.283185307179586
  0
ELLIPSE
  5
F8F
330
1F
100
AcDbEntity
  8
姿図
100
AcDbEllipse
 10
110.5439468476603
 20
202.718027181894
 30
0.0
 11
7.785699238618807E-16
 21
1.754236760817026
 31
0.0
210
0.0
220
0.0
230
1.0
 40
0.6840581766403936
 41
0.0834300866107265
 42
3.058162566979068
  0
LINE
  5
F90
330
1F
100
AcDbEntity
  8
姿図
100
AcDbLine
 10
102.011961153547
 20
179.2291291684484
 30
0.0
 11
102.011961153547
 21
175.6172592206564
 31
0.0
  0
ARC
  5
F91
330
1F
100
AcDbEntity
  8
姿図
  6
Continuous
370
     0
100
AcDbCircle
 10
114.0475092040747
 20
199.9258763461291
 30
0.0
 40
0.293551098686235
100
AcDbArc
 50
43.9706144280723
 51
173.0481439439224
  0
LINE
  5
F92
330
1F
100
AcDbEntity
  8
姿図
  6
Continuous
370
     0
100
AcDbLine
 10
113.6688824201051
 20
198.9040482080779
 30
0.0
 11
113.7561162330545
 21
199.9614063894839
 31
0.0
  0
ARC
  5
F93
330
1F
100
AcDbEntity
  8
姿図
  6
Continuous
370
     0
100
AcDbCircle
 10
114.2668508277716
 20
198.8547148174254
 30
0.0
 40
0.6
100
AcDbArc
 50
175.2836838796252
 51
232.0202851622216
  0
LINE
  5
F94
330
1F
100
AcDbEntity
  8
姿図
  6
Continuous
370
     0
100
AcDbLine
 10
113.7685438213826
 20
198.8958259763019
 30
0.0
 11
113.8557776343328
 21
199.9531841577079
 31
0.0
  0
ARC
  5
F95
330
1F
100
AcDbEntity
  8
姿図
  6
Continuous
370
     0
100
AcDbCircle
 10
114.1049311375269
 20
199.9326285782697
 30
0.0
 40
0.25
100
AcDbArc
 50
52.02028516197713
 51
175.2836838796951
  0
ARC
  5
F96
330
1F
100
AcDbEntity
  8
姿図
  6
Continuous
370
     0
100
AcDbCircle
 10
114.2668508277707
 20
198.8547148174254
 30
0.0
 40
0.5
100
AcDbArc
 50
175.2836838796886
 51
232.0202851621348
  0
ARC
  5
F97
330
1F
100
AcDbEntity
  8
姿図
  6
Continuous
370
     0
100
AcDbCircle
 10
114.2668508277707
 20
189.1113494136623
 30
0.0
 40
0.5
100
AcDbArc
 50
175.2836838794857
 51
232.0202851621348
  0
ARC
  5
F98
330
1F
100
AcDbEntity
  8
姿図
  6
Continuous
370
     0
100
AcDbCircle
 10
114.1049311375269
 20
190.1892631745065
 30
0.0
 40
0.25
100
AcDbArc
 50
52.02028516230275
 51
175.2836838792764
  0
LINE
  5
F99
330
1F
100
AcDbEntity
  8
姿図
  6
Continuous
370
     0
100
AcDbLine
 10
113.7685438213817
 20
189.1524605725423
 30
0.0
 11
113.8557776343328
 21
190.2098187539484
 31
0.0
  0
ARC
  5
F9A
330
1F
100
AcDbEntity
  8
姿図
  6
Continuous
370
     0
100
AcDbCircle
 10
114.2668508277707
 20
189.1113494136623
 30
0.0
 40
0.6
100
AcDbArc
 50
175.2836838792768
 51
232.0202851619817
  0
LINE
  5
F9B
330
1F
100
AcDbEntity
  8
姿図
  6
Continuous
370
     0
100
AcDbLine
 10
113.6688824201042
 20
189.1606828043184
 30
0.0
 11
113.7561162330545
 21
190.2180409857226
 31
0.0
  0
ARC
  5
F9C
330
1F
100
AcDbEntity
  8
姿図
  6
Continuous
370
     0
100
AcDbCircle
 10
114.0475092040738
 20
190.1825109423696
 30
0.0
 40
0.293551098686235
100
AcDbArc
 50
43.97061442768781
 51
173.0481439442802
  0
LINE
  5
F9D
330
1F
100
AcDbEntity
  8
姿図
100
AcDbLine
 10
114.9270033883245
 20
182.4483726760006
 30
0.0
 11
114.9270033883245
 21
187.8347575686564
 31
0.0
  0
LINE
  5
F9E
330
1F
100
AcDbEntity
  8
姿図
100
AcDbLine
 10
114.9270033883254
 20
199.607990764867
 30
0.0
 11
114.9270033883254
 21
232.229296689087
 31
0.0
  0
LINE
  5
F9F
330
1F
100
AcDbEntity
  8
姿図
100
AcDbLine
 10
115.751723814798
 20
186.4262648294313
 30
0.0
 11
115.751723814798
 21
185.5381976702335
 31
0.0
  0
LINE
  5
FA0
330
1F
100
AcDbEntity
  8
姿図
100
AcDbLine
 10
115.751723814798
 20
194.6218560414488
 30
0.0
 11
115.751723814798
 21
195.4591765058355
 31
0.0
  0
LINE
  5
FA1
330
1F
100
AcDbEntity
  8
姿図
100
AcDbLine
 10
115.751723814798
 20
199.4935387433285
 30
0.0
 11
115.751723814798
 21
200.3308592077153
 31
0.0
  0
LINE
  5
FA2
330
1F
100
AcDbEntity
  8
姿図
100
AcDbLine
 10
115.751723814798
 20
189.750173339569
 30
0.0
 11
115.751723814798
 21
190.5874938039521
 31
0.0
  0
LINE
  5
FA3
330
1F
100
AcDbEntity
  8
姿図
100
AcDbLine
 10
115.751723814798
 20
192.1860146905089
 30
0.0
 11
115.751723814798
 21
193.0233351548938
 31
0.0
  0
LINE
  5
FA4
330
1F
100
AcDbEntity
  8
姿図
100
AcDbLine
 10
115.751723814798
 20
201.5995265779963
 30
0.0
 11
115.751723814798
 21
202.6144604742219
 31
0.0
  0
LINE
  5
FA5
330
1F
100
AcDbEntity
  8
姿図
100
AcDbLine
 10
114.9270033883254
 20
189.8646253611057
 30
0.0
 11
114.9270033883245
 21
197.5781229724195
 31
0.0
  0
LINE
  5
FA6
330
1F
100
AcDbEntity
  8
姿図
100
AcDbLine
 10
115.751723814798
 20
205.5577687732745
 30
0.0
 11
115.751723814798
 21
206.5727026695001
 31
0.0
  0
LINE
  5
FA7
330
1F
100
AcDbEntity
  8
姿図
100
AcDbLine
 10
126.0779023302535
 20
106.9415786897277
 30
0.0
 11
133.957692744561
 21
108.3414722938448
 31
0.0
  0
LINE
  5
FA8
330
1F
100
AcDbEntity
  8
姿図
100
AcDbLine
 10
117.4270033883245
 20
181.5124543859017
 30
0.0
 11
102.011961153547
 21
179.2291291684484
 31
0.0
  0
LINE
  5
FA9
330
1F
100
AcDbEntity
  8
姿図
  6
Continuous
370
     0
100
AcDbLine
 10
117.4270033883245
 20
195.62633389503
 30
0.0
 11
113.8976213594756
 21
198.3817776125631
 31
0.0
  0
LINE
  5
FAA
330
1F
100
AcDbEntity
  8
姿図
  6
Continuous
370
     0
100
AcDbLine
 10
117.4270033883245
 20
195.7532006320577
 30
0.0
 11
113.9591596041915
 21
198.4606004800405
 31
0.0
  0
LINE
  5
FAB
330
1F
100
AcDbEntity
  8
姿図
  6
Continuous
370
     0
100
AcDbLine
 10
117.4270033883245
 20
197.6562016874811
 30
0.0
 11
114.2587767493165
 21
200.1296857469603
 31
0.0
  0
LINE
  5
FAC
330
1F
100
AcDbEntity
  8
姿図
  6
Continuous
370
     0
100
AcDbLine
 10
117.4270033883236
 20
187.9128362837197
 30
0.0
 11
114.2587767493156
 21
190.3863203432008
 31
0.0
  0
LINE
  5
FAD
330
1F
100
AcDbEntity
  8
姿図
  6
Continuous
370
     0
100
AcDbLine
 10
117.4270033883236
 20
186.0098352282982
 30
0.0
 11
113.9591596041915
 21
188.7172350762791
 31
0.0
  0
LINE
  5
FAE
330
1F
100
AcDbEntity
  8
姿図
  6
Continuous
370
     0
100
AcDbLine
 10
117.4270033883236
 20
185.8829684912704
 30
0.0
 11
113.8976213594756
 21
188.6384122088018
 31
0.0
  0
LINE
  5
FAF
330
1F
100
AcDbEntity
  8
姿図
100
AcDbLine
 10
115.751723814798
 20
189.750173339569
 30
0.0
 11
116.6611069303859
 21
188.9148401206
 31
0.0
  0
LINE
  5
FB0
330
1F
100
AcDbEntity
  8
姿図
100
AcDbLine
 10
115.751723814798
 20
192.1860146905089
 30
0.0
 11
116.6611069303859
 21
191.3506814715399
 31
0.0
  0
LINE
  5
FB1
330
1F
100
AcDbEntity
  8
姿図
100
AcDbLine
 10
115.751723814798
 20
194.6218560414488
 30
0.0
 11
116.6611069303859
 21
193.7865228224834
 31
0.0
  0
LINE
  5
FB2
330
1F
100
AcDbEntity
  8
姿図
100
AcDbLine
 10
115.751723814798
 20
199.4935387433285
 30
0.0
 11
116.6611069303813
 21
198.6049874696361
 31
0.0
  0
LINE
  5
FB3
330
1F
100
AcDbEntity
  8
姿図
100
AcDbLine
 10
115.751723814798
 20
201.5995265779963
 30
0.0
 11
116.3049655829814
 21
201.0913345749083
 31
0.0
  0
LINE
  5
FB4
330
1F
100
AcDbEntity
  8
姿図
100
AcDbLine
 10
115.751723814798
 20
185.5381976702335
 30
0.0
 11
116.3027071166558
 21
185.1763705897608
 31
0.0
  0
LINE
  5
FB5
330
1F
100
AcDbEntity
  8
姿図
100
AcDbLine
 10
117.4270033883245
 20
185.8358214694433
 30
0.0
 11
115.751723814798
 21
185.5381976702317
 31
0.0
  0
LINE
  5
FB6
330
1F
100
AcDbEntity
  8
姿図
100
AcDbLine
 10
117.4270033883245
 20
190.047797138777
 30
0.0
 11
115.751723814798
 21
189.7501733395672
 31
0.0
  0
LINE
  5
FB7
330
1F
100
AcDbEntity
  8
姿図
100
AcDbLine
 10
117.4270033883245
 20
190.8851176031637
 30
0.0
 11
115.751723814798
 21
190.5874938039521
 31
0.0
  0
LINE
  5
FB8
330
1F
100
AcDbEntity
  8
姿図
100
AcDbLine
 10
117.4270033883245
 20
192.4836384897187
 30
0.0
 11
115.751723814798
 21
192.1860146905089
 31
0.0
  0
LINE
  5
FB9
330
1F
100
AcDbEntity
  8
姿図
100
AcDbLine
 10
117.4270033883245
 20
193.3209589541036
 30
0.0
 11
115.751723814798
 21
193.023335154892
 31
0.0
  0
LINE
  5
FBA
330
1F
100
AcDbEntity
  8
姿図
100
AcDbLine
 10
117.4270033883245
 20
194.9194798406604
 30
0.0
 11
115.751723814798
 21
194.6218560414488
 31
0.0
  0
LINE
  5
FBB
330
1F
100
AcDbEntity
  8
姿図
100
AcDbLine
 10
117.4270033883245
 20
195.7568003050453
 30
0.0
 11
115.751723814798
 21
195.4591765058337
 31
0.0
  0
LINE
  5
FBC
330
1F
100
AcDbEntity
  8
姿図
100
AcDbLine
 10
117.4270033883245
 20
199.7911625425401
 30
0.0
 11
115.751723814798
 21
199.4935387433285
 31
0.0
  0
LINE
  5
FBD
330
1F
100
AcDbEntity
  8
姿図
100
AcDbLine
 10
117.4270033883245
 20
200.6284830069268
 30
0.0
 11
115.751723814798
 21
200.3308592077153
 31
0.0
  0
LINE
  5
FBE
330
1F
100
AcDbEntity
  8
姿図
100
AcDbLine
 10
117.4270033883245
 20
201.8971503772079
 30
0.0
 11
115.751723814798
 21
201.5995265779963
 31
0.0
  0
LINE
  5
FBF
330
1F
100
AcDbEntity
  8
姿図
100
AcDbLine
 10
117.4270033883245
 20
185.8358214694433
 30
0.0
 11
115.751723814798
 21
185.5381976702317
 31
0.0
  0
LINE
  5
FC0
330
1F
100
AcDbEntity
  8
姿図
100
AcDbLine
 10
117.4270033883245
 20
202.9120842734334
 30
0.0
 11
115.751723814798
 21
202.6144604742219
 31
0.0
  0
LINE
  5
FC1
330
1F
100
AcDbEntity
  8
姿図
100
AcDbLine
 10
116.5495567520825
 20
186.5680047955117
 30
0.0
 11
115.751723814798
 21
186.4262648294277
 31
0.0
  0
LINE
  5
FC2
330
1F
100
AcDbEntity
  8
姿図
100
AcDbLine
 10
117.4270033883245
 20
206.8703264687098
 30
0.0
 11
115.751723814798
 21
206.5727026695001
 31
0.0
  0
LINE
  5
FC3
330
1F
100
AcDbEntity
  8
姿図
100
AcDbLine
 10
117.4270033883245
 20
205.8553925724843
 30
0.0
 11
115.751723814798
 21
205.5577687732727
 31
0.0
  0
LINE
  5
FC4
330
1F
100
AcDbEntity
  8
姿図
100
AcDbLine
 10
115.751723814798
 20
205.5577687732727
 30
0.0
 11
116.3049655829823
 21
205.2070677443259
 31
0.0
  0
LINE
  5
FC5
330
1F
100
AcDbEntity
  8
姿図
100
AcDbLine
 10
173.0599372465863
 20
118.9000983235744
 30
0.0
 11
173.0599372465863
 21
115.2882283757824
 31
0.0
  0
LINE
  5
FC6
330
1F
100
AcDbEntity
  8
姿図
100
AcDbLine
 10
182.0502938988097
 20
151.9458080313959
 30
0.0
 11
182.0502938988097
 21
177.8050631937728
 31
0.0
  0
LINE
  5
FC7
330
1F
100
AcDbEntity
  8
姿図
100
AcDbLine
 10
182.0502938988097
 20
177.8050631937728
 30
0.0
 11
180.6340658233871
 21
177.6402093555805
 31
0.0
  0
LINE
  5
FC8
330
1F
100
AcDbEntity
  8
姿図
100
AcDbLine
 10
173.0599372465863
 20
115.2882283757824
 30
0.0
 11
165.4726046829106
 21
113.9402917214135
 31
0.0
  0
LINE
  5
FC9
330
1F
100
AcDbEntity
  8
姿図
100
AcDbLine
 10
187.5036920916023
 20
173.1701201690536
 30
0.0
 11
187.5036920916032
 21
147.3108650066749
 31
0.0
  0
LINE
  5
FCA
330
1F
100
AcDbEntity
  8
姿図
100
AcDbLine
 10
188.6685662849372
 20
125.2863120911895
 30
0.0
 11
188.6685662849372
 21
126.1743792503873
 31
0.0
  0
LINE
  5
FCB
330
1F
100
AcDbEntity
  8
姿図
100
AcDbLine
 10
187.5036920916023
 20
125.7360349031148
 30
0.0
 11
187.5036920916023
 21
123.2524392829689
 31
0.0
  0
LINE
  5
FCC
330
1F
100
AcDbEntity
  8
姿図
100
AcDbLine
 10
188.6685662849372
 20
125.2863120911895
 30
0.0
 11
188.0797312972913
 21
125.2863120911895
 31
0.0
  0
LINE
  5
FCD
330
1F
100
AcDbEntity
  8
姿図
100
AcDbLine
 10
188.6685662849372
 20
120.9629450076497
 30
0.0
 11
188.6685662849372
 21
122.3430037921368
 31
0.0
  0
LINE
  5
FCE
330
1F
100
AcDbEntity
  8
姿図
100
AcDbLine
 10
188.6685662849372
 20
145.3058831942323
 30
0.0
 11
188.1402945111672
 21
145.3058831942323
 31
0.0
  0
LINE
  5
FCF
330
1F
100
AcDbEntity
  8
姿図
100
AcDbLine
 10
188.6685662849372
 20
145.3058831942323
 30
0.0
 11
188.6685662849372
 21
146.3208170904579
 31
0.0
  0
LINE
  5
FD0
330
1F
100
AcDbEntity
  8
姿図
100
AcDbLine
 10
188.6685662849372
 20
139.2416531642863
 30
0.0
 11
187.7591831693549
 21
138.3531018905939
 31
0.0
  0
LINE
  5
FD1
330
1F
100
AcDbEntity
  8
姿図
100
AcDbLine
 10
188.6685662849372
 20
141.3476409989541
 30
0.0
 11
188.0196024013471
 21
141.2770918754665
 31
0.0
  0
LINE
  5
FD2
330
1F
100
AcDbEntity
  8
姿図
100
AcDbLine
 10
188.6685662849372
 20
136.8058118133465
 30
0.0
 11
187.7591831693549
 21
135.9172605396522
 31
0.0
  0
LINE
  5
FD3
330
1F
100
AcDbEntity
  8
姿図
100
AcDbLine
 10
188.0196024013471
 20
141.2770918754665
 30
0.0
 11
188.0196024013471
 21
140.5856298765172
 31
0.0
  0
LINE
  5
FD4
330
1F
100
AcDbEntity
  8
姿図
100
AcDbLine
 10
188.6685662849372
 20
136.8058118133465
 30
0.0
 11
188.6685662849372
 21
137.6431322777314
 31
0.0
  0
LINE
  5
FD5
330
1F
100
AcDbEntity
  8
姿図
100
AcDbLine
 10
188.6685662849372
 20
139.2416531642863
 30
0.0
 11
188.6685662849372
 21
140.0789736286712
 31
0.0
  0
LINE
  5
FD6
330
1F
100
AcDbEntity
  8
姿図
100
AcDbLine
 10
188.6685662849372
 20
141.3476409989541
 30
0.0
 11
188.6685662849372
 21
142.3625748951796
 31
0.0
  0
LINE
  5
FD7
330
1F
100
AcDbEntity
  8
姿図
100
AcDbLine
 10
188.6685662849372
 20
134.3699704624048
 30
0.0
 11
187.7591831693549
 21
133.4814191887123
 31
0.0
  0
LINE
  5
FD8
330
1F
100
AcDbEntity
  8
姿図
100
AcDbLine
 10
188.6685662849372
 20
131.9341291114649
 30
0.0
 11
187.7591831693549
 21
131.0455778377724
 31
0.0
  0
LINE
  5
FD9
330
1F
100
AcDbEntity
  8
姿図
100
AcDbLine
 10
188.6685662849372
 20
129.498287760525
 30
0.0
 11
187.7591831693549
 21
128.6097364868326
 31
0.0
  0
LINE
  5
FDA
330
1F
100
AcDbEntity
  8
姿図
100
AcDbLine
 10
188.6685662849372
 20
129.498287760525
 30
0.0
 11
188.6685662849372
 21
130.3356082249099
 31
0.0
  0
LINE
  5
FDB
330
1F
100
AcDbEntity
  8
姿図
100
AcDbLine
 10
188.6685662849372
 20
131.9341291114649
 30
0.0
 11
188.6685662849372
 21
132.7714495758516
 31
0.0
  0
LINE
  5
FDC
330
1F
100
AcDbEntity
  8
姿図
100
AcDbLine
 10
188.6685662849372
 20
134.3699704624048
 30
0.0
 11
188.6685662849372
 21
135.2072909267915
 31
0.0
  0
LINE
  5
FDD
330
1F
100
AcDbEntity
  8
姿図
100
AcDbLine
 10
187.5036920916023
 20
145.8028886538902
 30
0.0
 11
187.5036920916023
 21
143.2720103860117
 31
0.0
  0
LINE
  5
FDE
330
1F
100
AcDbEntity
  8
姿図
100
AcDbLine
 10
188.6685662849372
 20
127.0624464095851
 30
0.0
 11
187.5310622770935
 21
127.0624464095851
 31
0.0
  0
LINE
  5
FDF
330
1F
100
AcDbEntity
  8
姿図
100
AcDbLine
 10
188.6685662849372
 20
127.0624464095851
 30
0.0
 11
188.6685662849372
 21
127.89976687397
 31
0.0
  0
LINE
  5
FE0
330
1F
100
AcDbEntity
  8
姿図
100
AcDbLine
 10
105.9315345151841
 20
158.0903967098163
 30
0.0
 11
105.9315345151832
 21
133.5223008430909
 31
0.0
  0
LINE
  5
FE1
330
1F
100
AcDbEntity
  8
姿図
100
AcDbLine
 10
112.2132602425423
 20
159.2063842178829
 30
0.0
 11
105.9315345151832
 21
158.0903967098163
 31
0.0
  0
LINE
  5
FE2
330
1F
100
AcDbEntity
  8
姿図
100
AcDbLine
 10
113.6904171617494
 20
126.9331929820943
 30
0.0
 11
113.6904171617494
 21
157.9509214922488
 31
0.0
  0
LINE
  5
FE3
330
1F
100
AcDbEntity
  8
姿図
100
AcDbLine
 10
113.4315345151841
 20
127.1530449581148
 30
0.0
 11
113.4315345151841
 21
158.1709505960277
 31
0.0
  0
ENDSEC
  0
SECTION
  2
OBJECTS
  0
DICTIONARY
  5
C
330
0
100
AcDbDictionary
281
     1
  3
ACAD_DETAILVIEWSTYLE
350
639
  3
ACAD_GROUP
350
D
  3
ACAD_IMAGE_VARS
350
633
  3
ACAD_LAYOUT
350
1A
  3
ACAD_MLINESTYLE
350
17
  3
ACAD_PLOTSETTINGS
350
19
  3
ACAD_PLOTSTYLENAME
350
E
  3
ACAD_SCALELIST
350
47
  3
ACAD_SECTIONVIEWSTYLE
350
63A
  3
AcDbVariableDictionary
350
634
  3
APPDATA
350
631
  3
DWGPROPS
350
1002
  0
DICTIONARY
  5
66F
330
2
100
AcDbDictionary
280
     1
281
     1
  3
ACAD_LAYERSTATES
360
670
  0
DICTIONARY
  5
639
102
{ACAD_REACTORS
330
C
102
}
330
C
100
AcDbDictionary
281
     1
  0
DICTIONARY
  5
D
102
{ACAD_REACTORS
330
C
102
}
330
C
100
AcDbDictionary
281
     1
  0
RASTERVARIABLES
  5
633
102
{ACAD_REACTORS
330
C
102
}
330
C
100
AcDbRasterVariables
 90
        0
 70
     1
 71
     1
 72
     1
  0
DICTIONARY
  5
1A
102
{ACAD_REACTORS
330
C
102
}
330
C
100
AcDbDictionary
281
     1
  3
Layout1
350
1E
  3
Layout2
350
26
  3
Model
350
22
  0
DICTIONARY
  5
17
102
{ACAD_REACTORS
330
C
102
}
330
C
100
AcDbDictionary
281
     1
  3
Standard
350
18
  0
DICTIONARY
  5
19
102
{ACAD_REACTORS
330
C
102
}
330
C
100
AcDbDictionary
281
     1
  0
ACDBDICTIONARYWDFLT
  5
E
102
{ACAD_REACTORS
330
C
102
}
330
C
100
AcDbDictionary
281
     1
  3
Normal
350
F
100
AcDbDictionaryWithDefault
340
F
  0
DICTIONARY
  5
47
102
{ACAD_REACTORS
330
C
102
}
330
C
100
AcDbDictionary
281
     1
  3
A0
350
48
  3
A1
350
49
  3
A2
350
4A
  3
A3
350
4B
  3
A4
350
4C
  3
A5
350
4D
  3
A6
350
4E
  3
A7
350
4F
  3
A8
350
50
  3
A9
350
51
  3
B0
350
52
  3
B1
350
53
  3
B2
350
54
  3
B3
350
55
  3
B4
350
56
  3
B5
350
57
  3
B6
350
58
  3
B7
350
59
  3
B8
350
5A
  3
B9
350
5B
  3
C0
350
5C
  3
C1
350
5D
  3
C2
350
5E
  3
C3
350
5F
  3
C4
350
60
  3
C5
350
61
  3
C6
350
62
  3
C7
350
63
  3
C8
350
64
  3
C9
350
65
  3
D0
350
66
  3
D1
350
67
  3
D2
350
68
  0
DICTIONARY
  5
63A
102
{ACAD_REACTORS
330
C
102
}
330
C
100
AcDbDictionary
281
     1
  0
DICTIONARY
  5
634
102
{ACAD_REACTORS
330
C
102
}
330
C
100
AcDbDictionary
281
     1
  0
DICTIONARY
  5
631
102
{ACAD_REACTORS
330
C
102
}
330
C
100
AcDbDictionary
281
     1
  0
XRECORD
  5
1002
102
{ACAD_REACTORS
330
C
102
}
330
C
100
AcDbXrecord
280
     1
  1
DWGPROPS COOKIE
  2

  3

  4

  6

  7

  8
ModuleX
  9

300
=
301
=
302
=
303
=
304
=
305
=
306
=
307
=
308
=
309
=
 40
0.0
 41
2458025.526670451
 42
2458214.275405266
  1

 90
        0
  0
DICTIONARY
  5
670
102
{ACAD_REACTORS
330
66F
102
}
330
66F
100
AcDbDictionary
281
     1
  0
LAYOUT
  5
1E
102
{ACAD_REACTORS
330
1A
102
}
330
1A
100
AcDbPlotSettings
  1

  2
none_device
  4

  6

 40
0.0
 41
0.0
 42
0.0
 43
0.0
 44
0.0
 45
0.0
 46
0.0
 47
0.0
 48
0.0
 49
0.0
140
0.0
141
0.0
142
1.0
143
1.0
 70
   688
 72
     1
 73
     0
 74
     5
  7

 75
    16
147
1.0
148
0.0
149
0.0
100
AcDbLayout
  1
Layout1
 70
     1
 71
     1
 10
0.0
 20
0.0
 11
420.0
 21
297.0
 12
0.0
 22
0.0
 32
0.0
 14
1.000000000000000E+20
 24
1.000000000000000E+20
 34
1.000000000000000E+20
 15
-1.000000000000000E+20
 25
-1.000000000000000E+20
 35
-1.000000000000000E+20
146
0.0
 13
0.0
 23
0.0
 33
0.0
 16
1.0
 26
0.0
 36
0.0
 17
0.0
 27
1.0
 37
0.0
 76
     0
330
1B
  0
LAYOUT
  5
26
102
{ACAD_REACTORS
330
1A
102
}
330
1A
100
AcDbPlotSettings
  1

  2
none_device
  4

  6

 40
0.0
 41
0.0
 42
0.0
 43
0.0
 44
0.0
 45
0.0
 46
0.0
 47
0.0
 48
0.0
 49
0.0
140
0.0
141
0.0
142
1.0
143
1.0
 70
   688
 72
     1
 73
     0
 74
     5
  7

 75
    16
147
1.0
148
0.0
149
0.0
100
AcDbLayout
  1
Layout2
 70
     1
 71
     2
 10
0.0
 20
0.0
 11
0.0
 21
0.0
 12
0.0
 22
0.0
 32
0.0
 14
0.0
 24
0.0
 34
0.0
 15
0.0
 25
0.0
 35
0.0
146
0.0
 13
0.0
 23
0.0
 33
0.0
 16
1.0
 26
0.0
 36
0.0
 17
0.0
 27
1.0
 37
0.0
 76
     0
330
23
  0
LAYOUT
  5
22
102
{ACAD_REACTORS
330
1A
102
}
330
1A
100
AcDbPlotSettings
  1

  2
none_device
  4
Letter_(8.50_x_11.00_Inches)
  6

 40
6.35
 41
6.35
 42
6.35000508
 43
6.35000508
 44
215.9
 45
279.4
 46
0.0
 47
0.0
 48
0.0
 49
0.0
140
0.0
141
0.0
142
1.0
143
1.0
 70
  1712
 72
     1
 73
     0
 74
     0
  7

 75
     0
147
1.0
148
0.0
149
0.0
100
AcDbLayout
  1
Model
 70
     1
 71
     0
 10
0.0
 20
0.0
 11
210.0
 21
297.0
 12
0.0
 22
0.0
 32
0.0
 14
34.87452862758397
 24
88.62859459459463
 34
0.0
 15
197.4778986486487
 25
232.6734371834752
 35
0.0
146
0.0
 13
0.0
 23
0.0
 33
0.0
 16
1.0
 26
0.0
 36
0.0
 17
0.0
 27
1.0
 37
0.0
 76
     0
330
1F
331
29
  0
MLINESTYLE
  5
18
102
{ACAD_REACTORS
330
17
102
}
330
17
100
AcDbMlineStyle
  2
Standard
 70
     0
  3

 62
   256
 51
90.0
 52
90.0
 71
     2
 49
0.5
 62
   256
  6
BYLAYER
 49
-0.5
 62
   256
  6
BYLAYER
  0
ACDBPLACEHOLDER
  5
F
102
{ACAD_REACTORS
330
E
102
}
330
E
  0
SCALE
  5
48
102
{ACAD_REACTORS
330
47
102
}
330
47
100
AcDbScale
 70
     0
300
1:1
140
1.0
141
1.0
290
     1
  0
SCALE
  5
49
102
{ACAD_REACTORS
330
47
102
}
330
47
100
AcDbScale
 70
     0
300
1:2
140
1.0
141
2.0
290
     0
  0
SCALE
  5
4A
102
{ACAD_REACTORS
330
47
102
}
330
47
100
AcDbScale
 70
     0
300
1:4
140
1.0
141
4.0
290
     0
  0
SCALE
  5
4B
102
{ACAD_REACTORS
330
47
102
}
330
47
100
AcDbScale
 70
     0
300
1:5
140
1.0
141
5.0
290
     0
  0
SCALE
  5
4C
102
{ACAD_REACTORS
330
47
102
}
330
47
100
AcDbScale
 70
     0
300
1:8
140
1.0
141
8.0
290
     0
  0
SCALE
  5
4D
102
{ACAD_REACTORS
330
47
102
}
330
47
100
AcDbScale
 70
     0
300
1:10
140
1.0
141
10.0
290
     0
  0
SCALE
  5
4E
102
{ACAD_REACTORS
330
47
102
}
330
47
100
AcDbScale
 70
     0
300
1:16
140
1.0
141
16.0
290
     0
  0
SCALE
  5
4F
102
{ACAD_REACTORS
330
47
102
}
330
47
100
AcDbScale
 70
     0
300
1:20
140
1.0
141
20.0
290
     0
  0
SCALE
  5
50
102
{ACAD_REACTORS
330
47
102
}
330
47
100
AcDbScale
 70
     0
300
1:30
140
1.0
141
30.0
290
     0
  0
SCALE
  5
51
102
{ACAD_REACTORS
330
47
102
}
330
47
100
AcDbScale
 70
     0
300
1:40
140
1.0
141
40.0
290
     0
  0
SCALE
  5
52
102
{ACAD_REACTORS
330
47
102
}
330
47
100
AcDbScale
 70
     0
300
1:50
140
1.0
141
50.0
290
     0
  0
SCALE
  5
53
102
{ACAD_REACTORS
330
47
102
}
330
47
100
AcDbScale
 70
     0
300
1:100
140
1.0
141
100.0
290
     0
  0
SCALE
  5
54
102
{ACAD_REACTORS
330
47
102
}
330
47
100
AcDbScale
 70
     0
300
2:1
140
2.0
141
1.0
290
     0
  0
SCALE
  5
55
102
{ACAD_REACTORS
330
47
102
}
330
47
100
AcDbScale
 70
     0
300
4:1
140
4.0
141
1.0
290
     0
  0
SCALE
  5
56
102
{ACAD_REACTORS
330
47
102
}
330
47
100
AcDbScale
 70
     0
300
8:1
140
8.0
141
1.0
290
     0
  0
SCALE
  5
57
102
{ACAD_REACTORS
330
47
102
}
330
47
100
AcDbScale
 70
     0
300
10:1
140
10.0
141
1.0
290
     0
  0
SCALE
  5
58
102
{ACAD_REACTORS
330
47
102
}
330
47
100
AcDbScale
 70
     0
300
100:1
140
100.0
141
1.0
290
     0
  0
SCALE
  5
59
102
{ACAD_REACTORS
330
47
102
}
330
47
100
AcDbScale
 70
     0
300
1/128" = 1'-0"
140
0.0078125
141
12.0
290
     0
  0
SCALE
  5
5A
102
{ACAD_REACTORS
330
47
102
}
330
47
100
AcDbScale
 70
     0
300
1/64" = 1'-0"
140
0.015625
141
12.0
290
     0
  0
SCALE
  5
5B
102
{ACAD_REACTORS
330
47
102
}
330
47
100
AcDbScale
 70
     0
300
1/32" = 1'-0"
140
0.03125
141
12.0
290
     0
  0
SCALE
  5
5C
102
{ACAD_REACTORS
330
47
102
}
330
47
100
AcDbScale
 70
     0
300
1/16" = 1'-0"
140
0.0625
141
12.0
290
     0
  0
SCALE
  5
5D
102
{ACAD_REACTORS
330
47
102
}
330
47
100
AcDbScale
 70
     0
300
3/32" = 1'-0"
140
0.09375
141
12.0
290
     0
  0
SCALE
  5
5E
102
{ACAD_REACTORS
330
47
102
}
330
47
100
AcDbScale
 70
     0
300
1/8" = 1'-0"
140
0.125
141
12.0
290
     0
  0
SCALE
  5
5F
102
{ACAD_REACTORS
330
47
102
}
330
47
100
AcDbScale
 70
     0
300
3/16" = 1'-0"
140
0.1875
141
12.0
290
     0
  0
SCALE
  5
60
102
{ACAD_REACTORS
330
47
102
}
330
47
100
AcDbScale
 70
     0
300
1/4" = 1'-0"
140
0.25
141
12.0
290
     0
  0
SCALE
  5
61
102
{ACAD_REACTORS
330
47
102
}
330
47
100
AcDbScale
 70
     0
300
3/8" = 1'-0"
140
0.375
141
12.0
290
     0
  0
SCALE
  5
62
102
{ACAD_REACTORS
330
47
102
}
330
47
100
AcDbScale
 70
     0
300
1/2" = 1'-0"
140
0.5
141
12.0
290
     0
  0
SCALE
  5
63
102
{ACAD_REACTORS
330
47
102
}
330
47
100
AcDbScale
 70
     0
300
3/4" = 1'-0"
140
0.75
141
12.0
290
     0
  0
SCALE
  5
64
102
{ACAD_REACTORS
330
47
102
}
330
47
100
AcDbScale
 70
     0
300
1" = 1'-0"
140
1.0
141
12.0
290
     0
  0
SCALE
  5
65
102
{ACAD_REACTORS
330
47
102
}
330
47
100
AcDbScale
 70
     0
300
1-1/2" = 1'-0"
140
1.5
141
12.0
290
     0
  0
SCALE
  5
66
102
{ACAD_REACTORS
330
47
102
}
330
47
100
AcDbScale
 70
     0
300
3" = 1'-0"
140
3.0
141
12.0
290
     0
  0
SCALE
  5
67
102
{ACAD_REACTORS
330
47
102
}
330
47
100
AcDbScale
 70
     0
300
6" = 1'-0"
140
6.0
141
12.0
290
     0
  0
SCALE
  5
68
102
{ACAD_REACTORS
330
47
102
}
330
47
100
AcDbScale
 70
     0
300
1'-0" = 1'-0"
140
12.0
141
12.0
290
     0
  0
ENDSEC
  0
EOF
