  0
SECTION
  2
HEADER
  9
$ACADVER
  1
AC1015
  9
$ACADMAINTVER
 70
     6
  9
$DWGCODEPAGE
  3
ANSI_932
  9
$INSBASE
 10
0.0
 20
0.0
 30
0.0
  9
$EXTMIN
 10
40.73545535504184
 20
88.62859459459463
 30
0.0
  9
$EXTMAX
 10
174.7417424549336
 20
195.9212690637069
 30
0.0
  9
$LIMMIN
 10
0.0
 20
0.0
  9
$LIMMAX
 10
210.0
 20
297.0
  9
$ORTHOMODE
 70
     0
  9
$REGENMODE
 70
     1
  9
$FILLMODE
 70
     1
  9
$QTEXTMODE
 70
     0
  9
$MIRRTEXT
 70
     1
  9
$LTSCALE
 40
1.0
  9
$ATTMODE
 70
     1
  9
$TEXTSIZE
 40
3.5
  9
$TRACEWID
 40
1.0
  9
$TEXTSTYLE
  7
Standard
  9
$CLAYER
  8
0
  9
$CELTYPE
  6
ByLayer
  9
$CECOLOR
 62
   256
  9
$CELTSCALE
 40
1.0
  9
$DISPSILH
 70
     0
  9
$DIMSCALE
 40
1.0
  9
$DIMASZ
 40
3.302
  9
$DIMEXO
 40
1.0
  9
$DIMDLI
 40
3.75
  9
$DIMRND
 40
0.0
  9
$DIMDLE
 40
0.0
  9
$DIMEXE
 40
1.0
  9
$DIMTP
 40
0.0
  9
$DIMTM
 40
0.0
  9
$DIMTXT
 40
3.5
  9
$DIMCEN
 40
2.5
  9
$DIMTSZ
 40
0.0
  9
$DIMTOL
 70
     0
  9
$DIMLIM
 70
     0
  9
$DIMTIH
 70
     1
  9
$DIMTOH
 70
     1
  9
$DIMSE1
 70
     0
  9
$DIMSE2
 70
     0
  9
$DIMTAD
 70
     1
  9
$DIMZIN
 70
     0
  9
$DIMBLK
  1

  9
$DIMASO
 70
     1
  9
$DIMSHO
 70
     1
  9
$DIMPOST
  1

  9
$DIMAPOST
  1

  9
$DIMALT
 70
     0
  9
$DIMALTD
 70
     3
  9
$DIMALTF
 40
0.0393700787401575
  9
$DIMLFAC
 40
2.0
  9
$DIMTOFL
 70
     1
  9
$DIMTVP
 40
0.0
  9
$DIMTIX
 70
     0
  9
$DIMSOXD
 70
     0
  9
$DIMSAH
 70
     0
  9
$DIMBLK1
  1

  9
$DIMBLK2
  1

  9
$DIMSTYLE
  2
ISO-25
  9
$DIMCLRD
 70
     0
  9
$DIMCLRE
 70
     0
  9
$DIMCLRT
 70
     0
  9
$DIMTFAC
 40
1.0
  9
$DIMGAP
 40
1.524
  9
$DIMJUST
 70
     0
  9
$DIMSD1
 70
     0
  9
$DIMSD2
 70
     0
  9
$DIMTOLJ
 70
     0
  9
$DIMTZIN
 70
     0
  9
$DIMALTZ
 70
     0
  9
$DIMALTTZ
 70
     0
  9
$DIMUPT
 70
     0
  9
$DIMDEC
 70
     2
  9
$DIMTDEC
 70
     2
  9
$DIMALTU
 70
     2
  9
$DIMALTTD
 70
     3
  9
$DIMTXSTY
  7
Standard
  9
$DIMAUNIT
 70
     0
  9
$DIMADEC
 70
     2
  9
$DIMALTRND
 40
0.0
  9
$DIMAZIN
 70
     0
  9
$DIMDSEP
 70
    44
  9
$DIMATFIT
 70
     3
  9
$DIMFRAC
 70
     0
  9
$DIMLDRBLK
  1

  9
$DIMLUNIT
 70
     2
  9
$DIMLWD
 70
    -2
  9
$DIMLWE
 70
    -2
  9
$DIMTMOVE
 70
     0
  9
$LUNITS
 70
     2
  9
$LUPREC
 70
     2
  9
$SKETCHINC
 40
1.0
  9
$FILLETRAD
 40
10.0
  9
$AUNITS
 70
     0
  9
$AUPREC
 70
     2
  9
$MENU
  1
.
  9
$ELEVATION
 40
0.0
  9
$PELEVATION
 40
0.0
  9
$THICKNESS
 40
0.0
  9
$LIMCHECK
 70
     0
  9
$CHAMFERA
 40
0.0
  9
$CHAMFERB
 40
0.0
  9
$CHAMFERC
 40
0.0
  9
$CHAMFERD
 40
0.0
  9
$SKPOLY
 70
     0
  9
$TDCREATE
 40
2458025.901670451
  9
$TDUCREATE
 40
2458025.526670451
  9
$TDUPDATE
 40
2458214.653803935
  9
$TDUUPDATE
 40
2458214.278803935
  9
$TDINDWG
 40
0.0031650231
  9
$TDUSRTIMER
 40
0.0001740046
  9
$USRTIMER
 70
     1
  9
$ANGBASE
 50
0.0
  9
$ANGDIR
 70
     0
  9
$PDMODE
 70
     0
  9
$PDSIZE
 40
-1.0
  9
$PLINEWID
 40
0.0
  9
$SPLFRAME
 70
     0
  9
$SPLINETYPE
 70
     6
  9
$SPLINESEGS
 70
     8
  9
$HANDSEED
  5
82D
  9
$SURFTAB1
 70
     6
  9
$SURFTAB2
 70
     6
  9
$SURFTYPE
 70
     6
  9
$SURFU
 70
     6
  9
$SURFV
 70
     6
  9
$UCSBASE
  2

  9
$UCSNAME
  2

  9
$UCSORG
 10
0.0
 20
0.0
 30
0.0
  9
$UCSXDIR
 10
1.0
 20
0.0
 30
0.0
  9
$UCSYDIR
 10
0.0
 20
1.0
 30
0.0
  9
$UCSORTHOREF
  2

  9
$UCSORTHOVIEW
 70
     0
  9
$UCSORGTOP
 10
0.0
 20
0.0
 30
0.0
  9
$UCSORGBOTTOM
 10
0.0
 20
0.0
 30
0.0
  9
$UCSORGLEFT
 10
0.0
 20
0.0
 30
0.0
  9
$UCSORGRIGHT
 10
0.0
 20
0.0
 30
0.0
  9
$UCSORGFRONT
 10
0.0
 20
0.0
 30
0.0
  9
$UCSORGBACK
 10
0.0
 20
0.0
 30
0.0
  9
$PUCSBASE
  2

  9
$PUCSNAME
  2

  9
$PUCSORG
 10
0.0
 20
0.0
 30
0.0
  9
$PUCSXDIR
 10
1.0
 20
0.0
 30
0.0
  9
$PUCSYDIR
 10
0.0
 20
1.0
 30
0.0
  9
$PUCSORTHOREF
  2

  9
$PUCSORTHOVIEW
 70
     0
  9
$PUCSORGTOP
 10
0.0
 20
0.0
 30
0.0
  9
$PUCSORGBOTTOM
 10
0.0
 20
0.0
 30
0.0
  9
$PUCSORGLEFT
 10
0.0
 20
0.0
 30
0.0
  9
$PUCSORGRIGHT
 10
0.0
 20
0.0
 30
0.0
  9
$PUCSORGFRONT
 10
0.0
 20
0.0
 30
0.0
  9
$PUCSORGBACK
 10
0.0
 20
0.0
 30
0.0
  9
$USERI1
 70
     0
  9
$USERI2
 70
     0
  9
$USERI3
 70
     0
  9
$USERI4
 70
     0
  9
$USERI5
 70
     0
  9
$USERR1
 40
0.0
  9
$USERR2
 40
0.0
  9
$USERR3
 40
0.0
  9
$USERR4
 40
0.0
  9
$USERR5
 40
0.0
  9
$WORLDVIEW
 70
     1
  9
$SHADEDGE
 70
     3
  9
$SHADEDIF
 70
    70
  9
$TILEMODE
 70
     1
  9
$MAXACTVP
 70
    64
  9
$PINSBASE
 10
0.0
 20
0.0
 30
0.0
  9
$PLIMCHECK
 70
     0
  9
$PEXTMIN
 10
1.000000000000000E+20
 20
1.000000000000000E+20
 30
1.000000000000000E+20
  9
$PEXTMAX
 10
-1.000000000000000E+20
 20
-1.000000000000000E+20
 30
-1.000000000000000E+20
  9
$PLIMMIN
 10
0.0
 20
0.0
  9
$PLIMMAX
 10
0.0
 20
0.0
  9
$UNITMODE
 70
     0
  9
$VISRETAIN
 70
     1
  9
$PLINEGEN
 70
     0
  9
$PSLTSCALE
 70
     1
  9
$TREEDEPTH
 70
  3020
  9
$CMLSTYLE
  2
Standard
  9
$CMLJUST
 70
     0
  9
$CMLSCALE
 40
20.0
  9
$PROXYGRAPHICS
 70
     1
  9
$MEASUREMENT
 70
     1
  9
$CELWEIGHT
370
    -1
  9
$ENDCAPS
280
     0
  9
$JOINSTYLE
280
     0
  9
$LWDISPLAY
290
     1
  9
$INSUNITS
 70
     4
  9
$HYPERLINKBASE
  1

  9
$STYLESHEET
  1

  9
$XEDIT
290
     1
  9
$CEPSNTYPE
380
     0
  9
$PSTYLEMODE
290
     1
  9
$FINGERPRINTGUID
  2
{75375FFD-739C-48ED-822E-76A46AAE9E82}
  9
$VERSIONGUID
  2
{FAEB1C32-E019-11D5-929B-00C0DF256EC4}
  9
$EXTNAMES
290
     1
  9
$PSVPSCALE
 40
0.0
  9
$OLESTARTUP
290
     0
  0
ENDSEC
  0
SECTION
  2
CLASSES
  0
CLASS
  1
ACDBDICTIONARYWDFLT
  2
AcDbDictionaryWithDefault
  3
ObjectDBX Classes
 90
        0
280
     0
281
     0
  0
CLASS
  1
VISUALSTYLE
  2
AcDbVisualStyle
  3
ObjectDBX Classes
 90
     4095
280
     0
281
     0
  0
CLASS
  1
MATERIAL
  2
AcDbMaterial
  3
ObjectDBX Classes
 90
     1153
280
     0
281
     0
  0
CLASS
  1
SCALE
  2
AcDbScale
  3
ObjectDBX Classes
 90
     1153
280
     0
281
     0
  0
CLASS
  1
TABLESTYLE
  2
AcDbTableStyle
  3
ObjectDBX Classes
 90
     4095
280
     0
281
     0
  0
CLASS
  1
MLEADERSTYLE
  2
AcDbMLeaderStyle
  3
ACDB_MLEADERSTYLE_CLASS
 90
     4095
280
     0
281
     0
  0
CLASS
  1
SUN
  2
AcDbSun
  3
SCENEOE
 90
     1153
280
     0
281
     0
  0
CLASS
  1
ACDBPLACEHOLDER
  2
AcDbPlaceHolder
  3
ObjectDBX Classes
 90
        0
280
     0
281
     0
  0
CLASS
  1
LAYOUT
  2
AcDbLayout
  3
ObjectDBX Classes
 90
        0
280
     0
281
     0
  0
CLASS
  1
RASTERVARIABLES
  2
AcDbRasterVariables
  3
ISM
 90
        0
280
     0
281
     0
  0
CLASS
  1
DICTIONARYVAR
  2
AcDbDictionaryVar
  3
ObjectDBX Classes
 90
        0
280
     0
281
     0
  0
CLASS
  1
SORTENTSTABLE
  2
AcDbSortentsTable
  3
ObjectDBX Classes
 90
        0
280
     0
281
     0
  0
ENDSEC
  0
SECTION
  2
TABLES
  0
TABLE
  2
VPORT
  5
8
330
0
100
AcDbSymbolTable
 70
     1
  0
VPORT
  5
29
330
8
100
AcDbSymbolTableRecord
100
AcDbViewportTableRecord
  2
*Active
 70
     0
 10
0.0
 20
0.0
 11
1.0
 21
1.0
 12
107.7385989049877
 22
142.2749318291508
 13
0.0
 23
0.0
 14
10.0
 24
10.0
 15
10.0
 25
10.0
 16
0.0
 26
0.0
 36
1.0
 17
0.0
 27
0.0
 37
0.0
 40
109.4385279584946
 41
2.043890865954923
 42
50.0
 43
0.0
 44
0.0
 50
0.0
 51
0.0
 71
    16
 72
  2000
 73
     1
 74
     3
 75
     0
 76
     0
 77
     0
 78
     0
281
     0
 65
     1
110
0.0
120
0.0
130
0.0
111
1.0
121
0.0
131
0.0
112
0.0
122
1.0
132
0.0
 79
     0
146
0.0
  0
ENDTAB
  0
TABLE
  2
LTYPE
  5
5
330
0
100
AcDbSymbolTable
 70
     6
  0
LTYPE
  5
14
330
5
100
AcDbSymbolTableRecord
100
AcDbLinetypeTableRecord
  2
ByBlock
 70
     0
  3

 72
    65
 73
     0
 40
0.0
  0
LTYPE
  5
15
330
5
100
AcDbSymbolTableRecord
100
AcDbLinetypeTableRecord
  2
ByLayer
 70
     0
  3

 72
    65
 73
     0
 40
0.0
  0
LTYPE
  5
16
330
5
100
AcDbSymbolTableRecord
100
AcDbLinetypeTableRecord
  2
Continuous
 70
     0
  3
Solid line
 72
    65
 73
     0
 40
0.0
  0
LTYPE
  5
6E
330
5
100
AcDbSymbolTableRecord
100
AcDbLinetypeTableRecord
  2
HIDDEN
 70
     0
  3
Hidden __ __ __ __ __ __ __ __ __ __ __ __ __ __
 72
    65
 73
     2
 40
1.905
 49
1.27
 74
     0
 49
-0.635
 74
     0
  0
LTYPE
  5
6F
330
5
100
AcDbSymbolTableRecord
100
AcDbLinetypeTableRecord
  2
PHANTOM
 70
     0
  3
Phantom ______  __  __  ______  __  __  ______
 72
    65
 73
     6
 40
12.7
 49
6.35
 74
     0
 49
-1.27
 74
     0
 49
1.27
 74
     0
 49
-1.27
 74
     0
 49
1.27
 74
     0
 49
-1.27
 74
     0
  0
LTYPE
  5
70
330
5
100
AcDbSymbolTableRecord
100
AcDbLinetypeTableRecord
  2
CENTER
 70
     0
  3
Center ____ _ ____ _ ____ _ ____ _ ____ _ ____
 72
    65
 73
     4
 40
10.16
 49
6.35
 74
     0
 49
-1.27
 74
     0
 49
1.27
 74
     0
 49
-1.27
 74
     0
  0
LTYPE
  5
71
330
5
100
AcDbSymbolTableRecord
100
AcDbLinetypeTableRecord
  2
CENTERX2
 70
     0
  3
Center (2x) ________  __  ________  __  _____
 72
    65
 73
     4
 40
20.32
 49
12.7
 74
     0
 49
-2.54
 74
     0
 49
2.54
 74
     0
 49
-2.54
 74
     0
  0
LTYPE
  5
72
330
5
100
AcDbSymbolTableRecord
100
AcDbLinetypeTableRecord
  2
DOT2
 70
     0
  3
Dot (.5x) ........................................
 72
    65
 73
     2
 40
0.635
 49
0.0
 74
     0
 49
-0.635
 74
     0
  0
ENDTAB
  0
TABLE
  2
LAYER
  5
2
102
{ACAD_XDICTIONARY
360
66F
102
}
330
0
100
AcDbSymbolTable
 70
    13
  0
LAYER
  5
10
330
2
100
AcDbSymbolTableRecord
100
AcDbLayerTableRecord
  2
0
 70
     0
 62
     7
  6
Continuous
370
    -3
390
F
  0
LAYER
  5
73
330
2
100
AcDbSymbolTableRecord
100
AcDbLayerTableRecord
  2
SLD-0
 70
     0
 62
   179
  6
Continuous
370
    -3
390
F
  0
LAYER
  5
74
330
2
100
AcDbSymbolTableRecord
100
AcDbLayerTableRecord
  2
中心線
 70
     0
 62
     1
  6
CENTER
370
    -3
390
F
  0
LAYER
  5
75
330
2
100
AcDbSymbolTableRecord
100
AcDbLayerTableRecord
  2
破線
 70
     0
 62
     3
  6
HIDDEN
370
    -3
390
F
  0
LAYER
  5
76
330
2
100
AcDbSymbolTableRecord
100
AcDbLayerTableRecord
  2
寸法線
 70
     0
 62
     7
  6
Continuous
370
    -3
390
F
  0
LAYER
  5
77
330
2
100
AcDbSymbolTableRecord
100
AcDbLayerTableRecord
  2
実線
 70
     0
 62
     4
  6
Continuous
370
    25
390
F
  0
LAYER
  5
78
330
2
100
AcDbSymbolTableRecord
100
AcDbLayerTableRecord
  2
ﾊｯﾁﾝｸﾞ
 70
     0
 62
     8
  6
Continuous
370
    -3
390
F
  0
LAYER
  5
79
330
2
100
AcDbSymbolTableRecord
100
AcDbLayerTableRecord
  2
輪郭線
 70
     0
 62
     6
  6
Continuous
370
    25
390
F
  0
LAYER
  5
7A
330
2
100
AcDbSymbolTableRecord
100
AcDbLayerTableRecord
  2
文字
 70
     0
 62
   179
  6
Continuous
370
    -3
390
F
  0
LAYER
  5
7B
330
2
100
AcDbSymbolTableRecord
100
AcDbLayerTableRecord
  2
想像線
 70
     0
 62
     3
  6
PHANTOM
370
    -3
390
F
  0
LAYER
  5
7C
330
2
100
AcDbSymbolTableRecord
100
AcDbLayerTableRecord
  2
姿図
 70
     0
 62
     8
  6
Continuous
370
    -3
390
F
  0
LAYER
  5
7D
330
2
100
AcDbSymbolTableRecord
100
AcDbLayerTableRecord
  2
注記
 70
     0
 62
     7
  6
Continuous
370
    25
390
F
  0
LAYER
  5
7E
330
2
100
AcDbSymbolTableRecord
100
AcDbLayerTableRecord
  2
ロゴ：MODULEX
 70
     0
 62
     7
  6
Continuous
370
    -3
390
F
  0
ENDTAB
  0
TABLE
  2
STYLE
  5
3
330
0
100
AcDbSymbolTable
 70
     1
  0
STYLE
  5
11
330
3
100
AcDbSymbolTableRecord
100
AcDbTextStyleTableRecord
  2
Standard
 70
     0
 40
0.0
 41
1.0
 50
0.0
 71
     0
 42
3.5
  3
txt
  4
bigfont
  0
ENDTAB
  0
TABLE
  2
VIEW
  5
6
330
0
100
AcDbSymbolTable
 70
     0
  0
ENDTAB
  0
TABLE
  2
UCS
  5
7
330
0
100
AcDbSymbolTable
 70
     0
  0
ENDTAB
  0
TABLE
  2
APPID
  5
9
330
0
100
AcDbSymbolTable
 70
     6
  0
APPID
  5
12
330
9
100
AcDbSymbolTableRecord
100
AcDbRegAppTableRecord
  2
ACAD
 70
     0
  0
APPID
  5
64B
330
9
100
AcDbSymbolTableRecord
100
AcDbRegAppTableRecord
  2
ACAD_DSTYLE_DIMJAG
 70
     0
  0
APPID
  5
64C
330
9
100
AcDbSymbolTableRecord
100
AcDbRegAppTableRecord
  2
ACAD_DSTYLE_DIMTALN
 70
     0
  0
APPID
  5
64D
330
9
100
AcDbSymbolTableRecord
100
AcDbRegAppTableRecord
  2
ACAD_PSEXT
 70
     0
  0
APPID
  5
809
330
9
100
AcDbSymbolTableRecord
100
AcDbRegAppTableRecord
  2
ACAD_SPLINE_DATA
 70
     0
  0
APPID
  5
80A
330
9
100
AcDbSymbolTableRecord
100
AcDbRegAppTableRecord
  2
ACAD_SPLINE_DATA2
 70
     0
  0
ENDTAB
  0
TABLE
  2
DIMSTYLE
  5
A
330
0
100
AcDbSymbolTable
 70
     3
100
AcDbDimStyleTable
  0
DIMSTYLE
105
27
330
A
100
AcDbSymbolTableRecord
100
AcDbDimStyleTableRecord
  2
ISO-25
 70
     0
 41
2.5
 42
0.625
 43
3.75
 44
1.25
 73
     0
 74
     0
 77
     1
 78
     8
140
2.5
141
2.5
143
0.03937007874016
147
0.625
171
     3
172
     1
178
     0
271
     2
272
     2
274
     3
278
    44
283
     0
284
     8
340
11
  0
DIMSTYLE
105
643
330
A
100
AcDbSymbolTableRecord
100
AcDbDimStyleTableRecord
  2
STANDARD
 70
     0
 41
2.5
 42
1.5
 44
1.0
 73
     0
 74
     0
 77
     3
 78
     8
 79
     2
140
2.500000000000003
141
0.0
147
1.0
171
     0
172
     1
173
     1
176
     8
177
     8
271
     2
178
   256
179
     2
271
     2
272
     2
274
     0
289
     1
340
11
341
645
343
645
344
645
1001
ACAD_DSTYLE_DIMJAG
1070
   388
1040
1.5
1001
ACAD_DSTYLE_DIMTALN
1070
   392
1070
     0
  0
DIMSTYLE
105
6A7
330
A
100
AcDbSymbolTableRecord
100
AcDbDimStyleTableRecord
  2
STANDARD-10
 70
     0
 41
15.0
 42
15.0
 43
3.8
 44
1.0
 73
     0
 74
     0
 77
     1
 78
     8
 79
     2
140
20.0
141
0.0
147
0.0
171
     0
172
     1
173
     1
176
     8
177
     8
271
     2
178
   256
179
     2
271
     2
272
     2
274
     0
289
     2
340
11
341
645
343
645
344
645
  0
ENDTAB
  0
TABLE
  2
BLOCK_RECORD
  5
1
330
0
100
AcDbSymbolTable
 70
     3
  0
BLOCK_RECORD
  5
1F
330
1
100
AcDbSymbolTableRecord
100
AcDbBlockTableRecord
  2
*Model_Space
340
22
  0
BLOCK_RECORD
  5
1B
330
1
100
AcDbSymbolTableRecord
100
AcDbBlockTableRecord
  2
*Paper_Space
340
1E
  0
BLOCK_RECORD
  5
23
330
1
100
AcDbSymbolTableRecord
100
AcDbBlockTableRecord
  2
*Paper_Space0
340
26
  0
BLOCK_RECORD
  5
645
330
1
100
AcDbSymbolTableRecord
100
AcDbBlockTableRecord
  2
_OPEN
340
0
  0
ENDTAB
  0
ENDSEC
  0
SECTION
  2
BLOCKS
  0
BLOCK
  5
20
330
1F
100
AcDbEntity
  8
0
100
AcDbBlockBegin
  2
*Model_Space
 70
     0
 10
0.0
 20
0.0
 30
0.0
  3
*Model_Space
  1

  0
ENDBLK
  5
21
330
1F
100
AcDbEntity
  8
0
100
AcDbBlockEnd
  0
BLOCK
  5
1C
330
1B
100
AcDbEntity
 67
     1
  8
0
100
AcDbBlockBegin
  2
*Paper_Space
 70
     0
 10
0.0
 20
0.0
 30
0.0
  3
*Paper_Space
  1

  0
ENDBLK
  5
1D
330
1B
100
AcDbEntity
 67
     1
  8
0
100
AcDbBlockEnd
  0
BLOCK
  5
24
330
23
100
AcDbEntity
  8
0
100
AcDbBlockBegin
  2
*Paper_Space0
 70
     0
 10
0.0
 20
0.0
 30
0.0
  3
*Paper_Space0
  1

  0
ENDBLK
  5
25
330
23
100
AcDbEntity
  8
0
100
AcDbBlockEnd
  0
BLOCK
  5
646
330
645
100
AcDbEntity
  8
0
100
AcDbBlockBegin
  2
_OPEN
 70
     0
 10
0.0
 20
0.0
 30
0.0
  3
_OPEN
  1

  0
LINE
  5
647
330
645
100
AcDbEntity
  8
0
  6
ByBlock
 62
     0
100
AcDbLine
 10
-1.0
 20
0.1666666666666667
 30
0.0
 11
0.0
 21
0.0
 31
0.0
  0
LINE
  5
648
330
645
100
AcDbEntity
  8
0
  6
ByBlock
 62
     0
100
AcDbLine
 10
0.0
 20
0.0
 30
0.0
 11
-1.0
 21
-0.1666666666666667
 31
0.0
  0
LINE
  5
649
330
645
100
AcDbEntity
  8
0
  6
ByBlock
 62
     0
100
AcDbLine
 10
0.0
 20
0.0
 30
0.0
 11
-1.0
 21
0.0
 31
0.0
  0
ENDBLK
  5
64A
330
645
100
AcDbEntity
  8
0
100
AcDbBlockEnd
  0
ENDSEC
  0
SECTION
  2
ENTITIES
  0
TEXT
  5
674
330
1F
100
AcDbEntity
  8
文字
 62
     7
100
AcDbText
 10
42.97789864864868
 20
88.62859459459463
 30
0.0
 40
10.0
  1
MMT-132/NDC/01
 41
0.9
 11
42.97789864864868
 21
88.62859459459463
 31
0.0
100
AcDbText
 73
     1
  0
LINE
  5
76C
330
1F
100
AcDbEntity
  8
実線
 62
     8
 48
0.5
100
AcDbLine
 10
152.7662393887427
 20
141.7188994039307
 30
0.0
 11
151.8827393887392
 21
142.1302614707316
 31
0.0
  0
LINE
  5
76D
330
1F
100
AcDbEntity
  8
実線
 62
     8
 48
2.0
100
AcDbLine
 10
151.8827393887392
 20
142.1302614707316
 30
0.0
 11
151.8827393887392
 21
140.4525373371367
 31
0.0
  0
LINE
  5
76E
330
1F
100
AcDbEntity
  8
実線
 62
     8
 48
0.5
100
AcDbLine
 10
152.7662393887427
 20
140.8638994039307
 30
0.0
 11
151.8827393887392
 21
140.4525373371367
 31
0.0
  0
SPLINE
  5
76F
330
1F
100
AcDbEntity
  8
寸法線
 62
     8
100
AcDbSpline
210
0.0
220
0.0
230
1.0
 70
    11
 71
     3
 72
    52
 73
    48
 74
     0
 42
0.000000001
 43
0.0000000001
 40
0.0
 40
0.0
 40
0.0
 40
0.0
 40
0.1660052751248561
 40
0.1660052751248561
 40
0.3320105502497122
 40
0.3320105502497122
 40
0.643099107781141
 40
0.643099107781141
 40
0.9541876653125698
 40
0.9541876653125698
 40
1.265276222843999
 40
1.265276222843999
 40
1.576364780375427
 40
1.576364780375427
 40
1.887453337906856
 40
1.887453337906856
 40
2.198541895438285
 40
2.198541895438285
 40
2.509630452969714
 40
2.509630452969714
 40
2.820719010501143
 40
2.820719010501143
 40
3.016413530868025
 40
3.016413530868025
 40
3.212108051234908
 40
3.212108051234908
 40
3.40780257160179
 40
3.40780257160179
 40
3.603497091968673
 40
3.603497091968673
 40
3.924117081040342
 40
3.924117081040342
 40
4.244737070112012
 40
4.244737070112012
 40
4.565357059183682
 40
4.565357059183682
 40
4.885977048255351
 40
4.885977048255351
 40
5.206597037327021
 40
5.206597037327021
 40
5.527217026398691
 40
5.527217026398691
 40
5.84783701547036
 40
5.84783701547036
 40
6.081404607723511
 40
6.081404607723511
 40
6.283185307179586
 40
6.283185307179586
 40
6.283185307179586
 40
6.283185307179586
 10
91.01356886462838
 20
131.0324020235804
 30
0.0
 10
91.01726094353455
 20
130.7404532250308
 30
0.0
 10
91.08563201375239
 20
130.4499531613043
 30
0.0
 10
91.34072825807618
 20
129.8917692621304
 30
0.0
 10
91.52672072077496
 20
129.6237275408394
 30
0.0
 10
92.21035599111804
 20
128.8906159970826
 30
0.0
 10
92.83899407394586
 20
128.4563508054931
 30
0.0
 10
94.40186982924808
 20
127.6901089304243
 30
0.0
 10
95.33679879156136
 20
127.3588723934687
 30
0.0
 10
97.43038482159557
 20
126.8244150076676
 30
0.0
 10
98.58869987669334
 20
126.6215044588399
 30
0.0
 10
101.0214670851771
 20
126.3616880639644
 30
0.0
 10
102.2955087102806
 20
126.3048698523831
 30
0.0
 10
104.8399195710177
 20
126.342421418613
 30
0.0
 10
106.1098701067409
 20
126.4367844382888
 30
0.0
 10
108.5266683407887
 20
126.7681963664841
 30
0.0
 10
109.6731086919632
 20
127.0051428035232
 30
0.0
 10
111.7363062031824
 20
127.6010869083458
 30
0.0
 10
112.65273690786
 20
127.9597518830006
 30
0.0
 10
114.1736591697905
 20
128.7721191569909
 30
0.0
 10
114.7789635834694
 20
129.2251181833859
 30
0.0
 10
115.4636697625525
 20
130.0266044411238
 30
0.0
 10
115.6551394235454
 20
130.3525653304842
 30
0.0
 10
115.8697241655778
 20
131.0276905802189
 30
0.0
 10
115.8908723456249
 20
131.3766002395706
 30
0.0
 10
115.7550343098252
 20
132.0579387431158
 30
0.0
 10
115.5997470463213
 20
132.3887338518176
 30
0.0
 10
115.1383735867627
 20
133.0135573400754
 30
0.0
 10
114.8324427944304
 20
133.3087609832952
 30
0.0
 10
113.847938419202
 20
134.0392419616088
 30
0.0
 10
113.0545499934329
 20
134.4441674935734
 30
0.0
 10
111.1775431998127
 20
135.133023845539
 30
0.0
 10
110.0940139023757
 20
135.4162658108213
 30
0.0
 10
107.7414225008202
 20
135.8360562273648
 30
0.0
 10
106.4728173875106
 20
135.9724039483163
 30
0.0
 10
103.8762259248675
 20
136.0853211553395
 30
0.0
 10
102.5487246277359
 20
136.0618502672556
 30
0.0
 10
99.96704110957455
 20
135.8573508489268
 30
0.0
 10
98.71334169306522
 20
135.6763840494415
 30
0.0
 10
96.40388839359969
 20
135.1739888945445
 30
0.0
 10
95.34857960689862
 20
134.8527948967604
 30
0.0
 10
93.5383464490684
 20
134.0979270431977
 30
0.0
 10
92.78338729368136
 20
133.6649986321687
 30
0.0
 10
91.79935961422473
 20
132.8417379358967
 30
0.0
 10
91.4820455529831
 20
132.4711212865642
 30
0.0
 10
91.10048628192328
 20
131.7418529758453
 30
0.0
 10
91.00908111407864
 20
131.3872680525816
 30
0.0
 10
91.01356886462838
 20
131.0324020235804
 30
0.0
  0
LINE
  5
770
330
1F
100
AcDbEntity
  8
寸法線
 62
     8
100
AcDbLine
 10
160.4917424549336
 20
129.8494620842485
 30
0.0
 11
164.9384633306678
 21
126.3938228052062
 31
0.0
  0
LINE
  5
771
330
1F
100
AcDbEntity
  8
寸法線
 62
     8
100
AcDbLine
 10
164.9384633306678
 20
122.5389036192042
 30
0.0
 11
164.9384633306678
 21
126.3955931051606
 31
0.0
  0
ELLIPSE
  5
772
330
1F
100
AcDbEntity
  8
実線
 62
     8
100
AcDbEllipse
 10
165.4917326930178
 20
147.3844122289853
 30
0.0
 11
-2.578714170110288
 21
0.4770985151819332
 31
0.0
210
0.0
220
0.0
230
1.0
 40
0.400615776736993
 41
0.0
 42
6.283185307179586
  0
ELLIPSE
  5
773
330
1F
100
AcDbEntity
  8
実線
 62
     8
100
AcDbEllipse
 10
165.4917326930178
 20
147.9247075218051
 30
0.0
 11
-2.578714170110288
 21
0.4770985151819332
 31
0.0
210
0.0
220
0.0
230
1.0
 40
0.400615776736993
 41
0.3303199014578144
 42
2.959241327695059
  0
LINE
  5
774
330
1F
100
AcDbEntity
  8
寸法線
 62
     8
100
AcDbLine
 10
162.6538514555383
 20
152.0786494039313
 30
0.0
 11
163.7817112775944
 21
151.1951494039314
 31
0.0
  0
LINE
  5
775
330
1F
100
AcDbEntity
  8
実線
 62
     8
 48
0.5
100
AcDbLine
 10
162.2424893887425
 20
151.1951494039314
 30
0.0
 11
162.6538514555383
 21
152.0786494039313
 31
0.0
  0
LINE
  5
776
330
1F
100
AcDbEntity
  8
実線
 62
     8
 48
0.5
100
AcDbLine
 10
161.3874893887429
 20
151.1951494039314
 30
0.0
 11
160.976127321947
 21
152.0786494039313
 31
0.0
  0
LINE
  5
777
330
1F
100
AcDbEntity
  8
実線
 62
     8
 48
2.0
100
AcDbLine
 10
160.976127321947
 20
152.0786494039313
 30
0.0
 11
162.6538514555383
 21
152.0786494039313
 31
0.0
  0
LINE
  5
778
330
1F
100
AcDbEntity
  8
実線
 62
     8
100
AcDbLine
 10
167.8712393887423
 20
150.3401494039318
 30
0.0
 11
167.8712393887423
 21
151.1951494039314
 31
0.0
  0
LINE
  5
779
330
1F
100
AcDbEntity
  8
実線
 62
     8
100
AcDbLine
 10
162.2424893887425
 20
151.1951494039314
 30
0.0
 11
167.8712393887423
 21
151.1951494039314
 31
0.0
  0
LINE
  5
77A
330
1F
100
AcDbEntity
  8
実線
 62
     8
100
AcDbLine
 10
161.9167424549329
 20
144.9581956005742
 30
0.0
 11
174.7417424549336
 21
144.9581956005742
 31
0.0
  0
LINE
  5
77B
330
1F
100
AcDbEntity
  8
実線
 62
     8
100
AcDbLine
 10
174.7417424549336
 20
144.9581956005742
 30
0.0
 11
174.7417424549336
 21
145.8131956005742
 31
0.0
  0
LINE
  5
77C
330
1F
100
AcDbEntity
  8
寸法線
 62
     8
100
AcDbLine
 10
167.8712393887423
 20
150.3401494039318
 30
0.0
 11
174.7417424549336
 21
144.9581956005742
 31
0.0
  0
LINE
  5
77D
330
1F
100
AcDbEntity
  8
寸法線
 62
     8
100
AcDbLine
 10
167.8712393887423
 20
151.1951494039314
 30
0.0
 11
174.7417424549336
 21
145.8131956005742
 31
0.0
  0
LINE
  5
77E
330
1F
100
AcDbEntity
  8
寸法線
 62
     8
100
AcDbLine
 10
164.5554973238274
 20
157.0062159565583
 30
0.0
 11
164.5554973238201
 21
151.1951494039314
 31
0.0
  0
LINE
  5
77F
330
1F
100
AcDbEntity
  8
姿図
 62
     8
 48
2.0
100
AcDbLine
 10
161.7257404595426
 20
144.9581930392156
 30
0.0
 11
168.2760052034197
 21
144.9581930392161
 31
0.0
  0
LINE
  5
780
330
1F
100
AcDbEntity
  8
寸法線
 62
     8
100
AcDbLine
 10
164.5554973238237
 20
144.9581956005742
 30
0.0
 11
164.5554973238237
 21
126.4774071932103
 31
0.0
  0
LINE
  5
781
330
1F
100
AcDbEntity
  8
寸法線
 62
     8
100
AcDbLine
 10
119.1603063777462
 20
158.2985090201711
 30
0.0
 11
119.1603063777462
 21
195.5884203350004
 31
0.0
  0
ELLIPSE
  5
782
330
1F
100
AcDbEntity
  8
寸法線
 62
     8
100
AcDbEllipse
 10
107.1094356480559
 20
182.4626251225883
 30
0.0
 11
0.03475554799370002
 21
1.076391170039388
 31
0.0
210
0.0
220
0.0
230
1.0
 40
0.4932152022865364
 41
0.0
 42
6.283185307179586
  0
LINE
  5
783
330
1F
100
AcDbEntity
  8
寸法線
 62
     8
100
AcDbLine
 10
104.2285640944525
 20
173.9861119723488
 30
0.0
 11
104.2285640944525
 21
189.8757642064753
 31
0.0
  0
ELLIPSE
  5
784
330
1F
100
AcDbEntity
  8
実線
 62
     8
100
AcDbEllipse
 10
140.8497322589561
 20
167.0297741700784
 30
0.0
 11
-2.578714170110288
 21
0.4770985151819332
 31
0.0
210
0.0
220
0.0
230
1.0
 40
0.400615776736993
 41
0.3303199014578144
 42
2.959241327695059
  0
ELLIPSE
  5
785
330
1F
100
AcDbEntity
  8
実線
 62
     8
100
AcDbEllipse
 10
140.8497322589561
 20
166.4894788772586
 30
0.0
 11
-2.578714170110288
 21
0.4770985151819332
 31
0.0
210
0.0
220
0.0
230
1.0
 40
0.400615776736993
 41
0.0
 42
6.283185307179586
  0
LINE
  5
786
330
1F
100
AcDbEntity
  8
実線
 62
     8
 48
0.5
100
AcDbLine
 10
128.1242389546775
 20
160.8239660522041
 30
0.0
 11
127.2407389546776
 21
161.2353281190045
 31
0.0
  0
LINE
  5
787
330
1F
100
AcDbEntity
  8
実線
 62
     8
 48
0.5
100
AcDbLine
 10
128.1242389546775
 20
159.9689660522036
 30
0.0
 11
127.2407389546776
 21
159.5576039854082
 31
0.0
  0
LINE
  5
788
330
1F
100
AcDbEntity
  8
実線
 62
     8
 48
2.0
100
AcDbLine
 10
127.2407389546776
 20
161.2353281190045
 30
0.0
 11
127.2407389546776
 21
159.5576039854082
 31
0.0
  0
LINE
  5
789
330
1F
100
AcDbEntity
  8
実線
 62
     8
 48
2.0
100
AcDbLine
 10
127.2407389546776
 20
163.9428281190049
 30
0.0
 11
127.2407389546776
 21
162.2651039854087
 31
0.0
  0
LINE
  5
78A
330
1F
100
AcDbEntity
  8
実線
 62
     8
 48
0.5
100
AcDbLine
 10
128.1242389546775
 20
162.6764660522041
 30
0.0
 11
127.2407389546776
 21
162.2651039854087
 31
0.0
  0
LINE
  5
78B
330
1F
100
AcDbEntity
  8
実線
 62
     8
 48
2.0
100
AcDbLine
 10
127.2407389546776
 20
164.9726039854059
 30
0.0
 11
127.2407389546776
 21
166.6503281190045
 31
0.0
  0
LINE
  5
78C
330
1F
100
AcDbEntity
  8
実線
 62
     8
 48
0.5
100
AcDbLine
 10
128.1242389546775
 20
165.383966052204
 30
0.0
 11
127.2407389546776
 21
164.9726039854059
 31
0.0
  0
LINE
  5
78D
330
1F
100
AcDbEntity
  8
実線
 62
     8
 48
2.0
100
AcDbLine
 10
127.2407389546776
 20
167.6801039854064
 30
0.0
 11
127.2407389546776
 21
169.3578281190049
 31
0.0
  0
LINE
  5
78E
330
1F
100
AcDbEntity
  8
実線
 62
     8
 48
0.5
100
AcDbLine
 10
128.1242389546775
 20
168.091466052204
 30
0.0
 11
127.2407389546776
 21
167.6801039854064
 31
0.0
  0
LINE
  5
78F
330
1F
100
AcDbEntity
  8
寸法線
 62
     8
100
AcDbLine
 10
128.1242389546775
 20
154.9706984269343
 30
0.0
 11
119.1603063777426
 21
161.9689807045707
 31
0.0
  0
LINE
  5
790
330
1F
100
AcDbEntity
  8
実線
 62
     8
100
AcDbLine
 10
128.9792389546807
 20
153.7702160522041
 30
0.0
 11
128.9792389546807
 21
168.020216052205
 31
0.0
  0
LINE
  5
791
330
1F
100
AcDbEntity
  8
実線
 62
     8
100
AcDbLine
 10
128.1242389546775
 20
159.9689660522041
 30
0.0
 11
128.1242389546775
 21
153.770216052205
 31
0.0
  0
LINE
  5
792
330
1F
100
AcDbEntity
  8
実線
 62
     8
100
AcDbLine
 10
135.8497420208683
 20
148.3882622488469
 30
0.0
 11
135.8497420208683
 21
162.6382622488478
 31
0.0
  0
LINE
  5
793
330
1F
100
AcDbEntity
  8
実線
 62
     8
100
AcDbLine
 10
128.9792389546807
 20
153.7702160522041
 30
0.0
 11
128.1242389546775
 21
153.7702160522041
 31
0.0
  0
LINE
  5
794
330
1F
100
AcDbEntity
  8
実線
 62
     8
100
AcDbLine
 10
135.8497420208683
 20
148.3882622488469
 30
0.0
 11
134.9947420208688
 21
148.3882622488469
 31
0.0
  0
LINE
  5
795
330
1F
100
AcDbEntity
  8
寸法線
 62
     8
100
AcDbLine
 10
128.9792389546807
 20
153.7702160522041
 30
0.0
 11
135.8497420208683
 21
148.3882622488469
 31
0.0
  0
LINE
  5
796
330
1F
100
AcDbEntity
  8
寸法線
 62
     8
100
AcDbLine
 10
128.1242389546775
 20
153.7702160522041
 30
0.0
 11
134.9947420208688
 21
148.3882622488469
 31
0.0
  0
LINE
  5
797
330
1F
100
AcDbEntity
  8
実線
 62
     8
100
AcDbLine
 10
130.40423895468
 20
169.4452160522052
 30
0.0
 11
143.2292389546807
 21
169.4452160522052
 31
0.0
  0
LINE
  5
798
330
1F
100
AcDbEntity
  8
姿図
 62
     8
 48
2.0
100
AcDbLine
 10
130.2132369592897
 20
169.4452134908466
 30
0.0
 11
140.7584136943175
 21
169.4452134908466
 31
0.0
  0
LINE
  5
799
330
1F
100
AcDbEntity
  8
実線
 62
     8
100
AcDbLine
 10
137.6004889546808
 20
170.3002160522052
 30
0.0
 11
143.2292389546807
 21
170.3002160522052
 31
0.0
  0
LINE
  5
79A
330
1F
100
AcDbEntity
  8
実線
 62
     8
100
AcDbLine
 10
137.2747420208676
 20
164.0632622488475
 30
0.0
 11
150.0997420208683
 21
164.0632622488475
 31
0.0
  0
LINE
  5
79B
330
1F
100
AcDbEntity
  8
姿図
 62
     8
 48
2.0
100
AcDbLine
 10
137.0837400254774
 20
164.063259687489
 30
0.0
 11
147.6289167605088
 21
164.063259687489
 31
0.0
  0
LINE
  5
79C
330
1F
100
AcDbEntity
  8
実線
 62
     8
100
AcDbLine
 10
134.8929889546804
 20
170.3002160522043
 30
0.0
 11
136.7454889546813
 21
170.3002160522052
 31
0.0
  0
LINE
  5
79D
330
1F
100
AcDbEntity
  8
実線
 62
     8
 48
2.0
100
AcDbLine
 10
132.5968510214758
 20
171.1837160522046
 30
0.0
 11
130.9191268878809
 21
171.1837160522046
 31
0.0
  0
LINE
  5
79E
330
1F
100
AcDbEntity
  8
実線
 62
     8
 48
2.0
100
AcDbLine
 10
129.8893510214754
 20
171.1837160522046
 30
0.0
 11
128.2116268878841
 21
171.1837160522046
 31
0.0
  0
LINE
  5
79F
330
1F
100
AcDbEntity
  8
実線
 62
     8
100
AcDbLine
 10
129.4779889546795
 20
170.3002160522052
 30
0.0
 11
131.3304889546804
 21
170.3002160522052
 31
0.0
  0
LINE
  5
7A0
330
1F
100
AcDbEntity
  8
実線
 62
     8
 48
0.5
100
AcDbLine
 10
129.4779889546795
 20
170.3002160522052
 30
0.0
 11
129.8893510214754
 21
171.1837160522046
 31
0.0
  0
LINE
  5
7A1
330
1F
100
AcDbEntity
  8
実線
 62
     8
 48
0.5
100
AcDbLine
 10
131.3304889546804
 20
170.3002160522052
 30
0.0
 11
130.9191268878809
 21
171.1837160522046
 31
0.0
  0
LINE
  5
7A2
330
1F
100
AcDbEntity
  8
実線
 62
     8
 48
2.0
100
AcDbLine
 10
133.6266268878813
 20
171.1837160522046
 30
0.0
 11
135.3043510214762
 21
171.1837160522046
 31
0.0
  0
LINE
  5
7A3
330
1F
100
AcDbEntity
  8
実線
 62
     8
100
AcDbLine
 10
132.18548895468
 20
170.3002160522052
 30
0.0
 11
134.0379889546808
 21
170.3002160522052
 31
0.0
  0
LINE
  5
7A4
330
1F
100
AcDbEntity
  8
実線
 62
     8
 48
0.5
100
AcDbLine
 10
134.0379889546808
 20
170.3002160522052
 30
0.0
 11
133.6266268878813
 21
171.1837160522046
 31
0.0
  0
LINE
  5
7A5
330
1F
100
AcDbEntity
  8
実線
 62
     8
 48
0.5
100
AcDbLine
 10
132.18548895468
 20
170.3002160522052
 30
0.0
 11
132.5968510214758
 21
171.1837160522046
 31
0.0
  0
LINE
  5
7A6
330
1F
100
AcDbEntity
  8
実線
 62
     8
 48
0.5
100
AcDbLine
 10
134.8929889546804
 20
170.3002160522052
 30
0.0
 11
135.3043510214762
 21
171.1837160522046
 31
0.0
  0
LINE
  5
7A7
330
1F
100
AcDbEntity
  8
実線
 62
     8
 48
2.0
100
AcDbLine
 10
136.3341268878818
 20
171.1837160522046
 30
0.0
 11
138.0118510214767
 21
171.1837160522046
 31
0.0
  0
LINE
  5
7A8
330
1F
100
AcDbEntity
  8
実線
 62
     8
 48
0.5
100
AcDbLine
 10
136.7454889546813
 20
170.3002160522052
 30
0.0
 11
136.3341268878818
 21
171.1837160522046
 31
0.0
  0
LINE
  5
7A9
330
1F
100
AcDbEntity
  8
実線
 62
     8
 48
0.5
100
AcDbLine
 10
137.6004889546808
 20
170.3002160522052
 30
0.0
 11
138.0118510214767
 21
171.1837160522046
 31
0.0
  0
LINE
  5
7AA
330
1F
100
AcDbEntity
  8
実線
 62
     8
 48
0.5
100
AcDbLine
 10
128.62298895468
 20
170.3002160522052
 30
0.0
 11
128.2116268878841
 21
171.1837160522046
 31
0.0
  0
LINE
  5
7AB
330
1F
100
AcDbEntity
  8
実線
 62
     8
100
AcDbLine
 10
128.1242389546775
 20
170.3002160522052
 30
0.0
 11
128.62298895468
 21
170.3002160522052
 31
0.0
  0
LINE
  5
7AC
330
1F
100
AcDbEntity
  8
実線
 62
     8
100
AcDbLine
 10
128.1242389546775
 20
170.3002160522052
 30
0.0
 11
128.1242389546775
 21
168.946466052204
 31
0.0
  0
ARC
  5
7AD
330
1F
100
AcDbEntity
  8
実線
 62
     8
100
AcDbCircle
 10
130.40423895468
 20
168.020216052205
 30
0.0
 40
1.425
100
AcDbArc
 50
90.0
 51
180.0
  0
LINE
  5
7AE
330
1F
100
AcDbEntity
  8
実線
 62
     8
 48
0.5
100
AcDbLine
 10
128.1242389546775
 20
168.946466052204
 30
0.0
 11
127.2407389546776
 21
169.3578281190049
 31
0.0
  0
LINE
  5
7AF
330
1F
100
AcDbEntity
  8
実線
 62
     8
100
AcDbLine
 10
128.1242389546775
 20
168.091466052204
 30
0.0
 11
128.1242389546775
 21
166.2389660522041
 31
0.0
  0
LINE
  5
7B0
330
1F
100
AcDbEntity
  8
実線
 62
     8
 48
0.5
100
AcDbLine
 10
128.1242389546775
 20
166.2389660522041
 30
0.0
 11
127.2407389546776
 21
166.6503281190045
 31
0.0
  0
LINE
  5
7B1
330
1F
100
AcDbEntity
  8
実線
 62
     8
100
AcDbLine
 10
128.1242389546775
 20
165.383966052204
 30
0.0
 11
128.1242389546775
 21
163.5314660522041
 31
0.0
  0
LINE
  5
7B2
330
1F
100
AcDbEntity
  8
実線
 62
     8
 48
0.5
100
AcDbLine
 10
128.1242389546775
 20
163.5314660522041
 30
0.0
 11
127.2407389546776
 21
163.9428281190049
 31
0.0
  0
LINE
  5
7B3
330
1F
100
AcDbEntity
  8
実線
 62
     8
100
AcDbLine
 10
128.1242389546775
 20
162.6764660522041
 30
0.0
 11
128.1242389546775
 21
160.8239660522041
 31
0.0
  0
LINE
  5
7B4
330
1F
100
AcDbEntity
  8
実線
 62
     8
 48
0.5
100
AcDbLine
 10
128.1242389546775
 20
160.8239660522041
 30
0.0
 11
127.5468550190477
 21
161.0927989317716
 31
0.0
  0
ARC
  5
7B5
330
1F
100
AcDbEntity
  8
実線
 62
     8
100
AcDbCircle
 10
137.2747420208676
 20
162.6382622488478
 30
0.0
 40
1.425
100
AcDbArc
 50
90.0
 51
180.0
  0
LINE
  5
7B6
330
1F
100
AcDbEntity
  8
寸法線
 62
     8
100
AcDbLine
 10
135.3043510214762
 20
171.1837160522046
 30
0.0
 11
136.4322108435323
 21
170.3002160522047
 31
0.0
  0
LINE
  5
7B7
330
1F
100
AcDbEntity
  8
寸法線
 62
     8
100
AcDbLine
 10
132.5968510214758
 20
171.1837160522046
 30
0.0
 11
133.7247108435319
 21
170.3002160522052
 31
0.0
  0
LINE
  5
7B8
330
1F
100
AcDbEntity
  8
寸法線
 62
     8
100
AcDbLine
 10
129.8893510214754
 20
171.1837160522046
 30
0.0
 11
131.0172108435351
 21
170.3002160522052
 31
0.0
  0
LINE
  5
7B9
330
1F
100
AcDbEntity
  8
寸法線
 62
     8
100
AcDbLine
 10
130.2111606505265
 20
168.7245607022611
 30
0.0
 11
135.7773353702202
 21
164.2746620528133
 31
0.0
  0
LINE
  5
7BA
330
1F
100
AcDbEntity
  8
寸法線
 62
     8
100
AcDbLine
 10
138.0118510214767
 20
171.1837160522046
 30
0.0
 11
139.1397108435327
 21
170.3002160522052
 31
0.0
  0
LINE
  5
7BB
330
1F
100
AcDbEntity
  8
実線
 62
     8
100
AcDbLine
 10
150.0997420208683
 20
164.0632622488475
 30
0.0
 11
150.0997420208683
 21
164.9182622488475
 31
0.0
  0
LINE
  5
7BC
330
1F
100
AcDbEntity
  8
実線
 62
     8
100
AcDbLine
 10
143.2292389546807
 20
169.4452160522052
 30
0.0
 11
143.2292389546807
 21
170.3002160522052
 31
0.0
  0
LINE
  5
7BD
330
1F
100
AcDbEntity
  8
寸法線
 62
     8
100
AcDbLine
 10
143.2292389546807
 20
170.3002160522052
 30
0.0
 11
150.0997420208683
 21
164.9182622488475
 31
0.0
  0
LINE
  5
7BE
330
1F
100
AcDbEntity
  8
寸法線
 62
     8
100
AcDbLine
 10
143.2292389546807
 20
169.4452160522052
 30
0.0
 11
150.0997420208683
 21
164.0632622488475
 31
0.0
  0
LINE
  5
7BF
330
1F
100
AcDbEntity
  8
寸法線
 62
     8
100
AcDbLine
 10
134.7486686035687
 20
130.7597694427046
 30
0.0
 11
134.7486686035687
 21
126.1892528507879
 31
0.0
  0
LINE
  5
7C0
330
1F
100
AcDbEntity
  8
寸法線
 62
     8
100
AcDbLine
 10
97.88487624294305
 20
120.3823161189217
 30
0.0
 11
134.7486686035687
 21
126.1892528507875
 31
0.0
  0
LINE
  5
7C1
330
1F
100
AcDbEntity
  8
実線
 62
     8
100
AcDbLine
 10
160.4917424549336
 20
129.2831956005731
 30
0.0
 11
160.4917424549336
 21
143.533195600574
 31
0.0
  0
LINE
  5
7C2
330
1F
100
AcDbEntity
  8
寸法線
 62
     8
100
AcDbLine
 10
152.7662393887427
 20
134.6651494039307
 30
0.0
 11
159.6367424549304
 21
129.2831956005731
 31
0.0
  0
LINE
  5
7C3
330
1F
100
AcDbEntity
  8
寸法線
 62
     8
100
AcDbLine
 10
153.6212393887423
 20
134.6651494039307
 30
0.0
 11
160.4917424549336
 21
129.2831956005731
 31
0.0
  0
LINE
  5
7C4
330
1F
100
AcDbEntity
  8
実線
 62
     8
100
AcDbLine
 10
160.4917424549336
 20
129.2831956005731
 30
0.0
 11
159.6367424549304
 21
129.2831956005731
 31
0.0
  0
LINE
  5
7C5
330
1F
100
AcDbEntity
  8
寸法線
 62
     8
100
AcDbLine
 10
154.531351455537
 20
152.0786494039313
 30
0.0
 11
155.6592112775967
 21
151.1951494039314
 31
0.0
  0
LINE
  5
7C6
330
1F
100
AcDbEntity
  8
実線
 62
     8
100
AcDbLine
 10
154.1199893887411
 20
151.1951494039314
 30
0.0
 11
155.972489388742
 21
151.1951494039314
 31
0.0
  0
LINE
  5
7C7
330
1F
100
AcDbEntity
  8
実線
 62
     8
100
AcDbLine
 10
152.7662393887427
 20
151.1951494039314
 30
0.0
 11
153.2649893887416
 21
151.1951494039314
 31
0.0
  0
LINE
  5
7C8
330
1F
100
AcDbEntity
  8
実線
 62
     8
 48
0.5
100
AcDbLine
 10
153.2649893887416
 20
151.1951494039314
 30
0.0
 11
152.8536273219457
 21
152.0786494039313
 31
0.0
  0
LINE
  5
7C9
330
1F
100
AcDbEntity
  8
実線
 62
     8
 48
0.5
100
AcDbLine
 10
154.1199893887411
 20
151.1951494039314
 30
0.0
 11
154.531351455537
 21
152.0786494039313
 31
0.0
  0
LINE
  5
7CA
330
1F
100
AcDbEntity
  8
実線
 62
     8
 48
2.0
100
AcDbLine
 10
154.531351455537
 20
152.0786494039313
 30
0.0
 11
152.8536273219457
 21
152.0786494039313
 31
0.0
  0
LINE
  5
7CB
330
1F
100
AcDbEntity
  8
寸法線
 62
     8
100
AcDbLine
 10
157.2388514555374
 20
152.0786494039313
 30
0.0
 11
158.3667112775971
 21
151.1951494039314
 31
0.0
  0
LINE
  5
7CC
330
1F
100
AcDbEntity
  8
実線
 62
     8
 48
0.5
100
AcDbLine
 10
159.534989388742
 20
151.1951494039314
 30
0.0
 11
159.9463514555379
 21
152.0786494039313
 31
0.0
  0
LINE
  5
7CD
330
1F
100
AcDbEntity
  8
実線
 62
     8
 48
0.5
100
AcDbLine
 10
158.6799893887425
 20
151.1951494039314
 30
0.0
 11
158.2686273219466
 21
152.0786494039313
 31
0.0
  0
LINE
  5
7CE
330
1F
100
AcDbEntity
  8
実線
 62
     8
 48
2.0
100
AcDbLine
 10
158.2686273219466
 20
152.0786494039313
 30
0.0
 11
159.9463514555379
 21
152.0786494039313
 31
0.0
  0
LINE
  5
7CF
330
1F
100
AcDbEntity
  8
実線
 62
     8
 48
0.5
100
AcDbLine
 10
155.972489388742
 20
151.1951494039314
 30
0.0
 11
155.5611273219462
 21
152.0786494039313
 31
0.0
  0
LINE
  5
7D0
330
1F
100
AcDbEntity
  8
実線
 62
     8
 48
0.5
100
AcDbLine
 10
156.8274893887416
 20
151.1951494039314
 30
0.0
 11
157.2388514555374
 21
152.0786494039313
 31
0.0
  0
LINE
  5
7D1
330
1F
100
AcDbEntity
  8
実線
 62
     8
100
AcDbLine
 10
156.8274893887416
 20
151.1951494039314
 30
0.0
 11
158.6799893887425
 21
151.1951494039314
 31
0.0
  0
LINE
  5
7D2
330
1F
100
AcDbEntity
  8
実線
 62
     8
 48
2.0
100
AcDbLine
 10
157.2388514555374
 20
152.0786494039313
 30
0.0
 11
155.5611273219462
 21
152.0786494039313
 31
0.0
  0
LINE
  5
7D3
330
1F
100
AcDbEntity
  8
実線
 62
     8
100
AcDbLine
 10
153.6212393887423
 20
134.6651494039307
 30
0.0
 11
153.6212393887423
 21
148.9151494039316
 31
0.0
  0
LINE
  5
7D4
330
1F
100
AcDbEntity
  8
寸法線
 62
     8
100
AcDbLine
 10
154.3904450077486
 20
149.149788382295
 30
0.0
 11
160.3450314770186
 21
144.6869036319082
 31
0.0
  0
LINE
  5
7D5
330
1F
100
AcDbEntity
  8
実線
 62
     8
100
AcDbLine
 10
152.7662393887427
 20
140.8638994039307
 30
0.0
 11
152.7662393887427
 21
134.6651494039316
 31
0.0
  0
LINE
  5
7D6
330
1F
100
AcDbEntity
  8
実線
 62
     8
100
AcDbLine
 10
153.6212393887423
 20
134.6651494039307
 30
0.0
 11
152.7662393887427
 21
134.6651494039307
 31
0.0
  0
LINE
  5
7D7
330
1F
100
AcDbEntity
  8
実線
 62
     8
 48
0.5
100
AcDbLine
 10
152.7662393887427
 20
143.5713994039307
 30
0.0
 11
151.8827393887392
 21
143.1600373371367
 31
0.0
  0
LINE
  5
7D8
330
1F
100
AcDbEntity
  8
実線
 62
     8
 48
2.0
100
AcDbLine
 10
151.8827393887392
 20
144.8377614707316
 30
0.0
 11
151.8827393887392
 21
143.1600373371367
 31
0.0
  0
LINE
  5
7D9
330
1F
100
AcDbEntity
  8
実線
 62
     8
 48
0.5
100
AcDbLine
 10
152.7662393887427
 20
146.2788994039302
 30
0.0
 11
151.8827393887392
 21
145.8675373371353
 31
0.0
  0
LINE
  5
7DA
330
1F
100
AcDbEntity
  8
実線
 62
     8
100
AcDbLine
 10
152.7662393887427
 20
143.5713994039307
 30
0.0
 11
152.7662393887427
 21
141.7188994039307
 31
0.0
  0
LINE
  5
7DB
330
1F
100
AcDbEntity
  8
実線
 62
     8
 48
0.5
100
AcDbLine
 10
152.7662393887427
 20
144.4263994039307
 30
0.0
 11
151.8827393887392
 21
144.8377614707316
 31
0.0
  0
LINE
  5
7DC
330
1F
100
AcDbEntity
  8
実線
 62
     8
100
AcDbLine
 10
152.7662393887427
 20
146.2788994039302
 30
0.0
 11
152.7662393887427
 21
144.4263994039307
 31
0.0
  0
LINE
  5
7DD
330
1F
100
AcDbEntity
  8
実線
 62
     8
 48
2.0
100
AcDbLine
 10
151.8827393887392
 20
145.8675373371353
 30
0.0
 11
151.8827393887392
 21
147.5452614707316
 31
0.0
  0
LINE
  5
7DE
330
1F
100
AcDbEntity
  8
実線
 62
     8
 48
0.5
100
AcDbLine
 10
152.7662393887427
 20
148.9863994039307
 30
0.0
 11
151.8827393887392
 21
148.5750373371344
 31
0.0
  0
LINE
  5
7DF
330
1F
100
AcDbEntity
  8
実線
 62
     8
 48
0.5
100
AcDbLine
 10
152.7662393887427
 20
147.1338994039307
 30
0.0
 11
151.8827393887392
 21
147.5452614707316
 31
0.0
  0
LINE
  5
7E0
330
1F
100
AcDbEntity
  8
実線
 62
     8
100
AcDbLine
 10
152.7662393887427
 20
148.9863994039307
 30
0.0
 11
152.7662393887427
 21
147.1338994039307
 31
0.0
  0
ARC
  5
7E1
330
1F
100
AcDbEntity
  8
実線
 62
     8
100
AcDbCircle
 10
155.0462393887416
 20
148.9151494039316
 30
0.0
 40
1.425
100
AcDbArc
 50
90.0
 51
180.0
  0
LINE
  5
7E2
330
1F
100
AcDbEntity
  8
実線
 62
     8
 48
2.0
100
AcDbLine
 10
151.8827393887392
 20
148.5750373371344
 30
0.0
 11
151.8827393887392
 21
150.2527614707315
 31
0.0
  0
LINE
  5
7E3
330
1F
100
AcDbEntity
  8
実線
 62
     8
 48
0.5
100
AcDbLine
 10
152.7662393887427
 20
149.8413994039302
 30
0.0
 11
151.8827393887392
 21
150.2527614707315
 31
0.0
  0
LINE
  5
7E4
330
1F
100
AcDbEntity
  8
実線
 62
     8
100
AcDbLine
 10
152.7662393887427
 20
151.1951494039314
 30
0.0
 11
152.7662393887427
 21
149.8413994039302
 31
0.0
  0
LINE
  5
7E5
330
1F
100
AcDbEntity
  8
寸法線
 62
     8
100
AcDbLine
 10
111.6218436864461
 20
147.6870355058869
 30
0.0
 11
111.6218436864461
 21
143.1165189139693
 31
0.0
  0
LINE
  5
7E6
330
1F
100
AcDbEntity
  8
寸法線
 62
     8
100
AcDbLine
 10
111.6218436864461
 20
147.6870355058869
 30
0.0
 11
111.6218436864461
 21
143.1165189139693
 31
0.0
  0
LINE
  5
7E7
330
1F
100
AcDbEntity
  8
寸法線
 62
     8
100
AcDbLine
 10
71.96878268584135
 20
140.6424234591483
 30
0.0
 11
71.96878268584135
 21
136.0719068672302
 31
0.0
  0
LINE
  5
7E8
330
1F
100
AcDbEntity
  8
寸法線
 62
     8
100
AcDbLine
 10
71.96878268584135
 20
140.6424234591483
 30
0.0
 11
71.96878268584135
 21
136.0719068672302
 31
0.0
  0
LINE
  5
7E9
330
1F
100
AcDbEntity
  8
寸法線
 62
     8
100
AcDbLine
 10
111.6218436864461
 20
143.1165189139693
 30
0.0
 11
71.96878268584135
 21
136.0719068672302
 31
0.0
  0
LINE
  5
7EA
330
1F
100
AcDbEntity
  8
寸法線
 62
     8
100
AcDbLine
 10
111.6218436864461
 20
147.6870355058869
 30
0.0
 11
71.96878268584135
 21
140.6424234591483
 31
0.0
  0
LINE
  5
7EB
330
1F
100
AcDbEntity
  8
寸法線
 62
     8
100
AcDbLine
 10
71.96878268584135
 20
136.0719068672302
 30
0.0
 11
97.88487624294305
 21
120.3823161189217
 31
0.0
  0
LINE
  5
7EC
330
1F
100
AcDbEntity
  8
寸法線
 62
     8
100
AcDbLine
 10
134.7486686035687
 20
126.1892528507879
 30
0.0
 11
111.6218436864461
 21
143.1165189139693
 31
0.0
  0
LINE
  5
7ED
330
1F
100
AcDbEntity
  8
寸法線
 62
     8
100
AcDbLine
 10
134.7486686035687
 20
130.7597694427041
 30
0.0
 11
111.6218436864461
 21
147.6870355058869
 31
0.0
  0
ELLIPSE
  5
7EE
330
1F
100
AcDbEntity
  8
寸法線
 62
     8
100
AcDbEllipse
 10
103.4378481892114
 20
131.1895234772861
 30
0.0
 11
-12.17429931337501
 21
-0.1539601256532479
 31
0.0
210
0.0
220
0.0
230
1.0
 40
0.3792278995966104
 41
0.0
 42
6.283185307179586
  0
ELLIPSE
  5
7EF
330
1F
100
AcDbEntity
  8
寸法線
 62
     8
100
AcDbEllipse
 10
102.3499828847913
 20
133.145856649795
 30
0.0
 11
-12.17429931337501
 21
-0.153960125653248
 31
0.0
210
0.0
220
0.0
230
1.0
 40
0.3792278995966104
 41
0.4213615905304035
 42
3.123944321263648
  0
ELLIPSE
  5
7F0
330
1F
100
AcDbEntity
  8
寸法線
 62
     8
100
AcDbEllipse
 10
102.4662212806749
 20
132.5651957394376
 30
0.0
 11
-12.17429931337501
 21
-0.153960125653248
 31
0.0
210
0.0
220
0.0
230
1.0
 40
0.3792278995966104
 41
0.4213615905304035
 42
3.123944321263648
  0
ELLIPSE
  5
7F1
330
1F
100
AcDbEntity
  8
寸法線
 62
     8
100
AcDbEllipse
 10
103.1636813920655
 20
131.5200061007905
 30
0.0
 11
-12.17429931337501
 21
-0.153960125653248
 31
0.0
210
0.0
220
0.0
230
1.0
 40
0.3792278995966104
 41
0.4213615905304035
 42
3.123944321263648
  0
ELLIPSE
  5
7F2
330
1F
100
AcDbEntity
  8
寸法線
 62
     8
100
AcDbEllipse
 10
103.047442996182
 20
132.1006670111479
 30
0.0
 11
-12.17429931337501
 21
-0.153960125653248
 31
0.0
210
0.0
220
0.0
230
1.0
 40
0.3792278995966104
 41
0.4213615905304035
 42
3.123944321263648
  0
LINE
  5
7F3
330
1F
100
AcDbEntity
  8
寸法線
 62
     8
100
AcDbLine
 10
41.25191166056413
 20
148.1280715258727
 30
0.0
 11
41.25191166056413
 21
182.149934382052
 31
0.0
  0
LINE
  5
7F4
330
1F
100
AcDbEntity
  8
寸法線
 62
     8
100
AcDbLine
 10
40.73545535504184
 20
144.3658481779272
 30
0.0
 11
40.73545535504184
 21
148.0363198623273
 31
0.0
  0
ELLIPSE
  5
7F5
330
1F
100
AcDbEntity
  8
寸法線
 62
     8
100
AcDbEllipse
 10
50.45199845731133
 20
172.2428825365597
 30
0.0
 11
0.03475554799370002
 21
1.076391170039387
 31
0.0
210
0.0
220
0.0
230
1.0
 40
0.4932152022865365
 41
0.0
 42
6.283185307179586
  0
LINE
  5
7F6
330
1F
100
AcDbEntity
  8
寸法線
 62
     8
100
AcDbLine
 10
53.0943115480901
 20
164.901795089887
 30
0.0
 11
53.0943115480901
 21
180.7914473240131
 31
0.0
  0
LINE
  5
7F7
330
1F
100
AcDbEntity
  8
寸法線
 62
     8
100
AcDbLine
 10
118.7686820048208
 20
195.9212690637069
 30
0.0
 11
41.25191166056413
 21
182.149934382052
 31
0.0
  0
LINE
  5
7F8
330
1F
100
AcDbEntity
  8
寸法線
 62
     8
100
AcDbLine
 10
119.1603063777426
 20
161.9689807045707
 30
0.0
 11
40.73545535504184
 21
148.0363198623273
 31
0.0
  0
LINE
  5
7F9
330
1F
100
AcDbEntity
  8
寸法線
 62
     8
100
AcDbLine
 10
119.1603063777462
 20
158.2985090201711
 30
0.0
 11
40.73545535504184
 21
144.3658481779272
 31
0.0
  0
LINE
  5
7FA
330
1F
100
AcDbEntity
  8
寸法線
 62
     8
100
AcDbLine
 10
104.2285640944525
 20
189.8757642064753
 30
0.0
 11
53.0943115480901
 21
180.7914473240131
 31
0.0
  0
LINE
  5
7FB
330
1F
100
AcDbEntity
  8
寸法線
 62
     8
100
AcDbLine
 10
104.2285640944525
 20
173.9861119723488
 30
0.0
 11
53.0943115480901
 21
164.901795089887
 31
0.0
  0
LINE
  5
7FC
330
1F
100
AcDbEntity
  8
寸法線
 62
     8
100
AcDbLine
 10
104.2285640944525
 20
185.3135956276525
 30
0.0
 11
53.0943115480901
 21
176.2292787451903
 31
0.0
  0
LINE
  5
7FD
330
1F
100
AcDbEntity
  8
寸法線
 62
     8
100
AcDbLine
 10
40.73545535504184
 20
144.3658481779272
 30
0.0
 11
97.41593850814627
 21
111.535093602488
 31
0.0
  0
LINE
  5
7FE
330
1F
100
AcDbEntity
  8
寸法線
 62
     8
100
AcDbLine
 10
97.41593850814627
 20
111.535093602488
 30
0.0
 11
164.9384633306678
 21
122.5389036192042
 31
0.0
  0
LINE
  5
7FF
330
1F
100
AcDbEntity
  8
寸法線
 62
     8
100
AcDbLine
 10
118.7686820048208
 20
195.9212690637069
 30
0.0
 11
164.5554973238274
 21
157.0062159565583
 31
0.0
  0
LINE
  5
800
330
1F
100
AcDbEntity
  8
寸法線
 62
     8
100
AcDbLine
 10
159.9463514555379
 20
152.0786494039313
 30
0.0
 11
161.0742112775976
 21
151.1951494039314
 31
0.0
  0
LINE
  5
801
330
1F
100
AcDbEntity
  8
実線
 62
     8
100
AcDbLine
 10
159.534989388742
 20
151.1951494039305
 30
0.0
 11
161.3874893887429
 21
151.1951494039314
 31
0.0
  0
LINE
  5
802
330
1F
100
AcDbEntity
  8
姿図
 62
     8
 48
2.0
100
AcDbLine
 10
154.8552373933513
 20
150.3401468425733
 30
0.0
 11
165.4004141283827
 21
150.3401468425733
 31
0.0
  0
LINE
  5
803
330
1F
100
AcDbEntity
  8
実線
 62
     8
100
AcDbLine
 10
155.0462393887416
 20
150.3401494039318
 30
0.0
 11
167.8712393887423
 21
150.3401494039318
 31
0.0
  0
ARC
  5
804
330
1F
100
AcDbEntity
  8
実線
 62
     8
100
AcDbCircle
 10
161.9167424549329
 20
143.533195600574
 30
0.0
 40
1.425
100
AcDbArc
 50
90.0
 51
180.0
  0
LINE
  5
805
330
1F
100
AcDbEntity
  8
寸法線
 62
     8
100
AcDbLine
 10
119.1603063777462
 20
158.2985090201711
 30
0.0
 11
164.9384633306678
 21
122.591480902916
 31
0.0
  0
LINE
  5
806
330
1F
100
AcDbEntity
  8
寸法線
 62
     8
100
AcDbLine
 10
135.8497420208683
 20
148.9992731458757
 30
0.0
 11
152.7662393887427
 21
135.8531111982662
 31
0.0
  0
ENDSEC
  0
SECTION
  2
OBJECTS
  0
DICTIONARY
  5
C
330
0
100
AcDbDictionary
281
     1
  3
ACAD_DETAILVIEWSTYLE
350
639
  3
ACAD_GROUP
350
D
  3
ACAD_IMAGE_VARS
350
633
  3
ACAD_LAYOUT
350
1A
  3
ACAD_MLINESTYLE
350
17
  3
ACAD_PLOTSETTINGS
350
19
  3
ACAD_PLOTSTYLENAME
350
E
  3
ACAD_SCALELIST
350
47
  3
ACAD_SECTIONVIEWSTYLE
350
63A
  3
AcDbVariableDictionary
350
634
  3
APPDATA
350
631
  3
DWGPROPS
350
82C
  0
DICTIONARY
  5
66F
330
2
100
AcDbDictionary
280
     1
281
     1
  3
ACAD_LAYERSTATES
360
670
  0
DICTIONARY
  5
639
102
{ACAD_REACTORS
330
C
102
}
330
C
100
AcDbDictionary
281
     1
  0
DICTIONARY
  5
D
102
{ACAD_REACTORS
330
C
102
}
330
C
100
AcDbDictionary
281
     1
  0
RASTERVARIABLES
  5
633
102
{ACAD_REACTORS
330
C
102
}
330
C
100
AcDbRasterVariables
 90
        0
 70
     1
 71
     1
 72
     1
  0
DICTIONARY
  5
1A
102
{ACAD_REACTORS
330
C
102
}
330
C
100
AcDbDictionary
281
     1
  3
Layout1
350
1E
  3
Layout2
350
26
  3
Model
350
22
  0
DICTIONARY
  5
17
102
{ACAD_REACTORS
330
C
102
}
330
C
100
AcDbDictionary
281
     1
  3
Standard
350
18
  0
DICTIONARY
  5
19
102
{ACAD_REACTORS
330
C
102
}
330
C
100
AcDbDictionary
281
     1
  0
ACDBDICTIONARYWDFLT
  5
E
102
{ACAD_REACTORS
330
C
102
}
330
C
100
AcDbDictionary
281
     1
  3
Normal
350
F
100
AcDbDictionaryWithDefault
340
F
  0
DICTIONARY
  5
47
102
{ACAD_REACTORS
330
C
102
}
330
C
100
AcDbDictionary
281
     1
  3
A0
350
48
  3
A1
350
49
  3
A2
350
4A
  3
A3
350
4B
  3
A4
350
4C
  3
A5
350
4D
  3
A6
350
4E
  3
A7
350
4F
  3
A8
350
50
  3
A9
350
51
  3
B0
350
52
  3
B1
350
53
  3
B2
350
54
  3
B3
350
55
  3
B4
350
56
  3
B5
350
57
  3
B6
350
58
  3
B7
350
59
  3
B8
350
5A
  3
B9
350
5B
  3
C0
350
5C
  3
C1
350
5D
  3
C2
350
5E
  3
C3
350
5F
  3
C4
350
60
  3
C5
350
61
  3
C6
350
62
  3
C7
350
63
  3
C8
350
64
  3
C9
350
65
  3
D0
350
66
  3
D1
350
67
  3
D2
350
68
  0
DICTIONARY
  5
63A
102
{ACAD_REACTORS
330
C
102
}
330
C
100
AcDbDictionary
281
     1
  0
DICTIONARY
  5
634
102
{ACAD_REACTORS
330
C
102
}
330
C
100
AcDbDictionary
281
     1
  0
DICTIONARY
  5
631
102
{ACAD_REACTORS
330
C
102
}
330
C
100
AcDbDictionary
281
     1
  0
XRECORD
  5
82C
102
{ACAD_REACTORS
330
C
102
}
330
C
100
AcDbXrecord
280
     1
  1
DWGPROPS COOKIE
  2

  3

  4

  6

  7

  8
ModuleX
  9

300
=
301
=
302
=
303
=
304
=
305
=
306
=
307
=
308
=
309
=
 40
0.0
 41
2458025.526670451
 42
2458214.278803935
  1

 90
        0
  0
DICTIONARY
  5
670
102
{ACAD_REACTORS
330
66F
102
}
330
66F
100
AcDbDictionary
281
     1
  0
LAYOUT
  5
1E
102
{ACAD_REACTORS
330
1A
102
}
330
1A
100
AcDbPlotSettings
  1

  2
none_device
  4

  6

 40
0.0
 41
0.0
 42
0.0
 43
0.0
 44
0.0
 45
0.0
 46
0.0
 47
0.0
 48
0.0
 49
0.0
140
0.0
141
0.0
142
1.0
143
1.0
 70
   688
 72
     1
 73
     0
 74
     5
  7

 75
    16
147
1.0
148
0.0
149
0.0
100
AcDbLayout
  1
Layout1
 70
     1
 71
     1
 10
0.0
 20
0.0
 11
420.0
 21
297.0
 12
0.0
 22
0.0
 32
0.0
 14
1.000000000000000E+20
 24
1.000000000000000E+20
 34
1.000000000000000E+20
 15
-1.000000000000000E+20
 25
-1.000000000000000E+20
 35
-1.000000000000000E+20
146
0.0
 13
0.0
 23
0.0
 33
0.0
 16
1.0
 26
0.0
 36
0.0
 17
0.0
 27
1.0
 37
0.0
 76
     0
330
1B
  0
LAYOUT
  5
26
102
{ACAD_REACTORS
330
1A
102
}
330
1A
100
AcDbPlotSettings
  1

  2
none_device
  4

  6

 40
0.0
 41
0.0
 42
0.0
 43
0.0
 44
0.0
 45
0.0
 46
0.0
 47
0.0
 48
0.0
 49
0.0
140
0.0
141
0.0
142
1.0
143
1.0
 70
   688
 72
     1
 73
     0
 74
     5
  7

 75
    16
147
1.0
148
0.0
149
0.0
100
AcDbLayout
  1
Layout2
 70
     1
 71
     2
 10
0.0
 20
0.0
 11
0.0
 21
0.0
 12
0.0
 22
0.0
 32
0.0
 14
0.0
 24
0.0
 34
0.0
 15
0.0
 25
0.0
 35
0.0
146
0.0
 13
0.0
 23
0.0
 33
0.0
 16
1.0
 26
0.0
 36
0.0
 17
0.0
 27
1.0
 37
0.0
 76
     0
330
23
  0
LAYOUT
  5
22
102
{ACAD_REACTORS
330
1A
102
}
330
1A
100
AcDbPlotSettings
  1

  2
none_device
  4
Letter_(8.50_x_11.00_Inches)
  6

 40
6.35
 41
6.35
 42
6.35000508
 43
6.35000508
 44
215.9
 45
279.4
 46
0.0
 47
0.0
 48
0.0
 49
0.0
140
0.0
141
0.0
142
1.0
143
1.0
 70
  1712
 72
     1
 73
     0
 74
     0
  7

 75
     0
147
1.0
148
0.0
149
0.0
100
AcDbLayout
  1
Model
 70
     1
 71
     0
 10
0.0
 20
0.0
 11
210.0
 21
297.0
 12
0.0
 22
0.0
 32
0.0
 14
40.73545535504184
 24
88.62859459459463
 34
0.0
 15
174.7417424549336
 25
195.9212690637069
 35
0.0
146
0.0
 13
0.0
 23
0.0
 33
0.0
 16
1.0
 26
0.0
 36
0.0
 17
0.0
 27
1.0
 37
0.0
 76
     0
330
1F
331
29
  0
MLINESTYLE
  5
18
102
{ACAD_REACTORS
330
17
102
}
330
17
100
AcDbMlineStyle
  2
Standard
 70
     0
  3

 62
   256
 51
90.0
 52
90.0
 71
     2
 49
0.5
 62
   256
  6
BYLAYER
 49
-0.5
 62
   256
  6
BYLAYER
  0
ACDBPLACEHOLDER
  5
F
102
{ACAD_REACTORS
330
E
102
}
330
E
  0
SCALE
  5
48
102
{ACAD_REACTORS
330
47
102
}
330
47
100
AcDbScale
 70
     0
300
1:1
140
1.0
141
1.0
290
     1
  0
SCALE
  5
49
102
{ACAD_REACTORS
330
47
102
}
330
47
100
AcDbScale
 70
     0
300
1:2
140
1.0
141
2.0
290
     0
  0
SCALE
  5
4A
102
{ACAD_REACTORS
330
47
102
}
330
47
100
AcDbScale
 70
     0
300
1:4
140
1.0
141
4.0
290
     0
  0
SCALE
  5
4B
102
{ACAD_REACTORS
330
47
102
}
330
47
100
AcDbScale
 70
     0
300
1:5
140
1.0
141
5.0
290
     0
  0
SCALE
  5
4C
102
{ACAD_REACTORS
330
47
102
}
330
47
100
AcDbScale
 70
     0
300
1:8
140
1.0
141
8.0
290
     0
  0
SCALE
  5
4D
102
{ACAD_REACTORS
330
47
102
}
330
47
100
AcDbScale
 70
     0
300
1:10
140
1.0
141
10.0
290
     0
  0
SCALE
  5
4E
102
{ACAD_REACTORS
330
47
102
}
330
47
100
AcDbScale
 70
     0
300
1:16
140
1.0
141
16.0
290
     0
  0
SCALE
  5
4F
102
{ACAD_REACTORS
330
47
102
}
330
47
100
AcDbScale
 70
     0
300
1:20
140
1.0
141
20.0
290
     0
  0
SCALE
  5
50
102
{ACAD_REACTORS
330
47
102
}
330
47
100
AcDbScale
 70
     0
300
1:30
140
1.0
141
30.0
290
     0
  0
SCALE
  5
51
102
{ACAD_REACTORS
330
47
102
}
330
47
100
AcDbScale
 70
     0
300
1:40
140
1.0
141
40.0
290
     0
  0
SCALE
  5
52
102
{ACAD_REACTORS
330
47
102
}
330
47
100
AcDbScale
 70
     0
300
1:50
140
1.0
141
50.0
290
     0
  0
SCALE
  5
53
102
{ACAD_REACTORS
330
47
102
}
330
47
100
AcDbScale
 70
     0
300
1:100
140
1.0
141
100.0
290
     0
  0
SCALE
  5
54
102
{ACAD_REACTORS
330
47
102
}
330
47
100
AcDbScale
 70
     0
300
2:1
140
2.0
141
1.0
290
     0
  0
SCALE
  5
55
102
{ACAD_REACTORS
330
47
102
}
330
47
100
AcDbScale
 70
     0
300
4:1
140
4.0
141
1.0
290
     0
  0
SCALE
  5
56
102
{ACAD_REACTORS
330
47
102
}
330
47
100
AcDbScale
 70
     0
300
8:1
140
8.0
141
1.0
290
     0
  0
SCALE
  5
57
102
{ACAD_REACTORS
330
47
102
}
330
47
100
AcDbScale
 70
     0
300
10:1
140
10.0
141
1.0
290
     0
  0
SCALE
  5
58
102
{ACAD_REACTORS
330
47
102
}
330
47
100
AcDbScale
 70
     0
300
100:1
140
100.0
141
1.0
290
     0
  0
SCALE
  5
59
102
{ACAD_REACTORS
330
47
102
}
330
47
100
AcDbScale
 70
     0
300
1/128" = 1'-0"
140
0.0078125
141
12.0
290
     0
  0
SCALE
  5
5A
102
{ACAD_REACTORS
330
47
102
}
330
47
100
AcDbScale
 70
     0
300
1/64" = 1'-0"
140
0.015625
141
12.0
290
     0
  0
SCALE
  5
5B
102
{ACAD_REACTORS
330
47
102
}
330
47
100
AcDbScale
 70
     0
300
1/32" = 1'-0"
140
0.03125
141
12.0
290
     0
  0
SCALE
  5
5C
102
{ACAD_REACTORS
330
47
102
}
330
47
100
AcDbScale
 70
     0
300
1/16" = 1'-0"
140
0.0625
141
12.0
290
     0
  0
SCALE
  5
5D
102
{ACAD_REACTORS
330
47
102
}
330
47
100
AcDbScale
 70
     0
300
3/32" = 1'-0"
140
0.09375
141
12.0
290
     0
  0
SCALE
  5
5E
102
{ACAD_REACTORS
330
47
102
}
330
47
100
AcDbScale
 70
     0
300
1/8" = 1'-0"
140
0.125
141
12.0
290
     0
  0
SCALE
  5
5F
102
{ACAD_REACTORS
330
47
102
}
330
47
100
AcDbScale
 70
     0
300
3/16" = 1'-0"
140
0.1875
141
12.0
290
     0
  0
SCALE
  5
60
102
{ACAD_REACTORS
330
47
102
}
330
47
100
AcDbScale
 70
     0
300
1/4" = 1'-0"
140
0.25
141
12.0
290
     0
  0
SCALE
  5
61
102
{ACAD_REACTORS
330
47
102
}
330
47
100
AcDbScale
 70
     0
300
3/8" = 1'-0"
140
0.375
141
12.0
290
     0
  0
SCALE
  5
62
102
{ACAD_REACTORS
330
47
102
}
330
47
100
AcDbScale
 70
     0
300
1/2" = 1'-0"
140
0.5
141
12.0
290
     0
  0
SCALE
  5
63
102
{ACAD_REACTORS
330
47
102
}
330
47
100
AcDbScale
 70
     0
300
3/4" = 1'-0"
140
0.75
141
12.0
290
     0
  0
SCALE
  5
64
102
{ACAD_REACTORS
330
47
102
}
330
47
100
AcDbScale
 70
     0
300
1" = 1'-0"
140
1.0
141
12.0
290
     0
  0
SCALE
  5
65
102
{ACAD_REACTORS
330
47
102
}
330
47
100
AcDbScale
 70
     0
300
1-1/2" = 1'-0"
140
1.5
141
12.0
290
     0
  0
SCALE
  5
66
102
{ACAD_REACTORS
330
47
102
}
330
47
100
AcDbScale
 70
     0
300
3" = 1'-0"
140
3.0
141
12.0
290
     0
  0
SCALE
  5
67
102
{ACAD_REACTORS
330
47
102
}
330
47
100
AcDbScale
 70
     0
300
6" = 1'-0"
140
6.0
141
12.0
290
     0
  0
SCALE
  5
68
102
{ACAD_REACTORS
330
47
102
}
330
47
100
AcDbScale
 70
     0
300
1'-0" = 1'-0"
140
12.0
141
12.0
290
     0
  0
ENDSEC
  0
EOF
