  0
SECTION
  2
HEADER
  9
$ACADVER
  1
AC1015
  9
$ACADMAINTVER
 70
     6
  9
$DWGCODEPAGE
  3
ANSI_932
  9
$INSBASE
 10
0.0
 20
0.0
 30
0.0
  9
$EXTMIN
 10
365.1889083628785
 20
256.1935185185186
 30
0.0
  9
$EXTMAX
 10
595.1157694275003
 20
460.3029353636604
 30
0.0
  9
$LIMMIN
 10
0.0
 20
0.0
  9
$LIMMAX
 10
1189.0
 20
841.0
  9
$ORTHOMODE
 70
     0
  9
$REGENMODE
 70
     1
  9
$FILLMODE
 70
     1
  9
$QTEXTMODE
 70
     0
  9
$MIRRTEXT
 70
     1
  9
$LTSCALE
 40
1.0
  9
$ATTMODE
 70
     1
  9
$TEXTSIZE
 40
3.5
  9
$TRACEWID
 40
1.0
  9
$TEXTSTYLE
  7
Standard
  9
$CLAYER
  8
0
  9
$CELTYPE
  6
ByLayer
  9
$CECOLOR
 62
   256
  9
$CELTSCALE
 40
1.0
  9
$DISPSILH
 70
     0
  9
$DIMSCALE
 40
1.0
  9
$DIMASZ
 40
3.302
  9
$DIMEXO
 40
1.0
  9
$DIMDLI
 40
3.75
  9
$DIMRND
 40
0.0
  9
$DIMDLE
 40
0.0
  9
$DIMEXE
 40
1.0
  9
$DIMTP
 40
0.0
  9
$DIMTM
 40
0.0
  9
$DIMTXT
 40
3.5
  9
$DIMCEN
 40
2.5
  9
$DIMTSZ
 40
0.0
  9
$DIMTOL
 70
     0
  9
$DIMLIM
 70
     0
  9
$DIMTIH
 70
     1
  9
$DIMTOH
 70
     1
  9
$DIMSE1
 70
     0
  9
$DIMSE2
 70
     0
  9
$DIMTAD
 70
     1
  9
$DIMZIN
 70
     0
  9
$DIMBLK
  1

  9
$DIMASO
 70
     1
  9
$DIMSHO
 70
     1
  9
$DIMPOST
  1

  9
$DIMAPOST
  1

  9
$DIMALT
 70
     0
  9
$DIMALTD
 70
     3
  9
$DIMALTF
 40
0.0393700787401575
  9
$DIMLFAC
 40
1.0
  9
$DIMTOFL
 70
     1
  9
$DIMTVP
 40
0.0
  9
$DIMTIX
 70
     0
  9
$DIMSOXD
 70
     0
  9
$DIMSAH
 70
     0
  9
$DIMBLK1
  1

  9
$DIMBLK2
  1

  9
$DIMSTYLE
  2
ISO-25
  9
$DIMCLRD
 70
     0
  9
$DIMCLRE
 70
     0
  9
$DIMCLRT
 70
     0
  9
$DIMTFAC
 40
1.0
  9
$DIMGAP
 40
1.524
  9
$DIMJUST
 70
     0
  9
$DIMSD1
 70
     0
  9
$DIMSD2
 70
     0
  9
$DIMTOLJ
 70
     0
  9
$DIMTZIN
 70
     0
  9
$DIMALTZ
 70
     0
  9
$DIMALTTZ
 70
     0
  9
$DIMUPT
 70
     0
  9
$DIMDEC
 70
     2
  9
$DIMTDEC
 70
     2
  9
$DIMALTU
 70
     2
  9
$DIMALTTD
 70
     3
  9
$DIMTXSTY
  7
Standard
  9
$DIMAUNIT
 70
     0
  9
$DIMADEC
 70
     2
  9
$DIMALTRND
 40
0.0
  9
$DIMAZIN
 70
     0
  9
$DIMDSEP
 70
    44
  9
$DIMATFIT
 70
     3
  9
$DIMFRAC
 70
     0
  9
$DIMLDRBLK
  1

  9
$DIMLUNIT
 70
     2
  9
$DIMLWD
 70
    -2
  9
$DIMLWE
 70
    -2
  9
$DIMTMOVE
 70
     0
  9
$LUNITS
 70
     2
  9
$LUPREC
 70
     2
  9
$SKETCHINC
 40
1.0
  9
$FILLETRAD
 40
10.0
  9
$AUNITS
 70
     0
  9
$AUPREC
 70
     2
  9
$MENU
  1
.
  9
$ELEVATION
 40
0.0
  9
$PELEVATION
 40
0.0
  9
$THICKNESS
 40
0.0
  9
$LIMCHECK
 70
     0
  9
$CHAMFERA
 40
0.0
  9
$CHAMFERB
 40
0.0
  9
$CHAMFERC
 40
0.0
  9
$CHAMFERD
 40
0.0
  9
$SKPOLY
 70
     0
  9
$TDCREATE
 40
2458687.453849086
  9
$TDUCREATE
 40
2458687.078849086
  9
$TDUPDATE
 40
2459611.662306134
  9
$TDUUPDATE
 40
2459611.287306134
  9
$TDINDWG
 40
0.0014503935
  9
$TDUSRTIMER
 40
0.000718831
  9
$USRTIMER
 70
     1
  9
$ANGBASE
 50
0.0
  9
$ANGDIR
 70
     0
  9
$PDMODE
 70
     0
  9
$PDSIZE
 40
-1.0
  9
$PLINEWID
 40
0.0
  9
$SPLFRAME
 70
     0
  9
$SPLINETYPE
 70
     6
  9
$SPLINESEGS
 70
     8
  9
$HANDSEED
  5
5BE
  9
$SURFTAB1
 70
     6
  9
$SURFTAB2
 70
     6
  9
$SURFTYPE
 70
     6
  9
$SURFU
 70
     6
  9
$SURFV
 70
     6
  9
$UCSBASE
  2

  9
$UCSNAME
  2

  9
$UCSORG
 10
0.0
 20
0.0
 30
0.0
  9
$UCSXDIR
 10
1.0
 20
0.0
 30
0.0
  9
$UCSYDIR
 10
0.0
 20
1.0
 30
0.0
  9
$UCSORTHOREF
  2

  9
$UCSORTHOVIEW
 70
     1
  9
$UCSORGTOP
 10
0.0
 20
0.0
 30
0.0
  9
$UCSORGBOTTOM
 10
0.0
 20
0.0
 30
0.0
  9
$UCSORGLEFT
 10
0.0
 20
0.0
 30
0.0
  9
$UCSORGRIGHT
 10
0.0
 20
0.0
 30
0.0
  9
$UCSORGFRONT
 10
0.0
 20
0.0
 30
0.0
  9
$UCSORGBACK
 10
0.0
 20
0.0
 30
0.0
  9
$PUCSBASE
  2

  9
$PUCSNAME
  2

  9
$PUCSORG
 10
0.0
 20
0.0
 30
0.0
  9
$PUCSXDIR
 10
1.0
 20
0.0
 30
0.0
  9
$PUCSYDIR
 10
0.0
 20
1.0
 30
0.0
  9
$PUCSORTHOREF
  2

  9
$PUCSORTHOVIEW
 70
     0
  9
$PUCSORGTOP
 10
0.0
 20
0.0
 30
0.0
  9
$PUCSORGBOTTOM
 10
0.0
 20
0.0
 30
0.0
  9
$PUCSORGLEFT
 10
0.0
 20
0.0
 30
0.0
  9
$PUCSORGRIGHT
 10
0.0
 20
0.0
 30
0.0
  9
$PUCSORGFRONT
 10
0.0
 20
0.0
 30
0.0
  9
$PUCSORGBACK
 10
0.0
 20
0.0
 30
0.0
  9
$USERI1
 70
     0
  9
$USERI2
 70
     0
  9
$USERI3
 70
     0
  9
$USERI4
 70
     0
  9
$USERI5
 70
     0
  9
$USERR1
 40
0.0
  9
$USERR2
 40
0.0
  9
$USERR3
 40
0.0
  9
$USERR4
 40
0.0
  9
$USERR5
 40
0.0
  9
$WORLDVIEW
 70
     1
  9
$SHADEDGE
 70
     3
  9
$SHADEDIF
 70
    70
  9
$TILEMODE
 70
     1
  9
$MAXACTVP
 70
    64
  9
$PINSBASE
 10
0.0
 20
0.0
 30
0.0
  9
$PLIMCHECK
 70
     0
  9
$PEXTMIN
 10
1.000000000000000E+20
 20
1.000000000000000E+20
 30
1.000000000000000E+20
  9
$PEXTMAX
 10
-1.000000000000000E+20
 20
-1.000000000000000E+20
 30
-1.000000000000000E+20
  9
$PLIMMIN
 10
0.0
 20
0.0
  9
$PLIMMAX
 10
0.0
 20
0.0
  9
$UNITMODE
 70
     0
  9
$VISRETAIN
 70
     1
  9
$PLINEGEN
 70
     0
  9
$PSLTSCALE
 70
     1
  9
$TREEDEPTH
 70
  3020
  9
$CMLSTYLE
  2
Standard
  9
$CMLJUST
 70
     0
  9
$CMLSCALE
 40
20.0
  9
$PROXYGRAPHICS
 70
     1
  9
$MEASUREMENT
 70
     1
  9
$CELWEIGHT
370
    -1
  9
$ENDCAPS
280
     0
  9
$JOINSTYLE
280
     0
  9
$LWDISPLAY
290
     1
  9
$INSUNITS
 70
     4
  9
$HYPERLINKBASE
  1

  9
$STYLESHEET
  1

  9
$XEDIT
290
     1
  9
$CEPSNTYPE
380
     0
  9
$PSTYLEMODE
290
     1
  9
$FINGERPRINTGUID
  2
{5A54540F-9E90-4C4F-B401-B83331D554B4}
  9
$VERSIONGUID
  2
{FAEB1C32-E019-11D5-929B-00C0DF256EC4}
  9
$EXTNAMES
290
     1
  9
$PSVPSCALE
 40
0.0
  9
$OLESTARTUP
290
     0
  0
ENDSEC
  0
SECTION
  2
CLASSES
  0
CLASS
  1
ACDBDICTIONARYWDFLT
  2
AcDbDictionaryWithDefault
  3
ObjectDBX Classes
 90
        0
280
     0
281
     0
  0
CLASS
  1
VISUALSTYLE
  2
AcDbVisualStyle
  3
ObjectDBX Classes
 90
     4095
280
     0
281
     0
  0
CLASS
  1
MATERIAL
  2
AcDbMaterial
  3
ObjectDBX Classes
 90
     1153
280
     0
281
     0
  0
CLASS
  1
SCALE
  2
AcDbScale
  3
ObjectDBX Classes
 90
     1153
280
     0
281
     0
  0
CLASS
  1
TABLESTYLE
  2
AcDbTableStyle
  3
ObjectDBX Classes
 90
     4095
280
     0
281
     0
  0
CLASS
  1
MLEADERSTYLE
  2
AcDbMLeaderStyle
  3
ACDB_MLEADERSTYLE_CLASS
 90
     4095
280
     0
281
     0
  0
CLASS
  1
SUN
  2
AcDbSun
  3
SCENEOE
 90
     1153
280
     0
281
     0
  0
CLASS
  1
ACDBPLACEHOLDER
  2
AcDbPlaceHolder
  3
ObjectDBX Classes
 90
        0
280
     0
281
     0
  0
CLASS
  1
LAYOUT
  2
AcDbLayout
  3
ObjectDBX Classes
 90
        0
280
     0
281
     0
  0
CLASS
  1
DICTIONARYVAR
  2
AcDbDictionaryVar
  3
ObjectDBX Classes
 90
        0
280
     0
281
     0
  0
ENDSEC
  0
SECTION
  2
TABLES
  0
TABLE
  2
VPORT
  5
8
330
0
100
AcDbSymbolTable
 70
     1
  0
VPORT
  5
29
330
8
100
AcDbSymbolTableRecord
100
AcDbViewportTableRecord
  2
*Active
 70
     0
 10
0.0
 20
0.0
 11
1.0
 21
1.0
 12
480.152338895187
 22
358.2482269410895
 13
0.0
 23
0.0
 14
10.0
 24
10.0
 15
10.0
 25
10.0
 16
0.0
 26
0.0
 36
1.0
 17
0.0
 27
0.0
 37
0.0
 40
208.1916051820446
 41
1.972805933250927
 42
50.0
 43
0.0
 44
0.0
 50
0.0
 51
0.0
 71
    16
 72
  2000
 73
     1
 74
     3
 75
     0
 76
     0
 77
     0
 78
     0
281
     0
 65
     1
110
0.0
120
0.0
130
0.0
111
1.0
121
0.0
131
0.0
112
0.0
122
1.0
132
0.0
 79
     1
146
0.0
  0
ENDTAB
  0
TABLE
  2
LTYPE
  5
5
330
0
100
AcDbSymbolTable
 70
     6
  0
LTYPE
  5
14
330
5
100
AcDbSymbolTableRecord
100
AcDbLinetypeTableRecord
  2
ByBlock
 70
     0
  3

 72
    65
 73
     0
 40
0.0
  0
LTYPE
  5
15
330
5
100
AcDbSymbolTableRecord
100
AcDbLinetypeTableRecord
  2
ByLayer
 70
     0
  3

 72
    65
 73
     0
 40
0.0
  0
LTYPE
  5
16
330
5
100
AcDbSymbolTableRecord
100
AcDbLinetypeTableRecord
  2
Continuous
 70
     0
  3
Solid line
 72
    65
 73
     0
 40
0.0
  0
LTYPE
  5
6E
330
5
100
AcDbSymbolTableRecord
100
AcDbLinetypeTableRecord
  2
HIDDEN
 70
     0
  3
Hidden __ __ __ __ __ __ __ __ __ __ __ __ __ __
 72
    65
 73
     2
 40
1.905
 49
1.27
 74
     0
 49
-0.635
 74
     0
  0
LTYPE
  5
6F
330
5
100
AcDbSymbolTableRecord
100
AcDbLinetypeTableRecord
  2
PHANTOM
 70
     0
  3
Phantom ______  __  __  ______  __  __  ______
 72
    65
 73
     6
 40
12.7
 49
6.35
 74
     0
 49
-1.27
 74
     0
 49
1.27
 74
     0
 49
-1.27
 74
     0
 49
1.27
 74
     0
 49
-1.27
 74
     0
  0
LTYPE
  5
70
330
5
100
AcDbSymbolTableRecord
100
AcDbLinetypeTableRecord
  2
CENTER
 70
     0
  3
Center ____ _ ____ _ ____ _ ____ _ ____ _ ____
 72
    65
 73
     4
 40
10.16
 49
6.35
 74
     0
 49
-1.27
 74
     0
 49
1.27
 74
     0
 49
-1.27
 74
     0
  0
LTYPE
  5
71
330
5
100
AcDbSymbolTableRecord
100
AcDbLinetypeTableRecord
  2
CENTERX2
 70
     0
  3
Center (2x) ________  __  ________  __  _____
 72
    65
 73
     4
 40
20.32
 49
12.7
 74
     0
 49
-2.54
 74
     0
 49
2.54
 74
     0
 49
-2.54
 74
     0
  0
LTYPE
  5
72
330
5
100
AcDbSymbolTableRecord
100
AcDbLinetypeTableRecord
  2
DOT2
 70
     0
  3
Dot (.5x) ........................................
 72
    65
 73
     2
 40
0.635
 49
0.0
 74
     0
 49
-0.635
 74
     0
  0
ENDTAB
  0
TABLE
  2
LAYER
  5
2
102
{ACAD_XDICTIONARY
360
22F
102
}
330
0
100
AcDbSymbolTable
 70
     3
  0
LAYER
  5
10
330
2
100
AcDbSymbolTableRecord
100
AcDbLayerTableRecord
  2
0
 70
     0
 62
     7
  6
Continuous
370
    -3
390
F
  0
LAYER
  5
73
330
2
100
AcDbSymbolTableRecord
100
AcDbLayerTableRecord
  2
FORMAT
 70
     0
 62
     7
  6
Continuous
370
    -3
390
F
  0
LAYER
  5
21A
102
{ACAD_XDICTIONARY
360
21B
102
}
330
2
100
AcDbSymbolTableRecord
100
AcDbLayerTableRecord
  2
寸法線
 70
     0
 62
     7
  6
Continuous
370
    -3
390
F
  0
ENDTAB
  0
TABLE
  2
STYLE
  5
3
330
0
100
AcDbSymbolTable
 70
     3
  0
STYLE
  5
11
330
3
100
AcDbSymbolTableRecord
100
AcDbTextStyleTableRecord
  2
Standard
 70
     0
 40
0.0
 41
1.0
 50
0.0
 71
     0
 42
3.5
  3
txt
  4
bigfont
  0
STYLE
  5
E1
330
3
100
AcDbSymbolTableRecord
100
AcDbTextStyleTableRecord
  2
SLDTEXTSTYLE0
 70
     0
 40
0.0
 41
0.75
 50
0.0
 71
     0
 42
3.5
  3
TXT
  4
bigfont
  0
STYLE
  5
135
330
3
100
AcDbSymbolTableRecord
100
AcDbTextStyleTableRecord
  2
SLDTEXTSTYLE1
 70
     0
 40
0.0
 41
0.65625
 50
0.0
 71
     0
 42
3.5
  3
TXT
  4
bigfont
  0
ENDTAB
  0
TABLE
  2
VIEW
  5
6
330
0
100
AcDbSymbolTable
 70
     0
  0
ENDTAB
  0
TABLE
  2
UCS
  5
7
330
0
100
AcDbSymbolTable
 70
     0
  0
ENDTAB
  0
TABLE
  2
APPID
  5
9
330
0
100
AcDbSymbolTable
 70
     4
  0
APPID
  5
12
330
9
100
AcDbSymbolTableRecord
100
AcDbRegAppTableRecord
  2
ACAD
 70
     0
  0
APPID
  5
227
330
9
100
AcDbSymbolTableRecord
100
AcDbRegAppTableRecord
  2
ACAD_DSTYLE_DIMJAG
 70
     0
  0
APPID
  5
228
330
9
100
AcDbSymbolTableRecord
100
AcDbRegAppTableRecord
  2
ACAD_DSTYLE_DIMTALN
 70
     0
  0
APPID
  5
3C4
330
9
100
AcDbSymbolTableRecord
100
AcDbRegAppTableRecord
  2
PE_URL
 70
     0
  0
ENDTAB
  0
TABLE
  2
DIMSTYLE
  5
A
330
0
100
AcDbSymbolTable
 70
     6
100
AcDbDimStyleTable
  0
DIMSTYLE
105
27
330
A
100
AcDbSymbolTableRecord
100
AcDbDimStyleTableRecord
  2
ISO-25
 70
     0
 41
2.5
 42
0.625
 43
3.75
 44
1.25
 73
     0
 74
     0
 77
     1
 78
     8
140
2.5
141
2.5
143
0.03937007874016
147
0.625
171
     3
172
     1
178
     0
271
     2
272
     2
274
     3
278
    44
283
     0
284
     8
340
11
  0
DIMSTYLE
105
220
330
A
100
AcDbSymbolTableRecord
100
AcDbDimStyleTableRecord
  2
STANDARD
 70
     0
 41
2.5
 42
1.5
 43
7.0
 44
1.0
 73
     0
 74
     0
 77
     3
 78
     8
 79
     2
140
3.0
141
0.0
146
0.6
147
1.0
171
     0
172
     1
176
     8
177
     8
271
     3
178
   256
179
     3
271
     3
272
     3
274
     0
289
     0
340
11
341
221
342
221
1001
ACAD_DSTYLE_DIMJAG
1070
   388
1040
1.5
1001
ACAD_DSTYLE_DIMTALN
1070
   392
1070
     0
  0
DIMSTYLE
105
3B7
330
A
100
AcDbSymbolTableRecord
100
AcDbDimStyleTableRecord
  2
SLDDIMSTYLE1
 70
     0
 41
2.5
 44
0.0
 45
0.000000001
 47
0.4
 48
0.4
 71
     1
 73
     0
 74
     0
 77
     3
 78
    12
 79
     3
140
4.0
147
1.0
173
     1
178
     0
271
     1
272
     1
276
     2
284
     8
340
E1
341
221
343
221
344
221
  0
DIMSTYLE
105
3BF
330
A
100
AcDbSymbolTableRecord
100
AcDbDimStyleTableRecord
  2
SLDDIMSTYLE3
 70
     0
 41
2.5
 44
0.0
 45
0.000000001
146
2.5
147
0.0
173
     1
178
     0
271
     0
272
     0
276
     2
340
11
341
221
343
221
344
221
  0
DIMSTYLE
105
3C0
330
A
100
AcDbSymbolTableRecord
100
AcDbDimStyleTableRecord
  2
SLDDIMSTYLE4
 70
     0
 41
2.5
 44
0.0
 45
0.000000001
 47
2.0
 48
2.0
 71
     1
 73
     0
 74
     0
 77
     3
 78
    12
 79
     3
140
4.0
147
1.0
172
     1
173
     1
178
     0
271
     2
272
     2
276
     2
284
     8
289
     0
340
E1
341
221
343
221
344
221
  0
DIMSTYLE
105
3C1
330
A
100
AcDbSymbolTableRecord
100
AcDbDimStyleTableRecord
  2
STANDARD$2
 70
     0
 41
2.5
 42
1.5
 43
7.0
 44
1.0
 45
0.0
 73
     0
 74
     0
 77
     3
 78
     8
 79
     2
140
3.0
141
0.0
146
0.6
147
1.0
171
     0
172
     1
176
     8
177
     8
271
     3
178
   256
179
     3
271
     3
272
     3
274
     0
284
     8
285
     8
286
     8
289
     0
340
11
341
221
342
221
1001
ACAD_DSTYLE_DIMJAG
1070
   388
1040
1.5
1001
ACAD_DSTYLE_DIMTALN
1070
   392
1070
     0
  0
ENDTAB
  0
TABLE
  2
BLOCK_RECORD
  5
1
330
0
100
AcDbSymbolTable
 70
     4
  0
BLOCK_RECORD
  5
1F
330
1
100
AcDbSymbolTableRecord
100
AcDbBlockTableRecord
  2
*Model_Space
340
22
  0
BLOCK_RECORD
  5
1B
330
1
100
AcDbSymbolTableRecord
100
AcDbBlockTableRecord
  2
*Paper_Space
340
1E
  0
BLOCK_RECORD
  5
23
330
1
100
AcDbSymbolTableRecord
100
AcDbBlockTableRecord
  2
*Paper_Space0
340
26
  0
BLOCK_RECORD
  5
142
330
1
100
AcDbSymbolTableRecord
100
AcDbBlockTableRecord
  2
SW_NOTE_0
340
0
  0
BLOCK_RECORD
  5
221
330
1
100
AcDbSymbolTableRecord
100
AcDbBlockTableRecord
  2
_OPEN30
340
0
  0
BLOCK_RECORD
  5
507
330
1
100
AcDbSymbolTableRecord
100
AcDbBlockTableRecord
  2
A$C30509
340
0
102
{BLKREFS
331
5BC
102
}
  0
ENDTAB
  0
ENDSEC
  0
SECTION
  2
BLOCKS
  0
BLOCK
  5
20
330
1F
100
AcDbEntity
  8
0
100
AcDbBlockBegin
  2
*Model_Space
 70
     0
 10
0.0
 20
0.0
 30
0.0
  3
*Model_Space
  1

  0
ENDBLK
  5
21
330
1F
100
AcDbEntity
  8
0
100
AcDbBlockEnd
  0
BLOCK
  5
1C
330
1B
100
AcDbEntity
 67
     1
  8
0
100
AcDbBlockBegin
  2
*Paper_Space
 70
     0
 10
0.0
 20
0.0
 30
0.0
  3
*Paper_Space
  1

  0
ENDBLK
  5
1D
330
1B
100
AcDbEntity
 67
     1
  8
0
100
AcDbBlockEnd
  0
BLOCK
  5
24
330
23
100
AcDbEntity
  8
0
100
AcDbBlockBegin
  2
*Paper_Space0
 70
     0
 10
0.0
 20
0.0
 30
0.0
  3
*Paper_Space0
  1

  0
ENDBLK
  5
25
330
23
100
AcDbEntity
  8
0
100
AcDbBlockEnd
  0
BLOCK
  5
143
330
142
100
AcDbEntity
  8
0
100
AcDbBlockBegin
  2
SW_NOTE_0
 70
     0
 10
0.0
 20
0.0
 30
0.0
  3
SW_NOTE_0
  1

  0
MTEXT
  5
145
330
142
100
AcDbEntity
  8
0
  6
Continuous
 62
     0
370
     0
100
AcDbMText
 10
0.0
 20
1.933601609657942
 30
0.0
 40
1.5
 41
0.0
 71
     1
 72
     1
  1
指示なき場合：
  7
SLDTEXTSTYLE0
 73
     1
 44
1.0
  0
MTEXT
  5
146
330
142
100
AcDbEntity
  8
0
  6
Continuous
 62
     0
370
     0
100
AcDbMText
 10
0.0
 20
-0.5663983344627033
 30
0.0
 40
1.5
 41
0.0
 71
     1
 72
     1
  1
寸法はミリメータとする　
  7
SLDTEXTSTYLE0
 73
     1
 44
1.0
  0
MTEXT
  5
147
330
142
100
AcDbEntity
  8
0
  6
Continuous
 62
     0
370
     0
100
AcDbMText
 10
0.0
 20
-3.066398278583349
 30
0.0
 40
1.5
 41
0.0
 71
     1
 72
     1
  1
表面粗さ：
  7
SLDTEXTSTYLE0
 73
     1
 44
1.0
  0
MTEXT
  5
148
330
142
100
AcDbEntity
  8
0
  6
Continuous
 62
     0
370
     0
100
AcDbMText
 10
0.0
 20
-5.566398222703994
 30
0.0
 40
1.5
 41
0.0
 71
     1
 72
     1
  1
　公差　：
  7
SLDTEXTSTYLE0
 73
     1
 44
1.0
  0
MTEXT
  5
149
330
142
100
AcDbEntity
  8
0
  6
Continuous
 62
     0
370
     0
100
AcDbMText
 10
0.0
 20
-8.06639816682464
 30
0.0
 40
1.5
 41
0.0
 71
     1
 72
     1
  1
　寸法　：
  7
SLDTEXTSTYLE0
 73
     1
 44
1.0
  0
MTEXT
  5
14A
330
142
100
AcDbEntity
  8
0
  6
Continuous
 62
     0
370
     0
100
AcDbMText
 10
0.0
 20
-10.56639811094528
 30
0.0
 40
1.5
 41
0.0
 71
     1
 72
     1
  1
　角度　：
  7
SLDTEXTSTYLE0
 73
     1
 44
1.0
  0
ENDBLK
  5
144
330
142
100
AcDbEntity
  8
0
100
AcDbBlockEnd
  0
BLOCK
  5
222
330
221
100
AcDbEntity
  8
0
100
AcDbBlockBegin
  2
_OPEN30
 70
     0
 10
0.0
 20
0.0
 30
0.0
  3
_OPEN30
  1

  0
LINE
  5
223
330
221
100
AcDbEntity
  8
0
  6
ByBlock
 62
     0
100
AcDbLine
 10
-1.0
 20
0.26794919
 30
0.0
 11
0.0
 21
0.0
 31
0.0
  0
LINE
  5
224
330
221
100
AcDbEntity
  8
0
  6
ByBlock
 62
     0
100
AcDbLine
 10
0.0
 20
0.0
 30
0.0
 11
-1.0
 21
-0.26794919
 31
0.0
  0
LINE
  5
225
330
221
100
AcDbEntity
  8
0
  6
ByBlock
 62
     0
100
AcDbLine
 10
0.0
 20
0.0
 30
0.0
 11
-1.0
 21
0.0
 31
0.0
  0
ENDBLK
  5
226
330
221
100
AcDbEntity
  8
0
100
AcDbBlockEnd
  0
BLOCK
  5
5BA
330
507
100
AcDbEntity
  8
0
100
AcDbBlockBegin
  2
A$C30509
 70
     0
 10
0.0
 20
0.0
 30
0.0
  3
A$C30509
  1

  0
LINE
  5
51E
102
{ACAD_REACTORS
102
}
330
507
100
AcDbEntity
  8
0
  6
Continuous
 62
     7
370
     5
100
AcDbLine
 10
226.4729772637565
 20
11.11971513437675
 30
0.0
 11
227.5336374355302
 21
10.50740905051134
 31
0.0
1001
PE_URL
1000

  0
ARC
  5
51F
102
{ACAD_REACTORS
102
}
330
507
100
AcDbEntity
  8
0
  6
Continuous
 62
     7
370
     5
100
AcDbCircle
 10
229.7268610646261
 20
10.40510139778416
 30
0.0
 40
0.2000000000000069
100
AcDbArc
 50
299.9973117335443
 51
0.0
1001
PE_URL
1000

  0
LINE
  5
520
102
{ACAD_REACTORS
102
}
330
507
100
AcDbEntity
  8
0
  6
Continuous
 62
     7
370
     5
100
AcDbLine
 10
229.2000671147161
 20
9.870055871480872
 30
0.0
 11
229.8268529378893
 21
10.2318916253098
 31
0.0
1001
PE_URL
1000

  0
LINE
  5
521
102
{ACAD_REACTORS
102
}
330
507
100
AcDbEntity
  8
0
  6
Continuous
 62
     7
370
     5
100
AcDbLine
 10
229.9268610646232
 20
10.40510139778416
 30
0.0
 11
229.9268610646232
 21
41.10703592468781
 31
0.0
1001
PE_URL
1000

  0
LINE
  5
522
102
{ACAD_REACTORS
102
}
330
507
100
AcDbEntity
  8
0
  6
Continuous
 62
     7
370
     5
100
AcDbLine
 10
212.1491834082244
 20
0.0267902275263623
 30
0.0
 11
212.7761793843001
 21
0.3887473000395403
 31
0.0
1001
PE_URL
1000

  0
LINE
  5
523
102
{ACAD_REACTORS
102
}
330
507
100
AcDbEntity
  8
0
  6
Continuous
 62
     7
370
     5
100
AcDbLine
 10
211.1713822023939
 20
0.4758146890271746
 30
0.0
 11
211.949199661698
 21
0.0267902275263623
 31
0.0
1001
PE_URL
1000

  0
ARC
  5
524
102
{ACAD_REACTORS
102
}
330
507
100
AcDbEntity
  8
0
  6
Continuous
 62
     7
370
     5
100
AcDbCircle
 10
212.0491915349612
 20
0.2000000000007276
 30
0.0
 40
0.2000000000000138
100
AcDbArc
 50
240.0026882660044
 51
299.9973117335443
1001
PE_URL
1000

  0
LINE
  5
525
102
{ACAD_REACTORS
102
}
330
507
100
AcDbEntity
  8
0
  6
Continuous
 62
     7
370
     5
100
AcDbLine
 10
229.8268529378893
 20
41.28024569716581
 30
0.0
 11
229.0490354785779
 21
41.72927015866662
 31
0.0
1001
PE_URL
1000

  0
ARC
  5
526
102
{ACAD_REACTORS
102
}
330
507
100
AcDbEntity
  8
0
  6
Continuous
 62
     7
370
     5
100
AcDbCircle
 10
229.7268610646261
 20
41.10703592468781
 30
0.0
 40
0.1999999999999815
100
AcDbArc
 50
0.0
 51
60.00268826690699
1001
PE_URL
1000

  0
ARC
  5
527
102
{ACAD_REACTORS
102
}
330
507
100
AcDbEntity
  8
0
  6
Continuous
 62
     7
370
     5
100
AcDbCircle
 10
190.5059051876651
 20
17.01393472776908
 30
0.0
 40
26.6244182312684
100
AcDbArc
 50
322.7380655293279
 51
357.3882006134838
1001
PE_URL
1000

  0
LINE
  5
528
102
{ACAD_REACTORS
102
}
330
507
100
AcDbEntity
  8
0
  6
Continuous
 62
     7
370
     5
100
AcDbLine
 10
211.6956381443651
 20
0.8939203550362436
 30
0.0
 11
210.9885313631803
 21
0.4857162991247606
 31
0.0
1001
PE_URL
1000

  0
ARC
  5
529
102
{ACAD_REACTORS
102
}
330
507
100
AcDbEntity
  8
0
  6
Continuous
 62
     7
370
     5
100
AcDbCircle
 10
217.0251695810057
 20
15.80781989757452
 30
0.0
 40
0.0778234740465082
100
AcDbArc
 50
354.7465418365435
 51
50.55863089209048
1001
PE_URL
1000

  0
LINE
  5
52A
102
{ACAD_REACTORS
102
}
330
507
100
AcDbEntity
  8
0
  6
Continuous
 62
     7
370
     5
100
AcDbLine
 10
228.949043605322
 20
10.85409931927643
 30
0.0
 11
228.2419368241299
 21
10.44589526336131
 31
0.0
1001
PE_URL
1000

  0
LINE
  5
52B
102
{ACAD_REACTORS
102
}
330
507
100
AcDbEntity
  8
0
  6
Continuous
 62
     7
370
     5
100
AcDbLine
 10
228.949043605322
 20
41.88265017092999
 30
0.0
 11
228.949043605322
 21
10.85409931927643
 31
0.0
1001
PE_URL
1000

  0
LWPOLYLINE
  5
52C
102
{ACAD_REACTORS
102
}
330
507
100
AcDbEntity
  8
0
  6
Continuous
 62
     7
370
     5
100
AcDbPolyline
 90
        3
 70
   128
 43
0.0
 10
228.2419368241299
 20
10.44589526336131
 10
227.0568118899009
 20
10.82477575277153
 10
226.4729772637565
 20
11.11971513437675
1001
PE_URL
1000

  0
LINE
  5
52D
102
{ACAD_REACTORS
102
}
330
507
100
AcDbEntity
  8
0
  6
Continuous
 62
     7
370
     5
100
AcDbLine
 10
228.2419368241299
 20
10.44589526336131
 30
0.0
 11
228.8076222490836
 21
10.77245850809049
 31
0.0
1001
PE_URL
1000

  0
LWPOLYLINE
  5
52E
102
{ACAD_REACTORS
102
}
330
507
100
AcDbEntity
  8
0
  6
Continuous
 62
     7
370
     5
100
AcDbPolyline
 90
        3
 70
   128
 43
0.0
 10
228.2419368241299
 20
10.44589526336131
 10
227.1422547690509
 20
10.7882062375902
 10
226.4729772637565
 20
11.11971513437675
1001
PE_URL
1000

  0
ARC
  5
52F
102
{ACAD_REACTORS
102
}
330
507
100
AcDbEntity
  8
0
  6
Continuous
 62
     7
370
     5
100
AcDbCircle
 10
220.1337005655423
 20
14.44761559055405
 30
0.0
 40
3.08067958993718
100
AcDbArc
 50
144.6524010528069
 51
174.6606219889969
1001
PE_URL
1000

  0
ARC
  5
530
102
{ACAD_REACTORS
102
}
330
507
100
AcDbEntity
  8
0
  6
Continuous
 62
     7
370
     5
100
AcDbCircle
 10
189.8482612203934
 20
17.33403023703795
 30
0.0
 40
27.34200232957713
100
AcDbArc
 50
323.0386081356881
 51
354.5439394350135
1001
PE_URL
1000

  0
LINE
  5
531
102
{ACAD_REACTORS
102
}
330
507
100
AcDbEntity
  8
0
  6
Continuous
 62
     7
370
     5
100
AcDbLine
 10
211.1299527194187
 20
0.5673571103070572
 30
0.0
 11
211.6956381443651
 21
0.8939203550362436
 31
0.0
1001
PE_URL
1000

  0
ARC
  5
532
102
{ACAD_REACTORS
102
}
330
507
100
AcDbEntity
  8
0
  6
Continuous
 62
     7
370
     5
100
AcDbCircle
 10
229.0042500880718
 20
41.65168663675286
 30
0.0
 40
0.0873418394856921
100
AcDbArc
 50
350.7859630071586
 51
129.2032852356726
1001
PE_URL
1000

  0
LINE
  5
533
102
{ACAD_REACTORS
102
}
330
507
100
AcDbEntity
  8
0
  6
Continuous
 62
     7
370
     5
100
AcDbLine
 10
229.0904649615604
 20
10.93576667047091
 30
0.0
 11
229.0904649615604
 21
41.63770119737092
 31
0.0
1001
PE_URL
1000

  0
ARC
  5
534
102
{ACAD_REACTORS
102
}
330
507
100
AcDbEntity
  8
0
  6
Continuous
 62
     7
370
     5
100
AcDbCircle
 10
228.7834217412801
 20
10.94973884092178
 30
0.0
 40
0.3073609615145076
100
AcDbArc
 50
302.6054783407956
 51
357.394521514574
1001
PE_URL
1000

  0
LINE
  5
535
102
{ACAD_REACTORS
102
}
330
507
100
AcDbEntity
  8
0
  6
Continuous
 62
     7
370
     5
100
AcDbLine
 10
228.949043605322
 20
10.85409931927643
 30
0.0
 11
228.949043605322
 21
10.69081769691184
 31
0.0
1001
PE_URL
1000

  0
LINE
  5
536
102
{ACAD_REACTORS
102
}
330
507
100
AcDbEntity
  8
0
  6
Continuous
 62
     7
370
     5
100
AcDbLine
 10
229.0904649615604
 20
10.93576667047091
 30
0.0
 11
229.8682824208572
 21
10.48674220896646
 31
0.0
1001
PE_URL
1000

  0
ARC
  5
537
102
{ACAD_REACTORS
102
}
330
507
100
AcDbEntity
  8
0
  6
Continuous
 62
     7
370
     5
100
AcDbCircle
 10
229.5612392005914
 20
10.50071437941733
 30
0.0
 40
0.3073609615144102
100
AcDbArc
 50
302.6054783392876
 51
357.394521514574
1001
PE_URL
1000

  0
LINE
  5
538
102
{ACAD_REACTORS
102
}
330
507
100
AcDbEntity
  8
0
  6
Continuous
 62
     7
370
     5
100
AcDbLine
 10
229.7268610646261
 20
10.24179323540739
 30
0.0
 11
228.949043605322
 21
10.69081769691184
 31
0.0
1001
PE_URL
1000

  0
LINE
  5
539
102
{ACAD_REACTORS
102
}
330
507
100
AcDbEntity
  8
0
  6
Continuous
 62
     7
370
     5
100
AcDbLine
 10
228.949043605322
 20
10.69081769691184
 30
0.0
 11
228.8076222490836
 21
10.77245850809049
 31
0.0
1001
PE_URL
1000

  0
LINE
  5
53A
102
{ACAD_REACTORS
102
}
330
507
100
AcDbEntity
  8
0
  6
Continuous
 62
     7
370
     5
100
AcDbLine
 10
229.1611756396796
 20
9.915229990678199
 30
0.0
 11
229.7268610646261
 21
10.24179323540739
 31
0.0
1001
PE_URL
1000

  0
LINE
  5
53B
102
{ACAD_REACTORS
102
}
330
507
100
AcDbEntity
  8
0
  6
Continuous
 62
     7
370
     5
100
AcDbLine
 10
228.2419368241299
 20
10.44589526336131
 30
0.0
 11
229.1611756396796
 21
9.915229990678199
 31
0.0
1001
PE_URL
1000

  0
LINE
  5
53C
102
{ACAD_REACTORS
102
}
330
507
100
AcDbEntity
  8
0
  6
Continuous
 62
     7
370
     5
100
AcDbLine
 10
229.8682824208572
 20
41.1886767358701
 30
0.0
 11
229.0904649615604
 21
41.63770119737092
 31
0.0
1001
PE_URL
1000

  0
LINE
  5
53D
102
{ACAD_REACTORS
102
}
330
507
100
AcDbEntity
  8
0
  6
Continuous
 62
     7
370
     5
100
AcDbLine
 10
229.8682824208572
 20
10.48674220896646
 30
0.0
 11
229.8682824208572
 21
41.1886767358701
 31
0.0
1001
PE_URL
1000

  0
SPLINE
  5
53E
102
{ACAD_REACTORS
102
}
330
507
100
AcDbEntity
  8
0
  6
Continuous
 62
     7
370
     5
100
AcDbSpline
210
0.0
220
0.0
230
1.0
 70
     8
 71
     3
 72
    12
 73
     8
 74
     0
 42
0.000000001
 43
0.00000001
 40
0.0
 40
0.0
 40
0.0
 40
0.0
 40
0.1083575554968377
 40
0.2158039789773047
 40
0.3886590225097131
 40
0.6796131254043007
 40
1.0
 40
1.0
 40
1.0
 40
1.0
 10
229.1611756396796
 20
9.915229990678199
 30
0.0
 10
229.1712126368711
 20
9.90900307519405
 30
0.0
 10
229.1912022344823
 20
9.896601603675663
 30
0.0
 10
229.2061689467428
 20
9.88102598144178
 30
0.0
 10
229.2051284069221
 20
9.867918710842787
 30
0.0
 10
229.1722327979423
 20
9.864708391694876
 30
0.0
 10
229.1249766685414
 20
9.87478273308443
 30
0.0
 10
229.1002110399331
 20
9.880062416385044
 30
0.0
1001
PE_URL
1000

  0
LWPOLYLINE
  5
53F
102
{ACAD_REACTORS
102
}
330
507
100
AcDbEntity
  8
0
  6
Continuous
 62
     7
370
     5
100
AcDbPolyline
 90
        3
 70
   128
 43
0.0
 10
227.5336374355302
 20
10.50740905051134
 10
228.0405589092243
 20
10.24675686929186
 10
229.1002110399331
 20
9.880062416385044
1001
PE_URL
1000

  0
LINE
  5
540
102
{ACAD_REACTORS
102
}
330
507
100
AcDbEntity
  8
0
  6
Continuous
 62
     7
370
     5
100
AcDbLine
 10
217.0663881092096
 20
14.73428793161656
 30
0.0
 11
218.1270482809978
 21
14.12198184775116
 31
0.0
1001
PE_URL
1000

  0
SPLINE
  5
541
102
{ACAD_REACTORS
102
}
330
507
100
AcDbEntity
  8
0
  6
Continuous
 62
     7
370
     5
100
AcDbSpline
210
0.0
220
0.0
230
1.0
 70
     8
 71
     3
 72
    12
 73
     8
 74
     0
 42
0.000000001
 43
0.00000001
 40
0.0
 40
0.0
 40
0.0
 40
0.0
 40
0.4480832962971862
 40
0.6390739768471705
 40
0.8319772733508926
 40
0.9300724225915848
 40
1.0
 40
1.0
 40
1.0
 40
1.0
 10
212.958684272131
 20
0.5617573590316169
 30
0.0
 10
212.9166839476147
 20
0.5110033720520732
 30
0.0
 10
212.8567814369799
 20
0.4386160445901623
 30
0.0
 10
212.7542633461035
 20
0.3733871394542803
 30
0.0
 10
212.6891919722457
 20
0.3506619803265494
 30
0.0
 10
212.6410997882685
 20
0.3513407241480309
 30
0.0
 10
212.6225831860775
 20
0.3597537537498283
 30
0.0
 10
212.6148769599149
 20
0.3632550823494967
 30
0.0
1001
PE_URL
1000

  0
LINE
  5
542
102
{ACAD_REACTORS
102
}
330
507
100
AcDbEntity
  8
0
  6
Continuous
 62
     7
370
     5
100
AcDbLine
 10
211.6956381443651
 20
0.8939203550362436
 30
0.0
 11
212.6148769599149
 21
0.3632550823494967
 31
0.0
1001
PE_URL
1000

  0
ARC
  5
543
102
{ACAD_REACTORS
102
}
330
507
100
AcDbEntity
  8
0
  6
Continuous
 62
     7
370
     5
100
AcDbCircle
 10
191.0041163395708
 20
16.69460503210212
 30
0.0
 40
27.24466603113136
100
AcDbArc
 50
323.6904845947403
 51
354.5816777134016
1001
PE_URL
1000

  0
LINE
  5
544
102
{ACAD_REACTORS
102
}
330
507
100
AcDbEntity
  8
0
  6
Continuous
 62
     7
370
     5
100
AcDbLine
 10
211.2713740756571
 20
0.4857162991247606
 30
0.0
 11
212.0491915349612
 21
0.0366918376203103
 31
0.0
1001
PE_URL
1000

  0
LINE
  5
545
102
{ACAD_REACTORS
102
}
330
507
100
AcDbEntity
  8
0
  6
Continuous
 62
     7
370
     5
100
AcDbLine
 10
211.1299527194187
 20
0.5673571103070572
 30
0.0
 11
211.2713740756571
 21
0.4857162991247606
 31
0.0
1001
PE_URL
1000

  0
LINE
  5
546
102
{ACAD_REACTORS
102
}
330
507
100
AcDbEntity
  8
0
  6
Continuous
 62
     7
370
     5
100
AcDbLine
 10
212.0491915349612
 20
0.0366918376203103
 30
0.0
 11
212.6148769599149
 21
0.3632550823494967
 31
0.0
1001
PE_URL
1000

  0
ARC
  5
547
102
{ACAD_REACTORS
102
}
330
507
100
AcDbEntity
  8
0
  6
Continuous
 62
     7
370
     5
100
AcDbCircle
 10
211.2161675929001
 20
0.5533982109409408
 30
0.0
 40
0.0873418394856935
100
AcDbArc
 50
170.7859630083365
 51
309.2032852382761
1001
PE_URL
1000

  0
ARC
  5
548
102
{ACAD_REACTORS
102
}
330
507
100
AcDbEntity
  8
0
  6
Continuous
 62
     7
370
     5
100
AcDbCircle
 10
221.2273722097507
 20
13.82306969940328
 30
0.0
 40
3.114700135748002
100
AcDbArc
 50
144.8200709374537
 51
174.4929521042777
1001
PE_URL
1000

  0
ARC
  5
549
102
{ACAD_REACTORS
102
}
330
507
100
AcDbEntity
  8
0
  6
Continuous
 62
     7
370
     5
100
AcDbCircle
 10
229.7854450755967
 20
10.32356950122994
 30
0.0
 40
0.1005954471805595
100
AcDbArc
 50
234.3824225233182
 51
294.3071190453506
1001
PE_URL
1000

  0
ARC
  5
54A
102
{ACAD_REACTORS
102
}
330
507
100
AcDbEntity
  8
0
  6
Continuous
 62
     7
370
     5
100
AcDbCircle
 10
229.826769652127
 20
10.39512012240448
 30
0.0
 40
0.1005878556989047
100
AcDbArc
 50
5.694799251123807
 51
65.62534171090779
1001
PE_URL
1000

  0
ARC
  5
54B
102
{ACAD_REACTORS
102
}
330
507
100
AcDbEntity
  8
0
  6
Continuous
 62
     7
370
     5
100
AcDbCircle
 10
229.826769652127
 20
41.09705464930812
 30
0.0
 40
0.1005878556987673
100
AcDbArc
 50
5.694799251123807
 51
65.62534171090779
1001
PE_URL
1000

  0
ARC
  5
54C
102
{ACAD_REACTORS
102
}
330
507
100
AcDbEntity
  8
0
  6
Continuous
 62
     7
370
     5
100
AcDbCircle
 10
212.1077755459319
 20
0.1184681034465029
 30
0.0
 40
0.1005954471806202
100
AcDbArc
 50
234.3824225247637
 51
294.3071190453506
1001
PE_URL
1000

  0
ARC
  5
54D
102
{ACAD_REACTORS
102
}
330
507
100
AcDbEntity
  8
0
  6
Continuous
 62
     7
370
     5
100
AcDbCircle
 10
211.9906075239905
 20
0.1184681034465029
 30
0.0
 40
0.1005954471803726
100
AcDbArc
 50
245.6928809546494
 51
305.6175774752363
1001
PE_URL
1000

  0
ARC
  5
54E
102
{ACAD_REACTORS
102
}
330
507
100
AcDbEntity
  8
0
  6
Continuous
 62
     7
370
     5
100
AcDbCircle
 10
229.7731453096985
 20
41.20078954159908
 30
0.0
 40
0.0959051092612276
100
AcDbArc
 50
352.744170430435
 51
55.94364917383793
1001
PE_URL
1000

  0
LINE
  5
54F
102
{ACAD_REACTORS
102
}
330
507
100
AcDbEntity
  8
0
  6
Continuous
 62
     7
370
     5
100
AcDbLine
 10
18.93833599924073
 20
163.1192510783112
 30
0.0
 11
228.949043605322
 21
41.88265017092999
 31
0.0
1001
PE_URL
1000

  0
LINE
  5
550
102
{ACAD_REACTORS
102
}
330
507
100
AcDbEntity
  8
0
  6
Continuous
 62
     7
370
     5
100
AcDbLine
 10
17.93034999462361
 20
131.5088126370065
 30
0.0
 11
226.4729774999487
 21
11.11971633214853
 31
0.0
1001
PE_URL
1000

  0
ARC
  5
551
102
{ACAD_REACTORS
102
}
330
507
100
AcDbEntity
  8
0
  6
Continuous
 62
     7
370
     5
100
AcDbCircle
 10
0.2000000000025466
 20
122.4979362114209
 30
0.0
 40
0.1999999999999915
100
AcDbArc
 50
180.0
 51
240.0026882664557
1001
PE_URL
1000

  0
LINE
  5
552
102
{ACAD_REACTORS
102
}
330
507
100
AcDbEntity
  8
0
  6
Continuous
 62
     7
370
     5
100
AcDbLine
 10
0.0000078690845839
 20
153.1998653422306
 30
0.0
 11
0.0000078690845839
 21
122.497931531514
 31
0.0
1001
PE_URL
1000

  0
LINE
  5
553
102
{ACAD_REACTORS
102
}
330
507
100
AcDbEntity
  8
0
  6
Continuous
 62
     7
370
     5
100
AcDbLine
 10
0.1000098282511317
 20
122.3247258248339
 30
0.0
 11
0.8778299175228312
 21
121.8756998450881
 31
0.0
1001
PE_URL
1000

  0
ARC
  5
554
102
{ACAD_REACTORS
102
}
330
507
100
AcDbEntity
  8
0
  6
Continuous
 62
     7
370
     5
100
AcDbCircle
 10
17.8776695296674
 20
163.4049721361116
 30
0.0
 40
0.1999999999999915
100
AcDbArc
 50
60.00268826716751
 51
119.9973117335443
1001
PE_URL
1000

  0
LINE
  5
555
102
{ACAD_REACTORS
102
}
330
507
100
AcDbEntity
  8
0
  6
Continuous
 62
     7
370
     5
100
AcDbLine
 10
18.75548255551803
 20
163.1291554700401
 30
0.0
 11
17.97766246625361
 21
163.5781814497932
 31
0.0
1001
PE_URL
1000

  0
LINE
  5
556
102
{ACAD_REACTORS
102
}
330
507
100
AcDbEntity
  8
0
  6
Continuous
 62
     7
370
     5
100
AcDbLine
 10
17.77767764570126
 20
163.5781825902995
 30
0.0
 11
0.1000078526176367
 21
153.3730810404486
 31
0.0
1001
PE_URL
1000

  0
ARC
  5
557
102
{ACAD_REACTORS
102
}
330
507
100
AcDbEntity
  8
0
  6
Continuous
 62
     7
370
     5
100
AcDbCircle
 10
0.2000000000025466
 20
153.1998707383282
 30
0.0
 40
0.1999999999999915
100
AcDbArc
 50
119.9973117335443
 51
180.0
1001
PE_URL
1000

  0
LINE
  5
558
102
{ACAD_REACTORS
102
}
330
507
100
AcDbEntity
  8
0
  6
Continuous
 62
     7
370
     5
100
AcDbLine
 10
18.93833599924073
 20
163.1192510783148
 30
0.0
 11
18.79691488323988
 21
163.0376104058196
 31
0.0
1001
PE_URL
1000

  0
LINE
  5
559
102
{ACAD_REACTORS
102
}
330
507
100
AcDbEntity
  8
0
  6
Continuous
 62
     7
370
     5
100
AcDbLine
 10
18.93833599924073
 20
132.0907012243842
 30
0.0
 11
18.93833599924073
 21
163.1192510783148
 31
0.0
1001
PE_URL
1000

  0
LINE
  5
55A
102
{ACAD_REACTORS
102
}
330
507
100
AcDbEntity
  8
0
  6
Continuous
 62
     7
370
     5
100
AcDbLine
 10
18.23122910214988
 20
131.6824971015631
 30
0.0
 11
18.93833599924073
 21
132.0907012243842
 31
0.0
1001
PE_URL
1000

  0
LINE
  5
55B
102
{ACAD_REACTORS
102
}
330
507
100
AcDbEntity
  8
0
  6
Continuous
 62
     7
370
     5
100
AcDbLine
 10
18.93833599924073
 20
132.0907012243842
 30
0.0
 11
228.949043605322
 21
10.85410031699939
 31
0.0
1001
PE_URL
1000

  0
LINE
  5
55C
102
{ACAD_REACTORS
102
}
330
507
100
AcDbEntity
  8
0
  6
Continuous
 62
     7
370
     5
100
AcDbLine
 10
18.93833599924073
 20
163.1192510783148
 30
0.0
 11
228.949043605322
 21
41.88265017092999
 31
0.0
1001
PE_URL
1000

  0
LINE
  5
55D
102
{ACAD_REACTORS
102
}
330
507
100
AcDbEntity
  8
0
  6
Continuous
 62
     7
370
     5
100
AcDbLine
 10
18.23122910214988
 20
131.6824971015631
 30
0.0
 11
228.2419367082384
 21
10.44589619418184
 31
0.0
1001
PE_URL
1000

  0
LINE
  5
55E
102
{ACAD_REACTORS
102
}
330
507
100
AcDbEntity
  8
0
  6
Continuous
 62
     7
370
     5
100
AcDbLine
 10
0.9778239741553989
 20
121.7223183295391
 30
0.0
 11
1.684930871246252
 21
122.1305224523603
 31
0.0
1001
PE_URL
1000

  0
LINE
  5
55F
102
{ACAD_REACTORS
102
}
330
507
100
AcDbEntity
  8
0
  6
Continuous
 62
     7
370
     5
100
AcDbLine
 10
0.9778239741553989
 20
121.8855999547632
 30
0.0
 11
0.9778239741553989
 21
121.7223183295391
 31
0.0
1001
PE_URL
1000

  0
LINE
  5
560
102
{ACAD_REACTORS
102
}
330
507
100
AcDbEntity
  8
0
  6
Continuous
 62
     7
370
     5
100
AcDbLine
 10
1.684930871246252
 20
122.1305224523603
 30
0.0
 11
211.6956384773275
 21
0.8939215449754556
 31
0.0
1001
PE_URL
1000

  0
LINE
  5
561
102
{ACAD_REACTORS
102
}
330
507
100
AcDbEntity
  8
0
  6
Continuous
 62
     7
370
     5
100
AcDbLine
 10
0.9778239741553989
 20
121.7223183295391
 30
0.0
 11
210.9885315802439
 21
0.4857174221579044
 31
0.0
1001
PE_URL
1000

  0
LINE
  5
562
102
{ACAD_REACTORS
102
}
330
507
100
AcDbEntity
  8
0
  6
Continuous
 62
     7
370
     5
100
AcDbLine
 10
217.0746099329317
 20
15.86792184017395
 30
0.0
 11
17.34368726604407
 21
131.1701292192702
 31
0.0
1001
PE_URL
1000

  0
LINE
  5
563
102
{ACAD_REACTORS
102
}
330
507
100
AcDbEntity
  8
0
  6
Continuous
 62
     7
370
     5
100
AcDbLine
 10
17.17672680620853
 20
162.2583101910459
 30
0.0
 11
17.17055229290236
 21
162.2618746617118
 31
0.0
1001
PE_URL
1000

  0
LINE
  5
564
102
{ACAD_REACTORS
102
}
330
507
100
AcDbEntity
  8
0
  6
Continuous
 62
     7
370
     5
100
AcDbLine
 10
17.17055229290236
 20
162.2618746617118
 30
0.0
 11
17.17055229290236
 21
133.1042273998937
 31
0.0
1001
PE_URL
1000

  0
LINE
  5
565
102
{ACAD_REACTORS
102
}
330
507
100
AcDbEntity
  8
0
  6
Continuous
 62
     7
370
     5
100
AcDbLine
 10
12.64506900762899
 20
130.4917215080604
 30
0.0
 11
12.64506900762899
 21
137.4394583921276
 31
0.0
1001
PE_URL
1000

  0
LINE
  5
566
102
{ACAD_REACTORS
102
}
330
507
100
AcDbEntity
  8
0
  6
Continuous
 62
     7
370
     5
100
AcDbLine
 10
12.64506900762899
 20
137.4394583921276
 30
0.0
 11
5.29115846327295
 21
133.1941361990939
 31
0.0
1001
PE_URL
1000

  0
LINE
  5
567
102
{ACAD_REACTORS
102
}
330
507
100
AcDbEntity
  8
0
  6
Continuous
 62
     7
370
     5
100
AcDbLine
 10
5.29115846327295
 20
133.1941361990939
 30
0.0
 11
5.29115846327295
 21
126.2463993150195
 31
0.0
1001
PE_URL
1000

  0
LINE
  5
568
102
{ACAD_REACTORS
102
}
330
507
100
AcDbEntity
  8
0
  6
Continuous
 62
     7
370
     5
100
AcDbLine
 10
0.765675177999583
 20
123.6338934231862
 30
0.0
 11
0.765675177999583
 21
152.7915406850043
 31
0.0
1001
PE_URL
1000

  0
LINE
  5
569
102
{ACAD_REACTORS
102
}
330
507
100
AcDbEntity
  8
0
  6
Continuous
 62
     7
370
     5
100
AcDbLine
 10
0.765675177999583
 20
152.7915406850043
 30
0.0
 11
17.17055229290236
 21
162.2618746617118
 31
0.0
1001
PE_URL
1000

  0
LINE
  5
56A
102
{ACAD_REACTORS
102
}
330
507
100
AcDbEntity
  8
0
  6
Continuous
 62
     7
370
     5
100
AcDbLine
 10
5.368055388380526
 20
133.1497445491295
 30
0.0
 11
5.29115846327295
 21
133.1941361990939
 31
0.0
1001
PE_URL
1000

  0
LINE
  5
56B
102
{ACAD_REACTORS
102
}
330
507
100
AcDbEntity
  8
0
  6
Continuous
 62
     7
370
     5
100
AcDbLine
 10
12.64508316633692
 20
137.1945278208259
 30
0.0
 11
12.64004595939878
 21
137.1916199031511
 31
0.0
1001
PE_URL
1000

  0
ARC
  5
56C
102
{ACAD_REACTORS
102
}
330
507
100
AcDbEntity
  8
0
  6
Continuous
 62
     7
370
     5
100
AcDbCircle
 10
17.87766825908875
 20
132.5117027734486
 30
0.0
 40
0.3074344667700756
100
AcDbArc
 50
62.61204327129584
 51
117.3873406434462
1001
PE_URL
1000

  0
ARC
  5
56D
102
{ACAD_REACTORS
102
}
330
507
100
AcDbEntity
  8
0
  6
Continuous
 62
     7
370
     5
100
AcDbCircle
 10
17.7120485461619
 20
132.7986499416329
 30
0.0
 40
0.3073613642653202
100
AcDbArc
 50
302.6055705216268
 51
357.3944846940835
1001
PE_URL
1000

  0
ARC
  5
56E
102
{ACAD_REACTORS
102
}
330
507
100
AcDbEntity
  8
0
  6
Continuous
 62
     7
370
     5
100
AcDbCircle
 10
18.04331944863043
 20
132.7986681145376
 30
0.0
 40
0.3073906335225117
100
AcDbArc
 50
182.6083741318577
 51
237.3921868390824
1001
PE_URL
1000

  0
LINE
  5
56F
102
{ACAD_REACTORS
102
}
330
507
100
AcDbEntity
  8
0
  6
Continuous
 62
     7
370
     5
100
AcDbLine
 10
17.73624729361291
 20
132.7846790762378
 30
0.0
 11
17.73624729361291
 21
163.486612886958
 31
0.0
1001
PE_URL
1000

  0
ARC
  5
570
102
{ACAD_REACTORS
102
}
330
507
100
AcDbEntity
  8
0
  6
Continuous
 62
     7
370
     5
100
AcDbCircle
 10
17.87766825908875
 20
163.2136365841689
 30
0.0
 40
0.3074344667704958
100
AcDbArc
 50
62.6120432714518
 51
117.3873406432902
1001
PE_URL
1000

  0
LINE
  5
571
102
{ACAD_REACTORS
102
}
330
507
100
AcDbEntity
  8
0
  6
Continuous
 62
     7
370
     5
100
AcDbLine
 10
18.01909215979504
 20
163.4866113662756
 30
0.0
 11
18.01909215979504
 21
132.7846775555554
 31
0.0
1001
PE_URL
1000

  0
LINE
  5
572
102
{ACAD_REACTORS
102
}
330
507
100
AcDbEntity
  8
0
  6
Continuous
 62
     7
370
     5
100
AcDbLine
 10
11.73818209732963
 20
129.3220697421348
 30
0.0
 11
17.73624729361291
 21
132.7846790762378
 31
0.0
1001
PE_URL
1000

  0
LINE
  5
573
102
{ACAD_REACTORS
102
}
330
507
100
AcDbEntity
  8
0
  6
Continuous
 62
     7
370
     5
100
AcDbLine
 10
17.87767104379418
 20
132.5397287248088
 30
0.0
 11
11.87713729342613
 21
129.0756943247652
 31
0.0
1001
PE_URL
1000

  0
ELLIPSE
  5
574
102
{ACAD_REACTORS
102
}
330
507
100
AcDbEntity
  8
0
  6
Continuous
 62
     7
370
     5
100
AcDbEllipse
 10
11.8771359654038
 20
129.2390033165975
 30
0.0
 11
-0.0974149464412335
 21
0.1746892004041456
 31
0.0
210
0.0
220
0.0
230
1.0
 40
0.5672183927598544
 41
0.7939066862942908
 42
2.364703013104796
1001
PE_URL
1000

  0
ARC
  5
575
102
{ACAD_REACTORS
102
}
330
507
100
AcDbEntity
  8
0
  6
Continuous
 62
     7
370
     5
100
AcDbCircle
 10
18.4898686354336
 20
132.3496239618871
 30
0.0
 40
0.3073613642650415
100
AcDbArc
 50
302.6055705204045
 51
357.3944846940835
1001
PE_URL
1000

  0
LINE
  5
576
102
{ACAD_REACTORS
102
}
330
507
100
AcDbEntity
  8
0
  6
Continuous
 62
     7
370
     5
100
AcDbLine
 10
18.6554911330586
 20
132.090702745063
 30
0.0
 11
17.87767104379418
 21
132.5397287248088
 31
0.0
1001
PE_URL
1000

  0
LINE
  5
577
102
{ACAD_REACTORS
102
}
330
507
100
AcDbEntity
  8
0
  6
Continuous
 62
     7
370
     5
100
AcDbLine
 10
18.01909215979504
 20
132.7846775555554
 30
0.0
 11
18.79691224905946
 21
132.3356515758096
 31
0.0
1001
PE_URL
1000

  0
LINE
  5
578
102
{ACAD_REACTORS
102
}
330
507
100
AcDbEntity
  8
0
  6
Continuous
 62
     7
370
     5
100
AcDbLine
 10
18.79691224905946
 20
163.0375853865298
 30
0.0
 11
18.79691224905946
 21
132.3356515758096
 31
0.0
1001
PE_URL
1000

  0
LINE
  5
579
102
{ACAD_REACTORS
102
}
330
507
100
AcDbEntity
  8
0
  6
Continuous
 62
     7
370
     5
100
AcDbLine
 10
18.79691224905946
 20
163.0375853865298
 30
0.0
 11
18.01909215979504
 21
163.4866113662756
 31
0.0
1001
PE_URL
1000

  0
LINE
  5
57A
102
{ACAD_REACTORS
102
}
330
507
100
AcDbEntity
  8
0
  6
Continuous
 62
     7
370
     5
100
AcDbLine
 10
17.73624729361291
 20
163.486612886958
 30
0.0
 11
0.0585775005292817
 21
153.2815113371071
 31
0.0
1001
PE_URL
1000

  0
LINE
  5
57B
102
{ACAD_REACTORS
102
}
330
507
100
AcDbEntity
  8
0
  6
Continuous
 62
     7
370
     5
100
AcDbLine
 10
11.73818209732963
 20
129.3220697421348
 30
0.0
 11
11.73818209732963
 21
136.1136114576111
 31
0.0
1001
PE_URL
1000

  0
LINE
  5
57C
102
{ACAD_REACTORS
102
}
330
507
100
AcDbEntity
  8
0
  6
Continuous
 62
     7
370
     5
100
AcDbLine
 10
11.73818209732963
 20
136.1136114576111
 30
0.0
 11
6.05664269681256
 21
132.833728575959
 31
0.0
1001
PE_URL
1000

  0
LINE
  5
57D
102
{ACAD_REACTORS
102
}
330
507
100
AcDbEntity
  8
0
  6
Continuous
 62
     7
370
     5
100
AcDbLine
 10
6.05664269681256
 20
126.0421868604863
 30
0.0
 11
6.05664269681256
 21
132.833728575959
 31
0.0
1001
PE_URL
1000

  0
LINE
  5
57E
102
{ACAD_REACTORS
102
}
330
507
100
AcDbEntity
  8
0
  6
Continuous
 62
     7
370
     5
100
AcDbLine
 10
0.0585775005292817
 20
122.5795775263869
 30
0.0
 11
6.05664269681256
 21
126.0421868604863
 31
0.0
1001
PE_URL
1000

  0
LINE
  5
57F
102
{ACAD_REACTORS
102
}
330
507
100
AcDbEntity
  8
0
  6
Continuous
 62
     7
370
     5
100
AcDbLine
 10
0.0585775005292817
 20
153.2815113371071
 30
0.0
 11
0.0585775005292817
 21
122.5795775263869
 31
0.0
1001
PE_URL
1000

  0
LINE
  5
580
102
{ACAD_REACTORS
102
}
330
507
100
AcDbEntity
  8
0
  6
Continuous
 62
     7
370
     5
100
AcDbLine
 10
5.368049790753503
 20
126.2907769367921
 30
0.0
 11
5.368049790753503
 21
133.2313736446631
 31
0.0
1001
PE_URL
1000

  0
LINE
  5
581
102
{ACAD_REACTORS
102
}
330
507
100
AcDbEntity
  8
0
  6
Continuous
 62
     7
370
     5
100
AcDbLine
 10
5.368049790753503
 20
133.2313736446631
 30
0.0
 11
12.42677500339596
 21
137.3062889729154
 31
0.0
1001
PE_URL
1000

  0
LINE
  5
582
102
{ACAD_REACTORS
102
}
330
507
100
AcDbEntity
  8
0
  6
Continuous
 62
     7
370
     5
100
AcDbLine
 10
12.42677500339596
 20
137.3062889729154
 30
0.0
 11
12.42677500339596
 21
130.3656922650443
 31
0.0
1001
PE_URL
1000

  0
LINE
  5
583
102
{ACAD_REACTORS
102
}
330
507
100
AcDbEntity
  8
0
  6
Continuous
 62
     7
370
     5
100
AcDbLine
 10
12.42677500339596
 20
130.3656922650443
 30
0.0
 11
17.17673273310902
 21
133.1077844953288
 31
0.0
1001
PE_URL
1000

  0
LINE
  5
584
102
{ACAD_REACTORS
102
}
330
507
100
AcDbEntity
  8
0
  6
Continuous
 62
     7
370
     5
100
AcDbLine
 10
17.17673273310902
 20
133.1077844953288
 30
0.0
 11
17.17673273310902
 21
162.5175075248189
 31
0.0
1001
PE_URL
1000

  0
LINE
  5
585
102
{ACAD_REACTORS
102
}
330
507
100
AcDbEntity
  8
0
  6
Continuous
 62
     7
370
     5
100
AcDbLine
 10
17.17673273310902
 20
162.5175075248189
 30
0.0
 11
0.6180920610404428
 21
152.9584077359941
 31
0.0
1001
PE_URL
1000

  0
LINE
  5
586
102
{ACAD_REACTORS
102
}
330
507
100
AcDbEntity
  8
0
  6
Continuous
 62
     7
370
     5
100
AcDbLine
 10
0.6180920610404428
 20
152.9584077359941
 30
0.0
 11
0.6180920610404428
 21
123.5486847065076
 31
0.0
1001
PE_URL
1000

  0
LINE
  5
587
102
{ACAD_REACTORS
102
}
330
507
100
AcDbEntity
  8
0
  6
Continuous
 62
     7
370
     5
100
AcDbLine
 10
0.6180920610404428
 20
123.5486847065076
 30
0.0
 11
5.368049790753503
 21
126.2907769367921
 31
0.0
1001
PE_URL
1000

  0
LINE
  5
588
102
{ACAD_REACTORS
102
}
330
507
100
AcDbEntity
  8
0
  6
Continuous
 62
     7
370
     5
100
AcDbLine
 10
12.43293733363498
 20
128.7434376438141
 30
0.0
 11
6.776082815455084
 21
125.4778050414134
 31
0.0
1001
PE_URL
1000

  0
LINE
  5
589
102
{ACAD_REACTORS
102
}
330
507
100
AcDbEntity
  8
0
  6
Continuous
 62
     7
370
     5
100
AcDbLine
 10
12.43293733363498
 20
128.7434376438141
 30
0.0
 11
11.87713729342613
 21
129.0756943247652
 31
0.0
1001
PE_URL
1000

  0
LINE
  5
58A
102
{ACAD_REACTORS
102
}
330
507
100
AcDbEntity
  8
0
  6
Continuous
 62
     7
370
     5
100
AcDbLine
 10
18.79691488323988
 20
132.009060551889
 30
0.0
 11
18.6554911330586
 21
132.090702745063
 31
0.0
1001
PE_URL
1000

  0
LINE
  5
58B
102
{ACAD_REACTORS
102
}
330
507
100
AcDbEntity
  8
0
  6
Continuous
 62
     7
370
     5
100
AcDbLine
 10
18.79691488323988
 20
132.009060551889
 30
0.0
 11
1.119245090156255
 21
121.803959002038
 31
0.0
1001
PE_URL
1000

  0
LINE
  5
58C
102
{ACAD_REACTORS
102
}
330
507
100
AcDbEntity
  8
0
  6
Continuous
 62
     7
370
     5
100
AcDbLine
 10
0.9778213399822562
 20
121.8856011952121
 30
0.0
 11
1.119245090156255
 21
121.803959002038
 31
0.0
1001
PE_URL
1000

  0
LINE
  5
58D
102
{ACAD_REACTORS
102
}
330
507
100
AcDbEntity
  8
0
  6
Continuous
 62
     7
370
     5
100
AcDbLine
 10
0.2000012507105566
 20
122.3346271749579
 30
0.0
 11
0.9778213399822562
 21
121.8856011952121
 31
0.0
1001
PE_URL
1000

  0
LINE
  5
58E
102
{ACAD_REACTORS
102
}
330
507
100
AcDbEntity
  8
0
  6
Continuous
 62
     7
370
     5
100
AcDbLine
 10
6.200535001085882
 20
125.7986615750015
 30
0.0
 11
0.2000012507105566
 21
122.3346271749579
 31
0.0
1001
PE_URL
1000

  0
LINE
  5
58F
102
{ACAD_REACTORS
102
}
330
507
100
AcDbEntity
  8
0
  6
Continuous
 62
     7
370
     5
100
AcDbLine
 10
6.776082815455084
 20
125.4778050414134
 30
0.0
 11
6.200535001085882
 21
125.7986615750015
 31
0.0
1001
PE_URL
1000

  0
LINE
  5
590
102
{ACAD_REACTORS
102
}
330
507
100
AcDbEntity
  8
0
  6
Continuous
 62
     7
370
     5
100
AcDbLine
 10
18.79691488323988
 20
163.0376104058196
 30
0.0
 11
18.79691488323988
 21
163.0375860710083
 31
0.0
1001
PE_URL
1000

  0
LINE
  5
591
102
{ACAD_REACTORS
102
}
330
507
100
AcDbEntity
  8
0
  6
Continuous
 62
     7
370
     5
100
AcDbLine
 10
18.79691488323988
 20
132.3356503472496
 30
0.0
 11
18.79691488323988
 21
132.009060551889
 31
0.0
1001
PE_URL
1000

  0
LINE
  5
592
102
{ACAD_REACTORS
102
}
330
507
100
AcDbEntity
  8
0
  6
Continuous
 62
     7
370
     5
100
AcDbLine
 10
12.64508975178433
 20
137.188907353393
 30
0.0
 11
12.42677500339596
 21
137.3062889729154
 31
0.0
1001
PE_URL
1000

  0
LINE
  5
593
102
{ACAD_REACTORS
102
}
330
507
100
AcDbEntity
  8
0
  6
Continuous
 62
     7
370
     5
100
AcDbLine
 10
11.78178630483853
 20
129.177216478045
 30
0.0
 11
6.566258352131626
 21
126.1663562789145
 31
0.0
1001
PE_URL
1000

  0
LINE
  5
594
102
{ACAD_REACTORS
102
}
330
507
100
AcDbEntity
  8
0
  6
Continuous
 62
     7
370
     5
100
AcDbLine
 10
6.566258352131626
 20
126.1663562789145
 30
0.0
 11
6.776082815455084
 21
125.4778050414134
 31
0.0
1001
PE_URL
1000

  0
LINE
  5
595
102
{ACAD_REACTORS
102
}
330
507
100
AcDbEntity
  8
0
  6
Continuous
 62
     7
370
     5
100
AcDbLine
 10
11.73818802423011
 20
129.556161128854
 30
0.0
 11
6.566258352131626
 21
126.5704696813809
 31
0.0
1001
PE_URL
1000

  0
LINE
  5
596
102
{ACAD_REACTORS
102
}
330
507
100
AcDbEntity
  8
0
  6
Continuous
 62
     7
370
     5
100
AcDbLine
 10
6.566258352131626
 20
126.5704696813809
 30
0.0
 11
6.566258352131626
 21
126.1663562789145
 31
0.0
1001
PE_URL
1000

  0
LINE
  5
597
102
{ACAD_REACTORS
102
}
330
507
100
AcDbEntity
  8
0
  6
Continuous
 62
     7
370
     5
100
AcDbLine
 10
11.73818802423011
 20
130.1318967471852
 30
0.0
 11
6.566258352131626
 21
127.1462052997122
 31
0.0
1001
PE_URL
1000

  0
LINE
  5
598
102
{ACAD_REACTORS
102
}
330
507
100
AcDbEntity
  8
0
  6
Continuous
 62
     7
370
     5
100
AcDbLine
 10
6.566258352131626
 20
127.1462052997122
 30
0.0
 11
6.715468074033197
 21
126.6566027725057
 31
0.0
1001
PE_URL
1000

  0
LINE
  5
599
102
{ACAD_REACTORS
102
}
330
507
100
AcDbEntity
  8
0
  6
Continuous
 62
     7
370
     5
100
AcDbLine
 10
11.73818802423011
 20
130.536010149659
 30
0.0
 11
6.566258352131626
 21
127.5503187021859
 31
0.0
1001
PE_URL
1000

  0
LINE
  5
59A
102
{ACAD_REACTORS
102
}
330
507
100
AcDbEntity
  8
0
  6
Continuous
 62
     7
370
     5
100
AcDbLine
 10
6.566258352131626
 20
127.5503187021859
 30
0.0
 11
6.566258352131626
 21
127.1462052997122
 31
0.0
1001
PE_URL
1000

  0
LINE
  5
59B
102
{ACAD_REACTORS
102
}
330
507
100
AcDbEntity
  8
0
  6
Continuous
 62
     7
370
     5
100
AcDbLine
 10
11.73818802423011
 20
131.1117457679902
 30
0.0
 11
6.566258352131626
 21
128.1260543205171
 31
0.0
1001
PE_URL
1000

  0
LINE
  5
59C
102
{ACAD_REACTORS
102
}
330
507
100
AcDbEntity
  8
0
  6
Continuous
 62
     7
370
     5
100
AcDbLine
 10
6.566258352131626
 20
128.1260543205171
 30
0.0
 11
6.715468074033197
 21
127.6364517933071
 31
0.0
1001
PE_URL
1000

  0
LINE
  5
59D
102
{ACAD_REACTORS
102
}
330
507
100
AcDbEntity
  8
0
  6
Continuous
 62
     7
370
     5
100
AcDbLine
 10
11.73818802423011
 20
131.5158589803432
 30
0.0
 11
6.566258352131626
 21
128.5301675328701
 31
0.0
1001
PE_URL
1000

  0
LINE
  5
59E
102
{ACAD_REACTORS
102
}
330
507
100
AcDbEntity
  8
0
  6
Continuous
 62
     7
370
     5
100
AcDbLine
 10
6.566258352131626
 20
128.5301675328701
 30
0.0
 11
6.566258352131626
 21
128.1260543205171
 31
0.0
1001
PE_URL
1000

  0
LINE
  5
59F
102
{ACAD_REACTORS
102
}
330
507
100
AcDbEntity
  8
0
  6
Continuous
 62
     7
370
     5
100
AcDbLine
 10
11.73818802423011
 20
132.0915947887952
 30
0.0
 11
6.566258352131626
 21
129.1059033413221
 31
0.0
1001
PE_URL
1000

  0
LINE
  5
5A0
102
{ACAD_REACTORS
102
}
330
507
100
AcDbEntity
  8
0
  6
Continuous
 62
     7
370
     5
100
AcDbLine
 10
6.566258352131626
 20
129.1059033413221
 30
0.0
 11
6.715468074033197
 21
128.6163006239985
 31
0.0
1001
PE_URL
1000

  0
LINE
  5
5A1
102
{ACAD_REACTORS
102
}
330
507
100
AcDbEntity
  8
0
  6
Continuous
 62
     7
370
     5
100
AcDbLine
 10
11.73818802423011
 20
132.4957081912617
 30
0.0
 11
6.566258352131626
 21
129.5100167437886
 31
0.0
1001
PE_URL
1000

  0
LINE
  5
5A2
102
{ACAD_REACTORS
102
}
330
507
100
AcDbEntity
  8
0
  6
Continuous
 62
     7
370
     5
100
AcDbLine
 10
6.566258352131626
 20
129.5100167437886
 30
0.0
 11
6.566258352131626
 21
129.1059033413221
 31
0.0
1001
PE_URL
1000

  0
LINE
  5
5A3
102
{ACAD_REACTORS
102
}
330
507
100
AcDbEntity
  8
0
  6
Continuous
 62
     7
370
     5
100
AcDbLine
 10
11.73818802423011
 20
133.0714436194794
 30
0.0
 11
6.566258352131626
 21
130.0857521720063
 31
0.0
1001
PE_URL
1000

  0
LINE
  5
5A4
102
{ACAD_REACTORS
102
}
330
507
100
AcDbEntity
  8
0
  6
Continuous
 62
     7
370
     5
100
AcDbLine
 10
6.566258352131626
 20
130.0857521720063
 30
0.0
 11
6.715468074033197
 21
129.5961496447999
 31
0.0
1001
PE_URL
1000

  0
LINE
  5
5A5
102
{ACAD_REACTORS
102
}
330
507
100
AcDbEntity
  8
0
  6
Continuous
 62
     7
370
     5
100
AcDbLine
 10
11.73818802423011
 20
133.4755570219531
 30
0.0
 11
6.566258352131626
 21
130.4898655744801
 31
0.0
1001
PE_URL
1000

  0
LINE
  5
5A6
102
{ACAD_REACTORS
102
}
330
507
100
AcDbEntity
  8
0
  6
Continuous
 62
     7
370
     5
100
AcDbLine
 10
6.566258352131626
 20
130.4898655744801
 30
0.0
 11
6.566258352131626
 21
130.0857521720063
 31
0.0
1001
PE_URL
1000

  0
LINE
  5
5A7
102
{ACAD_REACTORS
102
}
330
507
100
AcDbEntity
  8
0
  6
Continuous
 62
     7
370
     5
100
AcDbLine
 10
11.73818802423011
 20
134.0512924501709
 30
0.0
 11
6.566258352131626
 21
131.0656010026978
 31
0.0
1001
PE_URL
1000

  0
LINE
  5
5A8
102
{ACAD_REACTORS
102
}
330
507
100
AcDbEntity
  8
0
  6
Continuous
 62
     7
370
     5
100
AcDbLine
 10
6.566258352131626
 20
131.0656010026978
 30
0.0
 11
6.715468074033197
 21
130.5759984754877
 31
0.0
1001
PE_URL
1000

  0
LINE
  5
5A9
102
{ACAD_REACTORS
102
}
330
507
100
AcDbEntity
  8
0
  6
Continuous
 62
     7
370
     5
100
AcDbLine
 10
11.73818802423011
 20
134.4554058526373
 30
0.0
 11
6.566258352131626
 21
131.4697144051643
 31
0.0
1001
PE_URL
1000

  0
LINE
  5
5AA
102
{ACAD_REACTORS
102
}
330
507
100
AcDbEntity
  8
0
  6
Continuous
 62
     7
370
     5
100
AcDbLine
 10
6.566258352131626
 20
131.4697144051643
 30
0.0
 11
6.566258352131626
 21
131.0656010026978
 31
0.0
1001
PE_URL
1000

  0
LINE
  5
5AB
102
{ACAD_REACTORS
102
}
330
507
100
AcDbEntity
  8
0
  6
Continuous
 62
     7
370
     5
100
AcDbLine
 10
6.05664269681256
 20
132.833728575959
 30
0.0
 11
6.776082815455084
 21
132.4184023196322
 31
0.0
1001
PE_URL
1000

  0
LINE
  5
5AC
102
{ACAD_REACTORS
102
}
330
507
100
AcDbEntity
  8
0
  6
Continuous
 62
     7
370
     5
100
AcDbLine
 10
6.776082815455084
 20
132.4184023196322
 30
0.0
 11
6.776082815455084
 21
131.5908608979516
 31
0.0
1001
PE_URL
1000

  0
ELLIPSE
  5
5AD
102
{ACAD_REACTORS
102
}
330
507
100
AcDbEntity
  8
0
  6
Continuous
 62
     7
370
     5
100
AcDbEllipse
 10
6.200533564266152
 20
125.9619705040277
 30
0.0
 11
-0.1026525863727556
 21
0.1716643463722676
 31
0.0
210
0.0
220
0.0
230
1.0
 40
0.5873687162542152
 41
0.7764427606264304
 42
2.347239087449709
1001
PE_URL
1000

  0
ARC
  5
5AE
102
{ACAD_REACTORS
102
}
330
507
100
AcDbEntity
  8
0
  6
Continuous
 62
     7
370
     5
100
AcDbCircle
 10
0.3656496555468038
 20
122.5935665646866
 30
0.0
 40
0.3073906335228422
100
AcDbArc
 50
182.6083741318577
 51
237.3921868390824
1001
PE_URL
1000

  0
LINE
  5
5AF
102
{ACAD_REACTORS
102
}
330
507
100
AcDbEntity
  8
0
  6
Continuous
 62
     7
370
     5
100
AcDbLine
 10
11.73817304234217
 20
135.282956033876
 30
0.0
 11
6.776082815455084
 21
132.4184023196322
 31
0.0
1001
PE_URL
1000

  0
LINE
  5
5B0
102
{ACAD_REACTORS
102
}
330
507
100
AcDbEntity
  8
0
  6
Continuous
 62
     7
370
     5
100
AcDbLine
 10
0.8364278828503302
 20
152.8323636856549
 30
0.0
 11
0.6180920610404428
 21
152.9584077359941
 31
0.0
1001
PE_URL
1000

  0
ARC
  5
5B1
102
{ACAD_REACTORS
102
}
330
507
100
AcDbEntity
  8
0
  6
Continuous
 62
     7
370
     5
100
AcDbCircle
 10
0.9192379109426838
 20
121.9673758766257
 30
0.0
 40
0.1005938202754838
100
AcDbArc
 50
245.6923804666934
 51
305.6178335866021
1001
PE_URL
1000

  0
ARC
  5
5B2
102
{ACAD_REACTORS
102
}
330
507
100
AcDbEntity
  8
0
  6
Continuous
 62
     7
370
     5
100
AcDbCircle
 10
18.7046098889823
 20
163.050981588789
 30
0.0
 40
0.0932694157336569
100
AcDbArc
 50
351.7420985252315
 51
56.94541239176971
1001
PE_URL
1000

  0
LINE
  5
5B3
102
{ACAD_REACTORS
102
}
330
507
100
AcDbEntity
  8
0
  6
Continuous
 62
     7
370
     5
100
AcDbLine
 10
217.1026662338754
 20
15.80069561879282
 30
0.0
 11
17.29948279521886
 21
131.1446182535001
 31
0.0
1001
PE_URL
1000

  0
ARC
  5
5B4
102
{ACAD_REACTORS
102
}
330
507
100
AcDbEntity
  8
0
  6
Continuous
 62
     7
370
     5
100
AcDbCircle
 10
0.1414178216782602
 20
122.4164018563715
 30
0.0
 40
0.1005938202758866
100
AcDbArc
 50
245.6923804611193
 51
305.6178335814231
1001
PE_URL
1000

  0
ARC
  5
5B5
102
{ACAD_REACTORS
102
}
330
507
100
AcDbEntity
  8
0
  6
Continuous
 62
     7
370
     5
100
AcDbCircle
 10
0.1000714271631296
 20
122.4879806378267
 30
0.0
 40
0.1005571277498755
100
AcDbArc
 50
114.3708046324333
 51
174.3208514277519
1001
PE_URL
1000

  0
ARC
  5
5B6
102
{ACAD_REACTORS
102
}
330
507
100
AcDbEntity
  8
0
  6
Continuous
 62
     7
370
     5
100
AcDbCircle
 10
0.1000714271631296
 20
153.1899144485469
 30
0.0
 40
0.1005571277496825
100
AcDbArc
 50
114.3708046324333
 51
174.3208514298146
1001
PE_URL
1000

  0
LWPOLYLINE
  5
5B7
102
{ACAD_REACTORS
102
}
330
507
100
AcDbEntity
  8
0
  6
Continuous
 62
     7
370
     5
100
AcDbPolyline
 90
        6
 70
   128
 43
0.0
 10
17.73624729361291
 20
163.486612886958
 10
17.73896576534571
 20
163.5169038999193
 10
17.74701581340742
 20
163.5428911931995
 10
17.76008133644609
 20
163.5635830935244
 10
17.77767764570126
 20
163.5781734647426
 10
17.77767764570126
 20
163.5781825902995
1001
PE_URL
1000

  0
ARC
  5
5B8
102
{ACAD_REACTORS
102
}
330
507
100
AcDbEntity
  8
0
  6
Continuous
 62
     7
370
     5
100
AcDbCircle
 10
17.92392484874108
 20
163.4987113587231
 30
0.0
 40
0.0959334504231908
100
AcDbArc
 50
352.7540398559198
 51
55.93347105697899
1001
PE_URL
1000

  0
LWPOLYLINE
  5
5B9
102
{ACAD_REACTORS
102
}
330
507
100
AcDbEntity
  8
0
  6
Continuous
 62
     7
370
     5
100
AcDbPolyline
 90
        6
 70
   128
 43
0.0
 10
0.0585775005292817
 20
153.2815113371071
 10
0.0612959722620872
 20
153.3118023500683
 10
0.0693460203310678
 20
153.3377896433485
 10
0.0824115433624684
 20
153.3584815436734
 10
0.1000078526176367
 20
153.3730719148916
 10
0.1000078526176367
 20
153.3730810404486
1001
PE_URL
1000

  0
ENDBLK
  5
5BB
330
507
100
AcDbEntity
  8
0
100
AcDbBlockEnd
  0
ENDSEC
  0
SECTION
  2
ENTITIES
  0
MTEXT
  5
234
330
1F
100
AcDbEntity
  8
寸法線
100
AcDbMText
 10
385.4959259259258
 20
267.8601851851853
 30
0.0
 40
11.66666666666667
 41
273.3522079092452
 71
     1
 72
     5
  1
{MPP-10/0300/FF/L}
 73
     1
 44
1.0
1001
ACAD
1000
ACAD_MTEXT_DEFINED_HEIGHT_BEGIN
1070
    46
1040
11.66666666666667
1000
ACAD_MTEXT_DEFINED_HEIGHT_END
  0
INSERT
  5
5BC
330
1F
100
AcDbEntity
  8
0
100
AcDbBlockReference
  2
A$C30509
 10
365.1889083628741
 20
296.6979632275488
 30
0.0
  0
ENDSEC
  0
SECTION
  2
OBJECTS
  0
DICTIONARY
  5
C
330
0
100
AcDbDictionary
281
     1
  3
ACAD_DETAILVIEWSTYLE
350
217
  3
ACAD_GROUP
350
D
  3
ACAD_LAYOUT
350
1A
  3
ACAD_MLINESTYLE
350
17
  3
ACAD_PLOTSETTINGS
350
19
  3
ACAD_PLOTSTYLENAME
350
E
  3
ACAD_SCALELIST
350
47
  3
ACAD_SECTIONVIEWSTYLE
350
218
  3
AcDbVariableDictionary
350
212
  3
APPDATA
350
211
  3
DWGPROPS
350
5BD
  0
DICTIONARY
  5
22F
330
2
100
AcDbDictionary
280
     1
281
     1
  3
ACAD_LAYERSTATES
360
230
  0
DICTIONARY
  5
21B
330
21A
100
AcDbDictionary
280
     1
281
     1
  3
ADSK_XREC_LAYER_RECONCILED
360
21C
  0
DICTIONARY
  5
217
102
{ACAD_REACTORS
330
C
102
}
330
C
100
AcDbDictionary
281
     1
  0
DICTIONARY
  5
D
102
{ACAD_REACTORS
330
C
102
}
330
C
100
AcDbDictionary
281
     1
  0
DICTIONARY
  5
1A
102
{ACAD_REACTORS
330
C
102
}
330
C
100
AcDbDictionary
281
     1
  3
Layout1
350
1E
  3
Layout2
350
26
  3
Model
350
22
  0
DICTIONARY
  5
17
102
{ACAD_REACTORS
330
C
102
}
330
C
100
AcDbDictionary
281
     1
  3
Standard
350
18
  0
DICTIONARY
  5
19
102
{ACAD_REACTORS
330
C
102
}
330
C
100
AcDbDictionary
281
     1
  0
ACDBDICTIONARYWDFLT
  5
E
102
{ACAD_REACTORS
330
C
102
}
330
C
100
AcDbDictionary
281
     1
  3
Normal
350
F
100
AcDbDictionaryWithDefault
340
F
  0
DICTIONARY
  5
47
102
{ACAD_REACTORS
330
C
102
}
330
C
100
AcDbDictionary
281
     1
  3
A0
350
48
  3
A1
350
49
  3
A2
350
4A
  3
A3
350
4B
  3
A4
350
4C
  3
A5
350
4D
  3
A6
350
4E
  3
A7
350
4F
  3
A8
350
50
  3
A9
350
51
  3
B0
350
52
  3
B1
350
53
  3
B2
350
54
  3
B3
350
55
  3
B4
350
56
  3
B5
350
57
  3
B6
350
58
  3
B7
350
59
  3
B8
350
5A
  3
B9
350
5B
  3
C0
350
5C
  3
C1
350
5D
  3
C2
350
5E
  3
C3
350
5F
  3
C4
350
60
  3
C5
350
61
  3
C6
350
62
  3
C7
350
63
  3
C8
350
64
  3
C9
350
65
  3
D0
350
66
  3
D1
350
67
  3
D2
350
68
  0
DICTIONARY
  5
218
102
{ACAD_REACTORS
330
C
102
}
330
C
100
AcDbDictionary
281
     1
  0
DICTIONARY
  5
212
102
{ACAD_REACTORS
330
C
102
}
330
C
100
AcDbDictionary
281
     1
  0
DICTIONARY
  5
211
102
{ACAD_REACTORS
330
C
102
}
330
C
100
AcDbDictionary
281
     1
  0
XRECORD
  5
5BD
102
{ACAD_REACTORS
330
C
102
}
330
C
100
AcDbXrecord
280
     1
  1
DWGPROPS COOKIE
  2

  3

  4

  6

  7

  8
ModuleX
  9

300
=
301
=
302
=
303
=
304
=
305
=
306
=
307
=
308
=
309
=
 40
0.0
 41
2458687.078849086
 42
2459611.287306134
  1

 90
        0
  0
DICTIONARY
  5
230
102
{ACAD_REACTORS
330
22F
102
}
330
22F
100
AcDbDictionary
281
     1
  0
XRECORD
  5
21C
102
{ACAD_REACTORS
330
21B
102
}
330
21B
100
AcDbXrecord
280
     1
290
     1
  0
LAYOUT
  5
1E
102
{ACAD_REACTORS
330
1A
102
}
330
1A
100
AcDbPlotSettings
  1

  2
none_device
  4

  6

 40
0.0
 41
0.0
 42
0.0
 43
0.0
 44
0.0
 45
0.0
 46
0.0
 47
0.0
 48
0.0
 49
0.0
140
0.0
141
0.0
142
1.0
143
1.0
 70
   688
 72
     1
 73
     0
 74
     5
  7

 75
    16
147
1.0
148
0.0
149
0.0
100
AcDbLayout
  1
Layout1
 70
     1
 71
     1
 10
0.0
 20
0.0
 11
420.0
 21
297.0
 12
0.0
 22
0.0
 32
0.0
 14
1.000000000000000E+20
 24
1.000000000000000E+20
 34
1.000000000000000E+20
 15
-1.000000000000000E+20
 25
-1.000000000000000E+20
 35
-1.000000000000000E+20
146
0.0
 13
0.0
 23
0.0
 33
0.0
 16
1.0
 26
0.0
 36
0.0
 17
0.0
 27
1.0
 37
0.0
 76
     0
330
1B
  0
LAYOUT
  5
26
102
{ACAD_REACTORS
330
1A
102
}
330
1A
100
AcDbPlotSettings
  1

  2
none_device
  4

  6

 40
0.0
 41
0.0
 42
0.0
 43
0.0
 44
0.0
 45
0.0
 46
0.0
 47
0.0
 48
0.0
 49
0.0
140
0.0
141
0.0
142
1.0
143
1.0
 70
   688
 72
     1
 73
     0
 74
     5
  7

 75
    16
147
1.0
148
0.0
149
0.0
100
AcDbLayout
  1
Layout2
 70
     1
 71
     2
 10
0.0
 20
0.0
 11
0.0
 21
0.0
 12
0.0
 22
0.0
 32
0.0
 14
0.0
 24
0.0
 34
0.0
 15
0.0
 25
0.0
 35
0.0
146
0.0
 13
0.0
 23
0.0
 33
0.0
 16
1.0
 26
0.0
 36
0.0
 17
0.0
 27
1.0
 37
0.0
 76
     0
330
23
  0
LAYOUT
  5
22
102
{ACAD_REACTORS
330
1A
102
}
330
1A
100
AcDbPlotSettings
  1

  2
none_device
  4
Letter_(8.50_x_11.00_Inches)
  6

 40
6.35
 41
6.35
 42
6.35000508
 43
6.35000508
 44
215.9
 45
279.4
 46
0.0
 47
0.0
 48
0.0
 49
0.0
140
0.0
141
0.0
142
1.0
143
1.0
 70
  1712
 72
     1
 73
     0
 74
     0
  7

 75
     0
147
1.0
148
0.0
149
0.0
100
AcDbLayout
  1
Model
 70
     1
 71
     0
 10
0.0
 20
0.0
 11
1189.0
 21
841.0
 12
0.0
 22
0.0
 32
0.0
 14
365.1889083628785
 24
256.1935185185186
 34
0.0
 15
595.1157694275003
 25
460.3029353636604
 35
0.0
146
0.0
 13
0.0
 23
0.0
 33
0.0
 16
1.0
 26
0.0
 36
0.0
 17
0.0
 27
1.0
 37
0.0
 76
     0
330
1F
331
29
  0
MLINESTYLE
  5
18
102
{ACAD_REACTORS
330
17
102
}
330
17
100
AcDbMlineStyle
  2
Standard
 70
     0
  3

 62
   256
 51
90.0
 52
90.0
 71
     2
 49
0.5
 62
   256
  6
BYLAYER
 49
-0.5
 62
   256
  6
BYLAYER
  0
ACDBPLACEHOLDER
  5
F
102
{ACAD_REACTORS
330
E
102
}
330
E
  0
SCALE
  5
48
102
{ACAD_REACTORS
330
47
102
}
330
47
100
AcDbScale
 70
     0
300
1:1
140
1.0
141
1.0
290
     1
  0
SCALE
  5
49
102
{ACAD_REACTORS
330
47
102
}
330
47
100
AcDbScale
 70
     0
300
1:2
140
1.0
141
2.0
290
     0
  0
SCALE
  5
4A
102
{ACAD_REACTORS
330
47
102
}
330
47
100
AcDbScale
 70
     0
300
1:4
140
1.0
141
4.0
290
     0
  0
SCALE
  5
4B
102
{ACAD_REACTORS
330
47
102
}
330
47
100
AcDbScale
 70
     0
300
1:5
140
1.0
141
5.0
290
     0
  0
SCALE
  5
4C
102
{ACAD_REACTORS
330
47
102
}
330
47
100
AcDbScale
 70
     0
300
1:8
140
1.0
141
8.0
290
     0
  0
SCALE
  5
4D
102
{ACAD_REACTORS
330
47
102
}
330
47
100
AcDbScale
 70
     0
300
1:10
140
1.0
141
10.0
290
     0
  0
SCALE
  5
4E
102
{ACAD_REACTORS
330
47
102
}
330
47
100
AcDbScale
 70
     0
300
1:16
140
1.0
141
16.0
290
     0
  0
SCALE
  5
4F
102
{ACAD_REACTORS
330
47
102
}
330
47
100
AcDbScale
 70
     0
300
1:20
140
1.0
141
20.0
290
     0
  0
SCALE
  5
50
102
{ACAD_REACTORS
330
47
102
}
330
47
100
AcDbScale
 70
     0
300
1:30
140
1.0
141
30.0
290
     0
  0
SCALE
  5
51
102
{ACAD_REACTORS
330
47
102
}
330
47
100
AcDbScale
 70
     0
300
1:40
140
1.0
141
40.0
290
     0
  0
SCALE
  5
52
102
{ACAD_REACTORS
330
47
102
}
330
47
100
AcDbScale
 70
     0
300
1:50
140
1.0
141
50.0
290
     0
  0
SCALE
  5
53
102
{ACAD_REACTORS
330
47
102
}
330
47
100
AcDbScale
 70
     0
300
1:100
140
1.0
141
100.0
290
     0
  0
SCALE
  5
54
102
{ACAD_REACTORS
330
47
102
}
330
47
100
AcDbScale
 70
     0
300
2:1
140
2.0
141
1.0
290
     0
  0
SCALE
  5
55
102
{ACAD_REACTORS
330
47
102
}
330
47
100
AcDbScale
 70
     0
300
4:1
140
4.0
141
1.0
290
     0
  0
SCALE
  5
56
102
{ACAD_REACTORS
330
47
102
}
330
47
100
AcDbScale
 70
     0
300
8:1
140
8.0
141
1.0
290
     0
  0
SCALE
  5
57
102
{ACAD_REACTORS
330
47
102
}
330
47
100
AcDbScale
 70
     0
300
10:1
140
10.0
141
1.0
290
     0
  0
SCALE
  5
58
102
{ACAD_REACTORS
330
47
102
}
330
47
100
AcDbScale
 70
     0
300
100:1
140
100.0
141
1.0
290
     0
  0
SCALE
  5
59
102
{ACAD_REACTORS
330
47
102
}
330
47
100
AcDbScale
 70
     0
300
1/128" = 1'-0"
140
0.0078125
141
12.0
290
     0
  0
SCALE
  5
5A
102
{ACAD_REACTORS
330
47
102
}
330
47
100
AcDbScale
 70
     0
300
1/64" = 1'-0"
140
0.015625
141
12.0
290
     0
  0
SCALE
  5
5B
102
{ACAD_REACTORS
330
47
102
}
330
47
100
AcDbScale
 70
     0
300
1/32" = 1'-0"
140
0.03125
141
12.0
290
     0
  0
SCALE
  5
5C
102
{ACAD_REACTORS
330
47
102
}
330
47
100
AcDbScale
 70
     0
300
1/16" = 1'-0"
140
0.0625
141
12.0
290
     0
  0
SCALE
  5
5D
102
{ACAD_REACTORS
330
47
102
}
330
47
100
AcDbScale
 70
     0
300
3/32" = 1'-0"
140
0.09375
141
12.0
290
     0
  0
SCALE
  5
5E
102
{ACAD_REACTORS
330
47
102
}
330
47
100
AcDbScale
 70
     0
300
1/8" = 1'-0"
140
0.125
141
12.0
290
     0
  0
SCALE
  5
5F
102
{ACAD_REACTORS
330
47
102
}
330
47
100
AcDbScale
 70
     0
300
3/16" = 1'-0"
140
0.1875
141
12.0
290
     0
  0
SCALE
  5
60
102
{ACAD_REACTORS
330
47
102
}
330
47
100
AcDbScale
 70
     0
300
1/4" = 1'-0"
140
0.25
141
12.0
290
     0
  0
SCALE
  5
61
102
{ACAD_REACTORS
330
47
102
}
330
47
100
AcDbScale
 70
     0
300
3/8" = 1'-0"
140
0.375
141
12.0
290
     0
  0
SCALE
  5
62
102
{ACAD_REACTORS
330
47
102
}
330
47
100
AcDbScale
 70
     0
300
1/2" = 1'-0"
140
0.5
141
12.0
290
     0
  0
SCALE
  5
63
102
{ACAD_REACTORS
330
47
102
}
330
47
100
AcDbScale
 70
     0
300
3/4" = 1'-0"
140
0.75
141
12.0
290
     0
  0
SCALE
  5
64
102
{ACAD_REACTORS
330
47
102
}
330
47
100
AcDbScale
 70
     0
300
1" = 1'-0"
140
1.0
141
12.0
290
     0
  0
SCALE
  5
65
102
{ACAD_REACTORS
330
47
102
}
330
47
100
AcDbScale
 70
     0
300
1-1/2" = 1'-0"
140
1.5
141
12.0
290
     0
  0
SCALE
  5
66
102
{ACAD_REACTORS
330
47
102
}
330
47
100
AcDbScale
 70
     0
300
3" = 1'-0"
140
3.0
141
12.0
290
     0
  0
SCALE
  5
67
102
{ACAD_REACTORS
330
47
102
}
330
47
100
AcDbScale
 70
     0
300
6" = 1'-0"
140
6.0
141
12.0
290
     0
  0
SCALE
  5
68
102
{ACAD_REACTORS
330
47
102
}
330
47
100
AcDbScale
 70
     0
300
1'-0" = 1'-0"
140
12.0
141
12.0
290
     0
  0
ENDSEC
  0
EOF
