  0
SECTION
  2
HEADER
  9
$ACADVER
  1
AC1015
  9
$ACADMAINTVER
 70
     6
  9
$DWGCODEPAGE
  3
ANSI_932
  9
$INSBASE
 10
0.0
 20
0.0
 30
0.0
  9
$EXTMIN
 10
365.18891466067
 20
256.1935185185186
 30
0.0
  9
$EXTMAX
 10
595.1157760526642
 20
460.302930604984
 30
0.0
  9
$LIMMIN
 10
0.0
 20
0.0
  9
$LIMMAX
 10
1189.0
 20
841.0
  9
$ORTHOMODE
 70
     0
  9
$REGENMODE
 70
     1
  9
$FILLMODE
 70
     1
  9
$QTEXTMODE
 70
     0
  9
$MIRRTEXT
 70
     1
  9
$LTSCALE
 40
1.0
  9
$ATTMODE
 70
     1
  9
$TEXTSIZE
 40
3.5
  9
$TRACEWID
 40
1.0
  9
$TEXTSTYLE
  7
Standard
  9
$CLAYER
  8
0
  9
$CELTYPE
  6
ByLayer
  9
$CECOLOR
 62
   256
  9
$CELTSCALE
 40
1.0
  9
$DISPSILH
 70
     0
  9
$DIMSCALE
 40
1.0
  9
$DIMASZ
 40
3.302
  9
$DIMEXO
 40
1.0
  9
$DIMDLI
 40
3.75
  9
$DIMRND
 40
0.0
  9
$DIMDLE
 40
0.0
  9
$DIMEXE
 40
1.0
  9
$DIMTP
 40
0.0
  9
$DIMTM
 40
0.0
  9
$DIMTXT
 40
3.5
  9
$DIMCEN
 40
2.5
  9
$DIMTSZ
 40
0.0
  9
$DIMTOL
 70
     0
  9
$DIMLIM
 70
     0
  9
$DIMTIH
 70
     1
  9
$DIMTOH
 70
     1
  9
$DIMSE1
 70
     0
  9
$DIMSE2
 70
     0
  9
$DIMTAD
 70
     1
  9
$DIMZIN
 70
     0
  9
$DIMBLK
  1

  9
$DIMASO
 70
     1
  9
$DIMSHO
 70
     1
  9
$DIMPOST
  1

  9
$DIMAPOST
  1

  9
$DIMALT
 70
     0
  9
$DIMALTD
 70
     3
  9
$DIMALTF
 40
0.0393700787401575
  9
$DIMLFAC
 40
1.0
  9
$DIMTOFL
 70
     1
  9
$DIMTVP
 40
0.0
  9
$DIMTIX
 70
     0
  9
$DIMSOXD
 70
     0
  9
$DIMSAH
 70
     0
  9
$DIMBLK1
  1

  9
$DIMBLK2
  1

  9
$DIMSTYLE
  2
ISO-25
  9
$DIMCLRD
 70
     0
  9
$DIMCLRE
 70
     0
  9
$DIMCLRT
 70
     0
  9
$DIMTFAC
 40
1.0
  9
$DIMGAP
 40
1.524
  9
$DIMJUST
 70
     0
  9
$DIMSD1
 70
     0
  9
$DIMSD2
 70
     0
  9
$DIMTOLJ
 70
     0
  9
$DIMTZIN
 70
     0
  9
$DIMALTZ
 70
     0
  9
$DIMALTTZ
 70
     0
  9
$DIMUPT
 70
     0
  9
$DIMDEC
 70
     2
  9
$DIMTDEC
 70
     2
  9
$DIMALTU
 70
     2
  9
$DIMALTTD
 70
     3
  9
$DIMTXSTY
  7
Standard
  9
$DIMAUNIT
 70
     0
  9
$DIMADEC
 70
     2
  9
$DIMALTRND
 40
0.0
  9
$DIMAZIN
 70
     0
  9
$DIMDSEP
 70
    44
  9
$DIMATFIT
 70
     3
  9
$DIMFRAC
 70
     0
  9
$DIMLDRBLK
  1

  9
$DIMLUNIT
 70
     2
  9
$DIMLWD
 70
    -2
  9
$DIMLWE
 70
    -2
  9
$DIMTMOVE
 70
     0
  9
$LUNITS
 70
     2
  9
$LUPREC
 70
     2
  9
$SKETCHINC
 40
1.0
  9
$FILLETRAD
 40
10.0
  9
$AUNITS
 70
     0
  9
$AUPREC
 70
     2
  9
$MENU
  1
.
  9
$ELEVATION
 40
0.0
  9
$PELEVATION
 40
0.0
  9
$THICKNESS
 40
0.0
  9
$LIMCHECK
 70
     0
  9
$CHAMFERA
 40
0.0
  9
$CHAMFERB
 40
0.0
  9
$CHAMFERC
 40
0.0
  9
$CHAMFERD
 40
0.0
  9
$SKPOLY
 70
     0
  9
$TDCREATE
 40
2458687.453849051
  9
$TDUCREATE
 40
2458687.078849051
  9
$TDUPDATE
 40
2459611.662813125
  9
$TDUUPDATE
 40
2459611.287813125
  9
$TDINDWG
 40
0.0022308565
  9
$TDUSRTIMER
 40
0.0004094097
  9
$USRTIMER
 70
     1
  9
$ANGBASE
 50
0.0
  9
$ANGDIR
 70
     0
  9
$PDMODE
 70
     0
  9
$PDSIZE
 40
-1.0
  9
$PLINEWID
 40
0.0
  9
$SPLFRAME
 70
     0
  9
$SPLINETYPE
 70
     6
  9
$SPLINESEGS
 70
     8
  9
$HANDSEED
  5
771
  9
$SURFTAB1
 70
     6
  9
$SURFTAB2
 70
     6
  9
$SURFTYPE
 70
     6
  9
$SURFU
 70
     6
  9
$SURFV
 70
     6
  9
$UCSBASE
  2

  9
$UCSNAME
  2

  9
$UCSORG
 10
0.0
 20
0.0
 30
0.0
  9
$UCSXDIR
 10
1.0
 20
0.0
 30
0.0
  9
$UCSYDIR
 10
0.0
 20
1.0
 30
0.0
  9
$UCSORTHOREF
  2

  9
$UCSORTHOVIEW
 70
     1
  9
$UCSORGTOP
 10
0.0
 20
0.0
 30
0.0
  9
$UCSORGBOTTOM
 10
0.0
 20
0.0
 30
0.0
  9
$UCSORGLEFT
 10
0.0
 20
0.0
 30
0.0
  9
$UCSORGRIGHT
 10
0.0
 20
0.0
 30
0.0
  9
$UCSORGFRONT
 10
0.0
 20
0.0
 30
0.0
  9
$UCSORGBACK
 10
0.0
 20
0.0
 30
0.0
  9
$PUCSBASE
  2

  9
$PUCSNAME
  2

  9
$PUCSORG
 10
0.0
 20
0.0
 30
0.0
  9
$PUCSXDIR
 10
1.0
 20
0.0
 30
0.0
  9
$PUCSYDIR
 10
0.0
 20
1.0
 30
0.0
  9
$PUCSORTHOREF
  2

  9
$PUCSORTHOVIEW
 70
     0
  9
$PUCSORGTOP
 10
0.0
 20
0.0
 30
0.0
  9
$PUCSORGBOTTOM
 10
0.0
 20
0.0
 30
0.0
  9
$PUCSORGLEFT
 10
0.0
 20
0.0
 30
0.0
  9
$PUCSORGRIGHT
 10
0.0
 20
0.0
 30
0.0
  9
$PUCSORGFRONT
 10
0.0
 20
0.0
 30
0.0
  9
$PUCSORGBACK
 10
0.0
 20
0.0
 30
0.0
  9
$USERI1
 70
     0
  9
$USERI2
 70
     0
  9
$USERI3
 70
     0
  9
$USERI4
 70
     0
  9
$USERI5
 70
     0
  9
$USERR1
 40
0.0
  9
$USERR2
 40
0.0
  9
$USERR3
 40
0.0
  9
$USERR4
 40
0.0
  9
$USERR5
 40
0.0
  9
$WORLDVIEW
 70
     1
  9
$SHADEDGE
 70
     3
  9
$SHADEDIF
 70
    70
  9
$TILEMODE
 70
     1
  9
$MAXACTVP
 70
    64
  9
$PINSBASE
 10
0.0
 20
0.0
 30
0.0
  9
$PLIMCHECK
 70
     0
  9
$PEXTMIN
 10
1.000000000000000E+20
 20
1.000000000000000E+20
 30
1.000000000000000E+20
  9
$PEXTMAX
 10
-1.000000000000000E+20
 20
-1.000000000000000E+20
 30
-1.000000000000000E+20
  9
$PLIMMIN
 10
0.0
 20
0.0
  9
$PLIMMAX
 10
0.0
 20
0.0
  9
$UNITMODE
 70
     0
  9
$VISRETAIN
 70
     1
  9
$PLINEGEN
 70
     0
  9
$PSLTSCALE
 70
     1
  9
$TREEDEPTH
 70
  3020
  9
$CMLSTYLE
  2
Standard
  9
$CMLJUST
 70
     0
  9
$CMLSCALE
 40
20.0
  9
$PROXYGRAPHICS
 70
     1
  9
$MEASUREMENT
 70
     1
  9
$CELWEIGHT
370
    -1
  9
$ENDCAPS
280
     0
  9
$JOINSTYLE
280
     0
  9
$LWDISPLAY
290
     1
  9
$INSUNITS
 70
     4
  9
$HYPERLINKBASE
  1

  9
$STYLESHEET
  1

  9
$XEDIT
290
     1
  9
$CEPSNTYPE
380
     0
  9
$PSTYLEMODE
290
     1
  9
$FINGERPRINTGUID
  2
{5A54540F-9E90-4C4F-B401-B83331D554B4}
  9
$VERSIONGUID
  2
{FAEB1C32-E019-11D5-929B-00C0DF256EC4}
  9
$EXTNAMES
290
     1
  9
$PSVPSCALE
 40
0.0
  9
$OLESTARTUP
290
     0
  0
ENDSEC
  0
SECTION
  2
CLASSES
  0
CLASS
  1
ACDBDICTIONARYWDFLT
  2
AcDbDictionaryWithDefault
  3
ObjectDBX Classes
 90
        0
280
     0
281
     0
  0
CLASS
  1
VISUALSTYLE
  2
AcDbVisualStyle
  3
ObjectDBX Classes
 90
     4095
280
     0
281
     0
  0
CLASS
  1
MATERIAL
  2
AcDbMaterial
  3
ObjectDBX Classes
 90
     1153
280
     0
281
     0
  0
CLASS
  1
SCALE
  2
AcDbScale
  3
ObjectDBX Classes
 90
     1153
280
     0
281
     0
  0
CLASS
  1
TABLESTYLE
  2
AcDbTableStyle
  3
ObjectDBX Classes
 90
     4095
280
     0
281
     0
  0
CLASS
  1
MLEADERSTYLE
  2
AcDbMLeaderStyle
  3
ACDB_MLEADERSTYLE_CLASS
 90
     4095
280
     0
281
     0
  0
CLASS
  1
SUN
  2
AcDbSun
  3
SCENEOE
 90
     1153
280
     0
281
     0
  0
CLASS
  1
ACDBPLACEHOLDER
  2
AcDbPlaceHolder
  3
ObjectDBX Classes
 90
        0
280
     0
281
     0
  0
CLASS
  1
LAYOUT
  2
AcDbLayout
  3
ObjectDBX Classes
 90
        0
280
     0
281
     0
  0
CLASS
  1
DICTIONARYVAR
  2
AcDbDictionaryVar
  3
ObjectDBX Classes
 90
        0
280
     0
281
     0
  0
ENDSEC
  0
SECTION
  2
TABLES
  0
TABLE
  2
VPORT
  5
8
330
0
100
AcDbSymbolTable
 70
     1
  0
VPORT
  5
29
330
8
100
AcDbSymbolTableRecord
100
AcDbViewportTableRecord
  2
*Active
 70
     0
 10
0.0
 20
0.0
 11
1.0
 21
1.0
 12
480.1523453566681
 22
358.2482245617513
 13
0.0
 23
0.0
 14
10.0
 24
10.0
 15
10.0
 25
10.0
 16
0.0
 26
0.0
 36
1.0
 17
0.0
 27
0.0
 37
0.0
 40
208.1916003281947
 41
1.972805933250927
 42
50.0
 43
0.0
 44
0.0
 50
0.0
 51
0.0
 71
    16
 72
  2000
 73
     1
 74
     3
 75
     0
 76
     0
 77
     0
 78
     0
281
     0
 65
     1
110
0.0
120
0.0
130
0.0
111
1.0
121
0.0
131
0.0
112
0.0
122
1.0
132
0.0
 79
     1
146
0.0
  0
ENDTAB
  0
TABLE
  2
LTYPE
  5
5
330
0
100
AcDbSymbolTable
 70
     6
  0
LTYPE
  5
14
330
5
100
AcDbSymbolTableRecord
100
AcDbLinetypeTableRecord
  2
ByBlock
 70
     0
  3

 72
    65
 73
     0
 40
0.0
  0
LTYPE
  5
15
330
5
100
AcDbSymbolTableRecord
100
AcDbLinetypeTableRecord
  2
ByLayer
 70
     0
  3

 72
    65
 73
     0
 40
0.0
  0
LTYPE
  5
16
330
5
100
AcDbSymbolTableRecord
100
AcDbLinetypeTableRecord
  2
Continuous
 70
     0
  3
Solid line
 72
    65
 73
     0
 40
0.0
  0
LTYPE
  5
6E
330
5
100
AcDbSymbolTableRecord
100
AcDbLinetypeTableRecord
  2
HIDDEN
 70
     0
  3
Hidden __ __ __ __ __ __ __ __ __ __ __ __ __ __
 72
    65
 73
     2
 40
1.905
 49
1.27
 74
     0
 49
-0.635
 74
     0
  0
LTYPE
  5
6F
330
5
100
AcDbSymbolTableRecord
100
AcDbLinetypeTableRecord
  2
PHANTOM
 70
     0
  3
Phantom ______  __  __  ______  __  __  ______
 72
    65
 73
     6
 40
12.7
 49
6.35
 74
     0
 49
-1.27
 74
     0
 49
1.27
 74
     0
 49
-1.27
 74
     0
 49
1.27
 74
     0
 49
-1.27
 74
     0
  0
LTYPE
  5
70
330
5
100
AcDbSymbolTableRecord
100
AcDbLinetypeTableRecord
  2
CENTER
 70
     0
  3
Center ____ _ ____ _ ____ _ ____ _ ____ _ ____
 72
    65
 73
     4
 40
10.16
 49
6.35
 74
     0
 49
-1.27
 74
     0
 49
1.27
 74
     0
 49
-1.27
 74
     0
  0
LTYPE
  5
71
330
5
100
AcDbSymbolTableRecord
100
AcDbLinetypeTableRecord
  2
CENTERX2
 70
     0
  3
Center (2x) ________  __  ________  __  _____
 72
    65
 73
     4
 40
20.32
 49
12.7
 74
     0
 49
-2.54
 74
     0
 49
2.54
 74
     0
 49
-2.54
 74
     0
  0
LTYPE
  5
72
330
5
100
AcDbSymbolTableRecord
100
AcDbLinetypeTableRecord
  2
DOT2
 70
     0
  3
Dot (.5x) ........................................
 72
    65
 73
     2
 40
0.635
 49
0.0
 74
     0
 49
-0.635
 74
     0
  0
ENDTAB
  0
TABLE
  2
LAYER
  5
2
102
{ACAD_XDICTIONARY
360
22F
102
}
330
0
100
AcDbSymbolTable
 70
     3
  0
LAYER
  5
10
330
2
100
AcDbSymbolTableRecord
100
AcDbLayerTableRecord
  2
0
 70
     0
 62
     7
  6
Continuous
370
    -3
390
F
  0
LAYER
  5
73
330
2
100
AcDbSymbolTableRecord
100
AcDbLayerTableRecord
  2
FORMAT
 70
     0
 62
     7
  6
Continuous
370
    -3
390
F
  0
LAYER
  5
21A
102
{ACAD_XDICTIONARY
360
21B
102
}
330
2
100
AcDbSymbolTableRecord
100
AcDbLayerTableRecord
  2
寸法線
 70
     0
 62
     7
  6
Continuous
370
    -3
390
F
  0
ENDTAB
  0
TABLE
  2
STYLE
  5
3
330
0
100
AcDbSymbolTable
 70
     3
  0
STYLE
  5
11
330
3
100
AcDbSymbolTableRecord
100
AcDbTextStyleTableRecord
  2
Standard
 70
     0
 40
0.0
 41
1.0
 50
0.0
 71
     0
 42
3.5
  3
txt
  4
bigfont
  0
STYLE
  5
E1
330
3
100
AcDbSymbolTableRecord
100
AcDbTextStyleTableRecord
  2
SLDTEXTSTYLE0
 70
     0
 40
0.0
 41
0.75
 50
0.0
 71
     0
 42
3.5
  3
TXT
  4
bigfont
  0
STYLE
  5
135
330
3
100
AcDbSymbolTableRecord
100
AcDbTextStyleTableRecord
  2
SLDTEXTSTYLE1
 70
     0
 40
0.0
 41
0.65625
 50
0.0
 71
     0
 42
3.5
  3
TXT
  4
bigfont
  0
ENDTAB
  0
TABLE
  2
VIEW
  5
6
330
0
100
AcDbSymbolTable
 70
     0
  0
ENDTAB
  0
TABLE
  2
UCS
  5
7
330
0
100
AcDbSymbolTable
 70
     0
  0
ENDTAB
  0
TABLE
  2
APPID
  5
9
330
0
100
AcDbSymbolTable
 70
     4
  0
APPID
  5
12
330
9
100
AcDbSymbolTableRecord
100
AcDbRegAppTableRecord
  2
ACAD
 70
     0
  0
APPID
  5
227
330
9
100
AcDbSymbolTableRecord
100
AcDbRegAppTableRecord
  2
ACAD_DSTYLE_DIMJAG
 70
     0
  0
APPID
  5
228
330
9
100
AcDbSymbolTableRecord
100
AcDbRegAppTableRecord
  2
ACAD_DSTYLE_DIMTALN
 70
     0
  0
APPID
  5
58A
330
9
100
AcDbSymbolTableRecord
100
AcDbRegAppTableRecord
  2
PE_URL
 70
     0
  0
ENDTAB
  0
TABLE
  2
DIMSTYLE
  5
A
330
0
100
AcDbSymbolTable
 70
     8
100
AcDbDimStyleTable
  0
DIMSTYLE
105
27
330
A
100
AcDbSymbolTableRecord
100
AcDbDimStyleTableRecord
  2
ISO-25
 70
     0
 41
2.5
 42
0.625
 43
3.75
 44
1.25
 73
     0
 74
     0
 77
     1
 78
     8
140
2.5
141
2.5
143
0.03937007874016
147
0.625
171
     3
172
     1
178
     0
271
     2
272
     2
274
     3
278
    44
283
     0
284
     8
340
11
  0
DIMSTYLE
105
220
330
A
100
AcDbSymbolTableRecord
100
AcDbDimStyleTableRecord
  2
STANDARD
 70
     0
 41
2.5
 42
1.5
 43
7.0
 44
1.0
 73
     0
 74
     0
 77
     3
 78
     8
 79
     2
140
3.0
141
0.0
146
0.6
147
1.0
171
     0
172
     1
176
     8
177
     8
271
     3
178
   256
179
     3
271
     3
272
     3
274
     0
289
     0
340
11
341
221
342
221
1001
ACAD_DSTYLE_DIMJAG
1070
   388
1040
1.5
1001
ACAD_DSTYLE_DIMTALN
1070
   392
1070
     0
  0
DIMSTYLE
105
264
330
A
100
AcDbSymbolTableRecord
100
AcDbDimStyleTableRecord
  2
STANDARD$0
 70
     0
 41
2.5
 42
1.0
 43
4.0
 44
1.0
 73
     0
 74
     0
 77
     1
 78
     8
140
2.5
145
1.0
147
0.9999999999999991
171
     0
172
     1
176
     8
177
     8
271
     2
178
   256
271
     2
272
     2
274
     0
284
     8
289
     1
340
11
341
265
342
25C
371
    -1
372
    -1
1001
ACAD_DSTYLE_DIMJAG
1070
   388
1040
1.5
1001
ACAD_DSTYLE_DIMTALN
1070
   392
1070
     0
  0
DIMSTYLE
105
26B
330
A
100
AcDbSymbolTableRecord
100
AcDbDimStyleTableRecord
  2
STANDARD-1
 70
     0
 41
4.0
 42
3.0
 43
2.0
 44
2.0
 73
     0
 74
     0
 77
     3
 78
     8
 79
     2
140
5.0
141
0.0
147
2.0
172
     1
176
   252
177
   252
178
     0
179
     2
271
     2
272
     2
288
     1
289
     0
340
11
341
25C
342
25C
1001
ACAD_DSTYLE_DIMJAG
1070
   388
1040
1.5
1001
ACAD_DSTYLE_DIMTALN
1070
   392
1070
     0
  0
DIMSTYLE
105
57D
330
A
100
AcDbSymbolTableRecord
100
AcDbDimStyleTableRecord
  2
SLDDIMSTYLE1
 70
     0
 41
2.5
 44
0.0
 45
0.000000001
 47
0.4
 48
0.4
 71
     1
 73
     0
 74
     0
 77
     3
 78
    12
 79
     3
140
4.0
147
1.0
173
     1
178
     0
271
     1
272
     1
276
     2
284
     8
340
E1
341
221
343
221
344
221
  0
DIMSTYLE
105
585
330
A
100
AcDbSymbolTableRecord
100
AcDbDimStyleTableRecord
  2
SLDDIMSTYLE3
 70
     0
 41
2.5
 44
0.0
 45
0.000000001
146
2.5
147
0.0
173
     1
178
     0
271
     0
272
     0
276
     2
340
11
341
221
343
221
344
221
  0
DIMSTYLE
105
586
330
A
100
AcDbSymbolTableRecord
100
AcDbDimStyleTableRecord
  2
SLDDIMSTYLE4
 70
     0
 41
2.5
 44
0.0
 45
0.000000001
 47
2.0
 48
2.0
 71
     1
 73
     0
 74
     0
 77
     3
 78
    12
 79
     3
140
4.0
147
1.0
172
     1
173
     1
178
     0
271
     2
272
     2
276
     2
284
     8
289
     0
340
E1
341
221
343
221
344
221
  0
DIMSTYLE
105
587
330
A
100
AcDbSymbolTableRecord
100
AcDbDimStyleTableRecord
  2
STANDARD$2
 70
     0
 41
2.5
 42
1.5
 43
7.0
 44
1.0
 45
0.0
 73
     0
 74
     0
 77
     3
 78
     8
 79
     2
140
3.0
141
0.0
146
0.6
147
1.0
171
     0
172
     1
176
     8
177
     8
271
     3
178
   256
179
     3
271
     3
272
     3
274
     0
284
     8
285
     8
286
     8
289
     0
340
11
341
221
342
221
1001
ACAD_DSTYLE_DIMJAG
1070
   388
1040
1.5
1001
ACAD_DSTYLE_DIMTALN
1070
   392
1070
     0
  0
ENDTAB
  0
TABLE
  2
BLOCK_RECORD
  5
1
330
0
100
AcDbSymbolTable
 70
     6
  0
BLOCK_RECORD
  5
1F
330
1
100
AcDbSymbolTableRecord
100
AcDbBlockTableRecord
  2
*Model_Space
340
22
  0
BLOCK_RECORD
  5
1B
330
1
100
AcDbSymbolTableRecord
100
AcDbBlockTableRecord
  2
*Paper_Space
340
1E
  0
BLOCK_RECORD
  5
23
330
1
100
AcDbSymbolTableRecord
100
AcDbBlockTableRecord
  2
*Paper_Space0
340
26
  0
BLOCK_RECORD
  5
142
330
1
100
AcDbSymbolTableRecord
100
AcDbBlockTableRecord
  2
SW_NOTE_0
340
0
  0
BLOCK_RECORD
  5
221
330
1
100
AcDbSymbolTableRecord
100
AcDbBlockTableRecord
  2
_OPEN30
340
0
  0
BLOCK_RECORD
  5
25C
330
1
100
AcDbSymbolTableRecord
100
AcDbBlockTableRecord
  2
_OPEN
340
0
  0
BLOCK_RECORD
  5
265
330
1
100
AcDbSymbolTableRecord
100
AcDbBlockTableRecord
  2
SUN
340
0
  0
BLOCK_RECORD
  5
630
330
1
100
AcDbSymbolTableRecord
100
AcDbBlockTableRecord
  2
A$C28493
340
0
102
{BLKREFS
331
76F
102
}
  0
ENDTAB
  0
ENDSEC
  0
SECTION
  2
BLOCKS
  0
BLOCK
  5
20
330
1F
100
AcDbEntity
  8
0
100
AcDbBlockBegin
  2
*Model_Space
 70
     0
 10
0.0
 20
0.0
 30
0.0
  3
*Model_Space
  1

  0
ENDBLK
  5
21
330
1F
100
AcDbEntity
  8
0
100
AcDbBlockEnd
  0
BLOCK
  5
1C
330
1B
100
AcDbEntity
 67
     1
  8
0
100
AcDbBlockBegin
  2
*Paper_Space
 70
     0
 10
0.0
 20
0.0
 30
0.0
  3
*Paper_Space
  1

  0
ENDBLK
  5
1D
330
1B
100
AcDbEntity
 67
     1
  8
0
100
AcDbBlockEnd
  0
BLOCK
  5
24
330
23
100
AcDbEntity
  8
0
100
AcDbBlockBegin
  2
*Paper_Space0
 70
     0
 10
0.0
 20
0.0
 30
0.0
  3
*Paper_Space0
  1

  0
ENDBLK
  5
25
330
23
100
AcDbEntity
  8
0
100
AcDbBlockEnd
  0
BLOCK
  5
143
330
142
100
AcDbEntity
  8
0
100
AcDbBlockBegin
  2
SW_NOTE_0
 70
     0
 10
0.0
 20
0.0
 30
0.0
  3
SW_NOTE_0
  1

  0
MTEXT
  5
145
330
142
100
AcDbEntity
  8
0
  6
Continuous
 62
     0
370
     0
100
AcDbMText
 10
0.0
 20
1.933601609657942
 30
0.0
 40
1.5
 41
0.0
 71
     1
 72
     1
  1
指示なき場合：
  7
SLDTEXTSTYLE0
 73
     1
 44
1.0
  0
MTEXT
  5
146
330
142
100
AcDbEntity
  8
0
  6
Continuous
 62
     0
370
     0
100
AcDbMText
 10
0.0
 20
-0.5663983344627033
 30
0.0
 40
1.5
 41
0.0
 71
     1
 72
     1
  1
寸法はミリメータとする　
  7
SLDTEXTSTYLE0
 73
     1
 44
1.0
  0
MTEXT
  5
147
330
142
100
AcDbEntity
  8
0
  6
Continuous
 62
     0
370
     0
100
AcDbMText
 10
0.0
 20
-3.066398278583349
 30
0.0
 40
1.5
 41
0.0
 71
     1
 72
     1
  1
表面粗さ：
  7
SLDTEXTSTYLE0
 73
     1
 44
1.0
  0
MTEXT
  5
148
330
142
100
AcDbEntity
  8
0
  6
Continuous
 62
     0
370
     0
100
AcDbMText
 10
0.0
 20
-5.566398222703994
 30
0.0
 40
1.5
 41
0.0
 71
     1
 72
     1
  1
　公差　：
  7
SLDTEXTSTYLE0
 73
     1
 44
1.0
  0
MTEXT
  5
149
330
142
100
AcDbEntity
  8
0
  6
Continuous
 62
     0
370
     0
100
AcDbMText
 10
0.0
 20
-8.06639816682464
 30
0.0
 40
1.5
 41
0.0
 71
     1
 72
     1
  1
　寸法　：
  7
SLDTEXTSTYLE0
 73
     1
 44
1.0
  0
MTEXT
  5
14A
330
142
100
AcDbEntity
  8
0
  6
Continuous
 62
     0
370
     0
100
AcDbMText
 10
0.0
 20
-10.56639811094528
 30
0.0
 40
1.5
 41
0.0
 71
     1
 72
     1
  1
　角度　：
  7
SLDTEXTSTYLE0
 73
     1
 44
1.0
  0
ENDBLK
  5
144
330
142
100
AcDbEntity
  8
0
100
AcDbBlockEnd
  0
BLOCK
  5
222
330
221
100
AcDbEntity
  8
0
100
AcDbBlockBegin
  2
_OPEN30
 70
     0
 10
0.0
 20
0.0
 30
0.0
  3
_OPEN30
  1

  0
LINE
  5
223
330
221
100
AcDbEntity
  8
0
  6
ByBlock
 62
     0
100
AcDbLine
 10
-1.0
 20
0.26794919
 30
0.0
 11
0.0
 21
0.0
 31
0.0
  0
LINE
  5
224
330
221
100
AcDbEntity
  8
0
  6
ByBlock
 62
     0
100
AcDbLine
 10
0.0
 20
0.0
 30
0.0
 11
-1.0
 21
-0.26794919
 31
0.0
  0
LINE
  5
225
330
221
100
AcDbEntity
  8
0
  6
ByBlock
 62
     0
100
AcDbLine
 10
0.0
 20
0.0
 30
0.0
 11
-1.0
 21
0.0
 31
0.0
  0
ENDBLK
  5
226
330
221
100
AcDbEntity
  8
0
100
AcDbBlockEnd
  0
BLOCK
  5
25D
330
25C
100
AcDbEntity
  8
0
100
AcDbBlockBegin
  2
_OPEN
 70
     0
 10
0.0
 20
0.0
 30
0.0
  3
_OPEN
  1

  0
LINE
  5
25E
330
25C
100
AcDbEntity
  8
0
  6
ByBlock
 62
     0
100
AcDbLine
 10
-1.0
 20
0.1666666666666667
 30
0.0
 11
0.0
 21
0.0
 31
0.0
  0
LINE
  5
25F
330
25C
100
AcDbEntity
  8
0
  6
ByBlock
 62
     0
100
AcDbLine
 10
0.0
 20
0.0
 30
0.0
 11
-1.0
 21
-0.1666666666666667
 31
0.0
  0
LINE
  5
260
330
25C
100
AcDbEntity
  8
0
  6
ByBlock
 62
     0
100
AcDbLine
 10
0.0
 20
0.0
 30
0.0
 11
-1.0
 21
0.0
 31
0.0
  0
ENDBLK
  5
261
330
25C
100
AcDbEntity
  8
0
100
AcDbBlockEnd
  0
BLOCK
  5
266
330
265
100
AcDbEntity
  8
0
100
AcDbBlockBegin
  2
SUN
 70
     0
 10
0.0
 20
0.0
 30
0.0
  3
SUN
  1

  0
LINE
  5
267
330
265
100
AcDbEntity
  8
0
100
AcDbLine
 10
-0.0000000000000568
 20
0.0
 30
0.0
 11
-1.500000000000057
 21
0.0
 31
0.0
  0
LINE
  5
268
330
265
100
AcDbEntity
  8
0
100
AcDbLine
 10
-0.0000000000000568
 20
0.0000000000000284
 30
0.0
 11
-1.500000000000057
 21
0.401923788646684
 31
0.0
  0
LINE
  5
269
330
265
100
AcDbEntity
  8
0
100
AcDbLine
 10
-0.0000000000000568
 20
0.0000000000000284
 30
0.0
 11
-1.500000000000057
 21
-0.4019237886466556
 31
0.0
  0
ENDBLK
  5
26A
330
265
100
AcDbEntity
  8
0
100
AcDbBlockEnd
  0
BLOCK
  5
76D
330
630
100
AcDbEntity
  8
0
100
AcDbBlockBegin
  2
A$C28493
 70
     0
 10
0.0
 20
0.0
 30
0.0
  3
A$C28493
  1

  0
LINE
  5
647
102
{ACAD_REACTORS
102
}
330
630
100
AcDbEntity
  8
0
  6
Continuous
 62
     7
370
     5
100
AcDbLine
 10
9.310642078093224
 20
148.4975069538159
 30
0.0
 11
3.623393744845089
 21
151.7806855321796
 31
0.0
1001
PE_URL
1000

  0
LINE
  5
648
102
{ACAD_REACTORS
102
}
330
630
100
AcDbEntity
  8
0
  6
Continuous
 62
     7
370
     5
100
AcDbLine
 10
16.46226335988104
 20
132.3563197400508
 30
0.0
 11
226.4729773722902
 21
11.11971513437675
 31
0.0
1001
PE_URL
1000

  0
LINE
  5
649
102
{ACAD_REACTORS
102
}
330
630
100
AcDbEntity
  8
0
  6
Continuous
 62
     7
370
     5
100
AcDbLine
 10
9.991500564410671
 20
139.1739215802918
 30
0.0
 11
12.08182625182599
 21
137.9672022466948
 31
0.0
1001
PE_URL
1000

  0
SPLINE
  5
64A
102
{ACAD_REACTORS
102
}
330
630
100
AcDbEntity
  8
0
  6
Continuous
 62
     7
370
     5
100
AcDbSpline
210
0.0
220
0.0
230
1.0
 70
     8
 71
     3
 72
     9
 73
     5
 74
     0
 42
0.000000001
 43
0.00000001
 40
0.0
 40
0.0
 40
0.0
 40
0.0
 40
0.6546498185723544
 40
1.0
 40
1.0
 40
1.0
 40
1.0
 10
7.512664300669712
 20
147.4595564763076
 30
0.0
 10
7.381859061697469
 20
147.463028316095
 30
0.0
 10
7.18204958302158
 20
147.4683316701776
 30
0.0
 10
7.006898857023771
 20
147.4036545421332
 30
0.0
 10
6.946410522021324
 20
147.3813182842277
 30
0.0
1001
PE_URL
1000

  0
LINE
  5
64B
102
{ACAD_REACTORS
102
}
330
630
100
AcDbEntity
  8
0
  6
Continuous
 62
     7
370
     5
100
AcDbLine
 10
16.19058249379668
 20
142.5191404413745
 30
0.0
 11
16.04916113755826
 21
142.6007812525568
 31
0.0
1001
PE_URL
1000

  0
LINE
  5
64C
102
{ACAD_REACTORS
102
}
330
630
100
AcDbEntity
  8
0
  6
Continuous
 62
     7
370
     5
100
AcDbLine
 10
14.04932367227957
 20
139.1365858030367
 30
0.0
 11
14.19074502851799
 21
139.0549449918508
 31
0.0
1001
PE_URL
1000

  0
LINE
  5
64D
102
{ACAD_REACTORS
102
}
330
630
100
AcDbEntity
  8
0
  6
Continuous
 62
     7
370
     5
100
AcDbLine
 10
15.29252575522332
 20
141.3455051134697
 30
0.0
 11
15.66380196495811
 21
141.0111605990569
 31
0.0
1001
PE_URL
1000

  0
LINE
  5
64E
102
{ACAD_REACTORS
102
}
330
630
100
AcDbEntity
  8
0
  6
Continuous
 62
     7
370
     5
100
AcDbLine
 10
15.23309016802887
 20
140.2652873643383
 30
0.0
 11
14.75791188988296
 21
140.4195991099878
 31
0.0
1001
PE_URL
1000

  0
LINE
  5
64F
102
{ACAD_REACTORS
102
}
330
630
100
AcDbEntity
  8
0
  6
Continuous
 62
     7
370
     5
100
AcDbLine
 10
3.88692450115559
 20
135.4163898685183
 30
0.0
 11
3.745503144917166
 21
135.498030679697
 31
0.0
1001
PE_URL
1000

  0
LINE
  5
650
102
{ACAD_REACTORS
102
}
330
630
100
AcDbEntity
  8
0
  6
Continuous
 62
     7
370
     5
100
AcDbLine
 10
1.745665679638478
 20
132.0338352301733
 30
0.0
 11
1.887087035876903
 21
131.9521944189946
 31
0.0
1001
PE_URL
1000

  0
LINE
  5
651
102
{ACAD_REACTORS
102
}
330
630
100
AcDbEntity
  8
0
  6
Continuous
 62
     7
370
     5
100
AcDbLine
 10
2.988867762582231
 20
134.2427545406135
 30
0.0
 11
3.360143972309743
 21
133.9084100262007
 31
0.0
1001
PE_URL
1000

  0
LINE
  5
652
102
{ACAD_REACTORS
102
}
330
630
100
AcDbEntity
  8
0
  6
Continuous
 62
     7
370
     5
100
AcDbLine
 10
2.929432175380498
 20
133.1625367914785
 30
0.0
 11
2.45425389724187
 21
133.316848537128
 31
0.0
1001
PE_URL
1000

  0
LINE
  5
653
102
{ACAD_REACTORS
102
}
330
630
100
AcDbEntity
  8
0
  6
Continuous
 62
     7
370
     5
100
AcDbLine
 10
15.40160318810013
 20
132.9686258239199
 30
0.0
 11
16.46226335987376
 21
132.3563197400508
 31
0.0
1001
PE_URL
1000

  0
ARC
  5
654
102
{ACAD_REACTORS
102
}
330
630
100
AcDbEntity
  8
0
  6
Continuous
 62
     7
370
     5
100
AcDbCircle
 10
0.2000000000080036
 20
122.497935151041
 30
0.0
 40
0.1999999999999922
100
AcDbArc
 50
180.0
 51
240.0026882645807
1001
PE_URL
1000

  0
LINE
  5
655
102
{ACAD_REACTORS
102
}
330
630
100
AcDbEntity
  8
0
  6
Continuous
 62
     7
370
     5
100
AcDbLine
 10
0.000000000003638
 20
153.1998696779447
 30
0.0
 11
0.000000000003638
 21
122.497935151041
 31
0.0
1001
PE_URL
1000

  0
LINE
  5
656
102
{ACAD_REACTORS
102
}
330
630
100
AcDbEntity
  8
0
  6
Continuous
 62
     7
370
     5
100
AcDbLine
 10
0.1000081267375208
 20
122.324725378563
 30
0.0
 11
0.8778255860488571
 21
121.8757009170622
 31
0.0
1001
PE_URL
1000

  0
ARC
  5
657
102
{ACAD_REACTORS
102
}
330
630
100
AcDbEntity
  8
0
  6
Continuous
 62
     7
370
     5
100
AcDbCircle
 10
17.87766952966558
 20
163.4049710757281
 30
0.0
 40
0.2000000000000056
100
AcDbArc
 50
60.00268826458073
 51
119.9973117342562
1001
PE_URL
1000

  0
LINE
  5
658
102
{ACAD_REACTORS
102
}
330
630
100
AcDbEntity
  8
0
  6
Continuous
 62
     7
370
     5
100
AcDbLine
 10
18.75547886223285
 20
163.1291563867017
 30
0.0
 11
17.97766140293606
 21
163.5781808482025
 31
0.0
1001
PE_URL
1000

  0
LINE
  5
659
102
{ACAD_REACTORS
102
}
330
630
100
AcDbEntity
  8
0
  6
Continuous
 62
     7
370
     5
100
AcDbLine
 10
17.77767765640237
 20
163.5781808482025
 30
0.0
 11
16.50488545026383
 21
162.8434135475654
 31
0.0
1001
PE_URL
1000

  0
LINE
  5
65A
102
{ACAD_REACTORS
102
}
330
630
100
AcDbEntity
  8
0
  6
Continuous
 62
     7
370
     5
100
AcDbLine
 10
7.147238932939217
 20
147.2486009018285
 30
0.0
 11
5.367685123561387
 21
148.4246183903197
 31
0.0
1001
PE_URL
1000

  0
LINE
  5
65B
102
{ACAD_REACTORS
102
}
330
630
100
AcDbEntity
  8
0
  6
Continuous
 62
     7
370
     5
100
AcDbLine
 10
3.623393744845089
 20
151.7806855321796
 30
0.0
 11
2.562733573064179
 21
152.392991616045
 31
0.0
1001
PE_URL
1000

  0
LINE
  5
65C
102
{ACAD_REACTORS
102
}
330
630
100
AcDbEntity
  8
0
  6
Continuous
 62
     7
370
     5
100
AcDbLine
 10
1.372800332876068
 20
154.1078467510633
 30
0.0
 11
0.1000081267375208
 21
153.373079450419
 31
0.0
1001
PE_URL
1000

  0
ARC
  5
65D
102
{ACAD_REACTORS
102
}
330
630
100
AcDbEntity
  8
0
  6
Continuous
 62
     7
370
     5
100
AcDbCircle
 10
0.2000000000080036
 20
153.1998696779447
 30
0.0
 40
0.2000000000000055
100
AcDbArc
 50
119.9973117358706
 51
180.0
1001
PE_URL
1000

  0
LINE
  5
65E
102
{ACAD_REACTORS
102
}
330
630
100
AcDbEntity
  8
0
  6
Continuous
 62
     7
370
     5
100
AcDbLine
 10
226.4729773722902
 20
11.11971513437675
 30
0.0
 11
227.5336375440638
 21
10.50740905051134
 31
0.0
1001
PE_URL
1000

  0
ARC
  5
65F
102
{ACAD_REACTORS
102
}
330
630
100
AcDbEntity
  8
0
  6
Continuous
 62
     7
370
     5
100
AcDbCircle
 10
229.7268611731597
 20
10.40510139778416
 30
0.0
 40
0.2000000000000069
100
AcDbArc
 50
299.9973117335443
 51
0.0
1001
PE_URL
1000

  0
LINE
  5
660
102
{ACAD_REACTORS
102
}
330
630
100
AcDbEntity
  8
0
  6
Continuous
 62
     7
370
     5
100
AcDbLine
 10
229.2000672232498
 20
9.870055871480872
 30
0.0
 11
229.8268530464229
 21
10.2318916253098
 31
0.0
1001
PE_URL
1000

  0
LINE
  5
661
102
{ACAD_REACTORS
102
}
330
630
100
AcDbEntity
  8
0
  6
Continuous
 62
     7
370
     5
100
AcDbLine
 10
229.9268611731568
 20
10.40510139778416
 30
0.0
 11
229.9268611731568
 21
41.10703592468781
 31
0.0
1001
PE_URL
1000

  0
LINE
  5
662
102
{ACAD_REACTORS
102
}
330
630
100
AcDbEntity
  8
0
  6
Continuous
 62
     7
370
     5
100
AcDbLine
 10
212.1491835167581
 20
0.0267902275263623
 30
0.0
 11
212.7761794928338
 21
0.3887473000395403
 31
0.0
1001
PE_URL
1000

  0
LINE
  5
663
102
{ACAD_REACTORS
102
}
330
630
100
AcDbEntity
  8
0
  6
Continuous
 62
     7
370
     5
100
AcDbLine
 10
211.1713823109276
 20
0.4758146890271746
 30
0.0
 11
211.9491997702316
 21
0.0267902275263623
 31
0.0
1001
PE_URL
1000

  0
ARC
  5
664
102
{ACAD_REACTORS
102
}
330
630
100
AcDbEntity
  8
0
  6
Continuous
 62
     7
370
     5
100
AcDbCircle
 10
212.0491916434949
 20
0.2000000000007276
 30
0.0
 40
0.2000000000000138
100
AcDbArc
 50
240.0026882660044
 51
299.9973117335443
1001
PE_URL
1000

  0
LINE
  5
665
102
{ACAD_REACTORS
102
}
330
630
100
AcDbEntity
  8
0
  6
Continuous
 62
     7
370
     5
100
AcDbLine
 10
229.8268530464229
 20
41.28024569716581
 30
0.0
 11
229.0490355871116
 21
41.72927015866662
 31
0.0
1001
PE_URL
1000

  0
ARC
  5
666
102
{ACAD_REACTORS
102
}
330
630
100
AcDbEntity
  8
0
  6
Continuous
 62
     7
370
     5
100
AcDbCircle
 10
229.7268611731597
 20
41.10703592468781
 30
0.0
 40
0.1999999999999815
100
AcDbArc
 50
0.0
 51
60.00268826690699
1001
PE_URL
1000

  0
ARC
  5
667
102
{ACAD_REACTORS
102
}
330
630
100
AcDbEntity
  8
0
  6
Continuous
 62
     7
370
     5
100
AcDbCircle
 10
-19.96963209653404
 20
138.4958108790488
 30
0.0
 40
27.14299897474206
100
AcDbArc
 50
322.9200794129077
 51
354.6624681578094
1001
PE_URL
1000

  0
LINE
  5
668
102
{ACAD_REACTORS
102
}
330
630
100
AcDbEntity
  8
0
  6
Continuous
 62
     7
370
     5
100
AcDbLine
 10
1.684924240496912
 20
122.1305249607067
 30
0.0
 11
0.9778174593047879
 21
121.7223209047988
 31
0.0
1001
PE_URL
1000

  0
LINE
  5
669
102
{ACAD_REACTORS
102
}
330
630
100
AcDbEntity
  8
0
  6
Continuous
 62
     7
370
     5
100
AcDbLine
 10
0.9778174593047879
 20
121.7223209047988
 30
0.0
 11
0.9778174593047879
 21
121.8856025271634
 31
0.0
1001
PE_URL
1000

  0
LINE
  5
66A
102
{ACAD_REACTORS
102
}
330
630
100
AcDbEntity
  8
0
  6
Continuous
 62
     7
370
     5
100
AcDbLine
 10
2.39203102168176
 20
153.5672798682754
 30
0.0
 11
2.39203102168176
 21
152.3422696003545
 31
0.0
1001
PE_URL
1000

  0
ARC
  5
66B
102
{ACAD_REACTORS
102
}
330
630
100
AcDbEntity
  8
0
  6
Continuous
 62
     7
370
     5
100
AcDbCircle
 10
3.569686116661615
 20
151.7012293766165
 30
0.0
 40
0.0959051092531114
100
AcDbArc
 50
352.74417042773
 51
55.94364917471319
1001
PE_URL
1000

  0
LINE
  5
66C
102
{ACAD_REACTORS
102
}
330
630
100
AcDbEntity
  8
0
  6
Continuous
 62
     7
370
     5
100
AcDbLine
 10
3.664823227820307
 20
151.6891165708839
 30
0.0
 11
3.664823227820307
 21
150.7909216778098
 31
0.0
1001
PE_URL
1000

  0
LINE
  5
66D
102
{ACAD_REACTORS
102
}
330
630
100
AcDbEntity
  8
0
  6
Continuous
 62
     7
370
     5
100
AcDbLine
 10
211.6956382528988
 20
0.8939203550362436
 30
0.0
 11
1.684924240496912
 21
122.1305249607067
 31
0.0
1001
PE_URL
1000

  0
ARC
  5
66E
102
{ACAD_REACTORS
102
}
330
630
100
AcDbEntity
  8
0
  6
Continuous
 62
     7
370
     5
100
AcDbCircle
 10
190.5059052961988
 20
17.01393472776908
 30
0.0
 40
26.6244182312684
100
AcDbArc
 50
322.7380655293279
 51
357.3882006134799
1001
PE_URL
1000

  0
LINE
  5
66F
102
{ACAD_REACTORS
102
}
330
630
100
AcDbEntity
  8
0
  6
Continuous
 62
     7
370
     5
100
AcDbLine
 10
211.6956382528988
 20
0.8939203550362436
 30
0.0
 11
210.9885314717139
 21
0.4857162991247606
 31
0.0
1001
PE_URL
1000

  0
LINE
  5
670
102
{ACAD_REACTORS
102
}
330
630
100
AcDbEntity
  8
0
  6
Continuous
 62
     7
370
     5
100
AcDbLine
 10
210.9885314717139
 20
0.4857162991247606
 30
0.0
 11
0.9778174593047879
 21
121.7223209047988
 31
0.0
1001
PE_URL
1000

  0
LINE
  5
671
102
{ACAD_REACTORS
102
}
330
630
100
AcDbEntity
  8
0
  6
Continuous
 62
     7
370
     5
100
AcDbLine
 10
217.0746100306897
 20
15.867921027173
 30
0.0
 11
7.320273076566082
 21
136.9565223074387
 31
0.0
1001
PE_URL
1000

  0
ARC
  5
672
102
{ACAD_REACTORS
102
}
330
630
100
AcDbEntity
  8
0
  6
Continuous
 62
     7
370
     5
100
AcDbCircle
 10
217.0251696895393
 20
15.80781989757452
 30
0.0
 40
0.0778234740465082
100
AcDbArc
 50
354.7465418365435
 51
50.55863089209048
1001
PE_URL
1000

  0
LINE
  5
673
102
{ACAD_REACTORS
102
}
330
630
100
AcDbEntity
  8
0
  6
Continuous
 62
     7
370
     5
100
AcDbLine
 10
5.106587006648624
 20
148.3257664009034
 30
0.0
 11
3.664823227820307
 21
149.1580789141517
 31
0.0
1001
PE_URL
1000

  0
LINE
  5
674
102
{ACAD_REACTORS
102
}
330
630
100
AcDbEntity
  8
0
  6
Continuous
 62
     7
370
     5
100
AcDbLine
 10
10.24236446224313
 20
149.0353788372631
 30
0.0
 11
2.39203102168176
 21
153.5672798682754
 31
0.0
1001
PE_URL
1000

  0
LINE
  5
675
102
{ACAD_REACTORS
102
}
330
630
100
AcDbEntity
  8
0
  6
Continuous
 62
     7
370
     5
100
AcDbLine
 10
18.93832970144649
 20
163.1192547766041
 30
0.0
 11
18.79690834333815
 21
163.0376139643449
 31
0.0
1001
PE_URL
1000

  0
LINE
  5
676
102
{ACAD_REACTORS
102
}
330
630
100
AcDbEntity
  8
0
  6
Continuous
 62
     7
370
     5
100
AcDbLine
 10
18.93832970144649
 20
163.1192547766041
 30
0.0
 11
18.93832970144649
 21
132.0907039249469
 31
0.0
1001
PE_URL
1000

  0
LINE
  5
677
102
{ACAD_REACTORS
102
}
330
630
100
AcDbEntity
  8
0
  6
Continuous
 62
     7
370
     5
100
AcDbLine
 10
18.93832970144649
 20
132.0907039249469
 30
0.0
 11
18.23122292026164
 21
131.6824998690317
 31
0.0
1001
PE_URL
1000

  0
LWPOLYLINE
  5
678
102
{ACAD_REACTORS
102
}
330
630
100
AcDbEntity
  8
0
  6
Continuous
 62
     7
370
     5
100
AcDbPolyline
 90
        3
 70
   128
 43
0.0
 10
18.23122292026164
 20
131.6824998690317
 10
17.04609798602542
 20
132.061380358442
 10
16.46226335988104
 20
132.3563197400508
1001
PE_URL
1000

  0
LINE
  5
679
102
{ACAD_REACTORS
102
}
330
630
100
AcDbEntity
  8
0
  6
Continuous
 62
     7
370
     5
100
AcDbLine
 10
228.9490437138556
 20
10.85409931927643
 30
0.0
 11
18.93832970144649
 21
132.0907039249469
 31
0.0
1001
PE_URL
1000

  0
LINE
  5
67A
102
{ACAD_REACTORS
102
}
330
630
100
AcDbEntity
  8
0
  6
Continuous
 62
     7
370
     5
100
AcDbLine
 10
228.9490437138556
 20
10.85409931927643
 30
0.0
 11
228.2419369326635
 21
10.44589526336131
 31
0.0
1001
PE_URL
1000

  0
LINE
  5
67B
102
{ACAD_REACTORS
102
}
330
630
100
AcDbEntity
  8
0
  6
Continuous
 62
     7
370
     5
100
AcDbLine
 10
228.2419369326635
 20
10.44589526336131
 30
0.0
 11
18.23122292026164
 21
131.6824998690317
 31
0.0
1001
PE_URL
1000

  0
LINE
  5
67C
102
{ACAD_REACTORS
102
}
330
630
100
AcDbEntity
  8
0
  6
Continuous
 62
     7
370
     5
100
AcDbLine
 10
228.9490437138556
 20
41.88265017092999
 30
0.0
 11
18.93832970144649
 21
163.1192547766041
 31
0.0
1001
PE_URL
1000

  0
LINE
  5
67D
102
{ACAD_REACTORS
102
}
330
630
100
AcDbEntity
  8
0
  6
Continuous
 62
     7
370
     5
100
AcDbLine
 10
228.9490437138556
 20
41.88265017092999
 30
0.0
 11
228.9490437138556
 21
10.85409931927643
 31
0.0
1001
PE_URL
1000

  0
LWPOLYLINE
  5
67E
102
{ACAD_REACTORS
102
}
330
630
100
AcDbEntity
  8
0
  6
Continuous
 62
     7
370
     5
100
AcDbPolyline
 90
        3
 70
   128
 43
0.0
 10
228.2419369326635
 20
10.44589526336131
 10
227.0568119984346
 20
10.82477575277153
 10
226.4729773722902
 20
11.11971513437675
1001
PE_URL
1000

  0
LWPOLYLINE
  5
67F
102
{ACAD_REACTORS
102
}
330
630
100
AcDbEntity
  8
0
  6
Continuous
 62
     7
370
     5
100
AcDbPolyline
 90
       19
 70
   128
 43
0.0
 10
15.04924240492619
 20
139.2356019040235
 10
14.56555287962328
 20
139.0548607573764
 10
14.14020344958044
 20
139.0928934060175
 10
13.82449753352921
 20
139.3451125512183
 10
13.65651392428481
 20
139.7810968416998
 10
13.65651392428481
 20
140.3482601375981
 10
13.82449753352921
 20
140.9781941749861
 10
14.14020344958044
 20
141.5949196121182
 10
14.56555287963056
 20
142.1240502593755
 10
15.04924240492619
 20
142.5017651515664
 10
15.53293193022182
 20
142.6825062982134
 10
15.95828136026466
 20
142.6444736495723
 10
16.27398727631589
 20
142.3922545043752
 10
16.44197088556029
 20
141.9562702138901
 10
16.44197088556029
 20
141.3891069179917
 10
16.27398727631589
 20
140.7591728806037
 10
15.95828136026466
 20
140.1424474434716
 10
15.53293193022182
 20
139.6133167962143
 10
15.04924240492619
 20
139.2356019040235
1001
PE_URL
1000

  0
LINE
  5
680
102
{ACAD_REACTORS
102
}
330
630
100
AcDbEntity
  8
0
  6
Continuous
 62
     7
370
     5
100
AcDbLine
 10
15.23309016802887
 20
141.8730114754071
 30
0.0
 11
14.86539464181624
 21
141.6607453663346
 31
0.0
1001
PE_URL
1000

  0
LINE
  5
681
102
{ACAD_REACTORS
102
}
330
630
100
AcDbEntity
  8
0
  6
Continuous
 62
     7
370
     5
100
AcDbLine
 10
14.86539464181624
 20
141.6607453663346
 30
0.0
 11
14.86539464181624
 21
141.2990328605483
 31
0.0
1001
PE_URL
1000

  0
ELLIPSE
  5
682
102
{ACAD_REACTORS
102
}
330
630
100
AcDbEntity
  8
0
  6
Continuous
 62
     7
370
     5
100
AcDbEllipse
 10
14.58042782993653
 20
141.1394124018443
 30
0.0
 11
0.1999830001076646
 21
0.3464199758967367
 31
0.0
210
0.0
220
0.0
230
1.0
 40
0.5860215324410262
 41
3.934333415632201
 42
5.490277059494546
1001
PE_URL
1000

  0
LINE
  5
683
102
{ACAD_REACTORS
102
}
330
630
100
AcDbEntity
  8
0
  6
Continuous
 62
     7
370
     5
100
AcDbLine
 10
14.58466019602565
 20
140.8127865384376
 30
0.0
 11
14.27142494561485
 21
140.6319596773828
 31
0.0
1001
PE_URL
1000

  0
LINE
  5
684
102
{ACAD_REACTORS
102
}
330
630
100
AcDbEntity
  8
0
  6
Continuous
 62
     7
370
     5
100
AcDbLine
 10
14.27142494561485
 20
140.6319596773828
 30
0.0
 11
14.27142494561485
 21
140.2073584552018
 31
0.0
1001
PE_URL
1000

  0
LINE
  5
685
102
{ACAD_REACTORS
102
}
330
630
100
AcDbEntity
  8
0
  6
Continuous
 62
     7
370
     5
100
AcDbLine
 10
14.27142494561485
 20
140.2073584552018
 30
0.0
 11
14.58466019602565
 21
140.3881853162566
 31
0.0
1001
PE_URL
1000

  0
ELLIPSE
  5
686
102
{ACAD_REACTORS
102
}
330
630
100
AcDbEntity
  8
0
  6
Continuous
 62
     7
370
     5
100
AcDbEllipse
 10
14.58042782993653
 20
140.0566728669764
 30
0.0
 11
0.2029770344755271
 21
0.3516029848150879
 31
0.0
210
0.0
220
0.0
230
1.0
 40
0.568868941291259
 41
5.50513457432068
 42
7.061078218194778
1001
PE_URL
1000

  0
LINE
  5
687
102
{ACAD_REACTORS
102
}
330
630
100
AcDbEntity
  8
0
  6
Continuous
 62
     7
370
     5
100
AcDbLine
 10
14.86539464181624
 20
140.2260680859727
 30
0.0
 11
14.86539464181624
 21
139.8643555801864
 31
0.0
1001
PE_URL
1000

  0
LINE
  5
688
102
{ACAD_REACTORS
102
}
330
630
100
AcDbEntity
  8
0
  6
Continuous
 62
     7
370
     5
100
AcDbLine
 10
14.86539464181624
 20
139.8643555801864
 30
0.0
 11
15.23309016802887
 21
140.0766216892589
 31
0.0
1001
PE_URL
1000

  0
LINE
  5
689
102
{ACAD_REACTORS
102
}
330
630
100
AcDbEntity
  8
0
  6
Continuous
 62
     7
370
     5
100
AcDbLine
 10
15.23309016802887
 20
140.0766216892589
 30
0.0
 11
15.23309016802887
 21
140.4383341950452
 31
0.0
1001
PE_URL
1000

  0
ELLIPSE
  5
68A
102
{ACAD_REACTORS
102
}
330
630
100
AcDbEntity
  8
0
  6
Continuous
 62
     7
370
     5
100
AcDbEllipse
 10
15.51805697990858
 20
140.5979546537455
 30
0.0
 11
0.1999830001076646
 21
0.3464199758967084
 31
0.0
210
0.0
220
0.0
230
1.0
 40
0.5860215324410581
 41
0.7927407620424217
 42
2.348684405882708
1001
PE_URL
1000

  0
LINE
  5
68B
102
{ACAD_REACTORS
102
}
330
630
100
AcDbEntity
  8
0
  6
Continuous
 62
     7
370
     5
100
AcDbLine
 10
15.51382461381945
 20
140.9245805171558
 30
0.0
 11
15.82705986422297
 21
141.105407378207
 31
0.0
1001
PE_URL
1000

  0
LINE
  5
68C
102
{ACAD_REACTORS
102
}
330
630
100
AcDbEntity
  8
0
  6
Continuous
 62
     7
370
     5
100
AcDbLine
 10
15.82705986422297
 20
141.105407378207
 30
0.0
 11
15.82705986422297
 21
141.5300086003881
 31
0.0
1001
PE_URL
1000

  0
LINE
  5
68D
102
{ACAD_REACTORS
102
}
330
630
100
AcDbEntity
  8
0
  6
Continuous
 62
     7
370
     5
100
AcDbLine
 10
15.82705986422297
 20
141.5300086003881
 30
0.0
 11
15.51382461381945
 21
141.3491817393333
 31
0.0
1001
PE_URL
1000

  0
ELLIPSE
  5
68E
102
{ACAD_REACTORS
102
}
330
630
100
AcDbEntity
  8
0
  6
Continuous
 62
     7
370
     5
100
AcDbEllipse
 10
15.51805697990858
 20
141.6806941886171
 30
0.0
 11
0.2029770344755271
 21
0.3516029848151021
 31
0.0
210
0.0
220
0.0
230
1.0
 40
0.5688689412912591
 41
2.363541920780622
 42
3.919485564604964
1001
PE_URL
1000

  0
LINE
  5
68F
102
{ACAD_REACTORS
102
}
330
630
100
AcDbEntity
  8
0
  6
Continuous
 62
     7
370
     5
100
AcDbLine
 10
15.23309016802887
 20
141.5112989696208
 30
0.0
 11
15.23309016802887
 21
141.8730114754071
 31
0.0
1001
PE_URL
1000

  0
ARC
  5
690
102
{ACAD_REACTORS
102
}
330
630
100
AcDbEntity
  8
0
  6
Continuous
 62
     7
370
     5
100
AcDbCircle
 10
14.60376744643509
 20
139.8844845656604
 30
0.0
 40
0.926673309321507
100
AcDbArc
 50
243.5315818980854
 51
303.9942420888748
1001
PE_URL
1000

  0
ARC
  5
691
102
{ACAD_REACTORS
102
}
330
630
100
AcDbEntity
  8
0
  6
Continuous
 62
     7
370
     5
100
AcDbCircle
 10
15.60297151909981
 20
141.7092704684728
 30
0.0
 40
1.000587842515825
100
AcDbArc
 50
358.4481460821891
 51
54.03678299634522
1001
PE_URL
1000

  0
LINE
  5
692
102
{ACAD_REACTORS
102
}
330
630
100
AcDbEntity
  8
0
  6
Continuous
 62
     7
370
     5
100
AcDbLine
 10
15.2397283901264
 20
141.4446394108927
 30
0.0
 11
14.86539464181624
 21
141.6607453663346
 31
0.0
1001
PE_URL
1000

  0
LINE
  5
693
102
{ACAD_REACTORS
102
}
330
630
100
AcDbEntity
  8
0
  6
Continuous
 62
     7
370
     5
100
AcDbLine
 10
14.64584358284992
 20
140.4158047148667
 30
0.0
 11
14.27142494561485
 21
140.6319596773828
 31
0.0
1001
PE_URL
1000

  0
LWPOLYLINE
  5
694
102
{ACAD_REACTORS
102
}
330
630
100
AcDbEntity
  8
0
  6
Continuous
 62
     7
370
     5
100
AcDbPolyline
 90
       19
 70
   128
 43
0.0
 10
2.745584412277822
 20
132.1328513311637
 10
2.261894886982191
 20
131.9521101845203
 10
1.836545456932072
 20
131.9901428331614
 10
1.520839540880843
 20
132.2423619783549
 10
1.352855931636441
 20
132.6783462688436
 10
1.352855931636441
 20
133.245509564742
 10
1.520839540880843
 20
133.87544360213
 10
1.836545456932072
 20
134.4921690392621
 10
2.261894886982191
 20
135.0212996865193
 10
2.745584412277822
 20
135.3990145787066
 10
3.229273937573453
 20
135.5797557253536
 10
3.654623367616296
 20
135.5417230767162
 10
3.970329283667525
 20
135.2895039315154
 10
4.138312892911927
 20
134.8535196410303
 10
4.138312892911927
 20
134.2863563451319
 10
3.970329283667525
 20
133.6564223077476
 10
3.654623367616296
 20
133.0396968706154
 10
3.229273937573453
 20
132.5105662233582
 10
2.745584412277822
 20
132.1328513311637
1001
PE_URL
1000

  0
LINE
  5
695
102
{ACAD_REACTORS
102
}
330
630
100
AcDbEntity
  8
0
  6
Continuous
 62
     7
370
     5
100
AcDbLine
 10
2.929432175380498
 20
134.7702609025473
 30
0.0
 11
2.561736649167869
 21
134.5579947934748
 31
0.0
1001
PE_URL
1000

  0
LINE
  5
696
102
{ACAD_REACTORS
102
}
330
630
100
AcDbEntity
  8
0
  6
Continuous
 62
     7
370
     5
100
AcDbLine
 10
2.561736649167869
 20
134.5579947934748
 30
0.0
 11
2.561736649167869
 21
134.1962822876885
 31
0.0
1001
PE_URL
1000

  0
ELLIPSE
  5
697
102
{ACAD_REACTORS
102
}
330
630
100
AcDbEntity
  8
0
  6
Continuous
 62
     7
370
     5
100
AcDbEllipse
 10
2.276769837288157
 20
134.0366618289881
 30
0.0
 11
0.199983000107665
 21
0.3464199758967368
 31
0.0
210
0.0
220
0.0
230
1.0
 40
0.5860215324410236
 41
3.934333415632204
 42
5.490277059466903
1001
PE_URL
1000

  0
LINE
  5
698
102
{ACAD_REACTORS
102
}
330
630
100
AcDbEntity
  8
0
  6
Continuous
 62
     7
370
     5
100
AcDbLine
 10
2.281002203377284
 20
133.7100359655778
 30
0.0
 11
1.967766952973761
 21
133.529209104523
 31
0.0
1001
PE_URL
1000

  0
LINE
  5
699
102
{ACAD_REACTORS
102
}
330
630
100
AcDbEntity
  8
0
  6
Continuous
 62
     7
370
     5
100
AcDbLine
 10
1.967766952973761
 20
133.529209104523
 30
0.0
 11
1.967766952973761
 21
133.1046078823456
 31
0.0
1001
PE_URL
1000

  0
LINE
  5
69A
102
{ACAD_REACTORS
102
}
330
630
100
AcDbEntity
  8
0
  6
Continuous
 62
     7
370
     5
100
AcDbLine
 10
1.967766952973761
 20
133.1046078823456
 30
0.0
 11
2.281002203377284
 21
133.2854347434004
 31
0.0
1001
PE_URL
1000

  0
ELLIPSE
  5
69B
102
{ACAD_REACTORS
102
}
330
630
100
AcDbEntity
  8
0
  6
Continuous
 62
     7
370
     5
100
AcDbEllipse
 10
2.276769837288157
 20
132.953922294113
 30
0.0
 11
0.2029770344755266
 21
0.3516029848150879
 31
0.0
210
0.0
220
0.0
230
1.0
 40
0.568868941291258
 41
5.505134574320678
 42
7.061078218194778
1001
PE_URL
1000

  0
LINE
  5
69C
102
{ACAD_REACTORS
102
}
330
630
100
AcDbEntity
  8
0
  6
Continuous
 62
     7
370
     5
100
AcDbLine
 10
2.561736649167869
 20
133.1233175131092
 30
0.0
 11
2.561736649167869
 21
132.7616050073229
 31
0.0
1001
PE_URL
1000

  0
LINE
  5
69D
102
{ACAD_REACTORS
102
}
330
630
100
AcDbEntity
  8
0
  6
Continuous
 62
     7
370
     5
100
AcDbLine
 10
2.561736649167869
 20
132.7616050073229
 30
0.0
 11
2.929432175380498
 21
132.9738711163991
 31
0.0
1001
PE_URL
1000

  0
LINE
  5
69E
102
{ACAD_REACTORS
102
}
330
630
100
AcDbEntity
  8
0
  6
Continuous
 62
     7
370
     5
100
AcDbLine
 10
2.929432175380498
 20
132.9738711163991
 30
0.0
 11
2.929432175380498
 21
133.3355836221854
 31
0.0
1001
PE_URL
1000

  0
ELLIPSE
  5
69F
102
{ACAD_REACTORS
102
}
330
630
100
AcDbEntity
  8
0
  6
Continuous
 62
     7
370
     5
100
AcDbEllipse
 10
3.214398987267487
 20
133.4952040808894
 30
0.0
 11
0.1999830001076648
 21
0.3464199758967085
 31
0.0
210
0.0
220
0.0
230
1.0
 40
0.5860215324410598
 41
0.7927407620679306
 42
2.348684405882711
1001
PE_URL
1000

  0
LINE
  5
6A0
102
{ACAD_REACTORS
102
}
330
630
100
AcDbEntity
  8
0
  6
Continuous
 62
     7
370
     5
100
AcDbLine
 10
3.210166621171084
 20
133.821829944296
 30
0.0
 11
3.523401871581882
 21
134.0026568053472
 31
0.0
1001
PE_URL
1000

  0
LINE
  5
6A1
102
{ACAD_REACTORS
102
}
330
630
100
AcDbEntity
  8
0
  6
Continuous
 62
     7
370
     5
100
AcDbLine
 10
3.523401871581882
 20
134.0026568053472
 30
0.0
 11
3.523401871581882
 21
134.4272580275319
 31
0.0
1001
PE_URL
1000

  0
LINE
  5
6A2
102
{ACAD_REACTORS
102
}
330
630
100
AcDbEntity
  8
0
  6
Continuous
 62
     7
370
     5
100
AcDbLine
 10
3.523401871581882
 20
134.4272580275319
 30
0.0
 11
3.210166621171084
 21
134.2464311664771
 31
0.0
1001
PE_URL
1000

  0
ELLIPSE
  5
6A3
102
{ACAD_REACTORS
102
}
330
630
100
AcDbEntity
  8
0
  6
Continuous
 62
     7
370
     5
100
AcDbEllipse
 10
3.214398987267487
 20
134.5779436157572
 30
0.0
 11
0.2029770344755266
 21
0.3516029848150879
 31
0.0
210
0.0
220
0.0
230
1.0
 40
0.5688689412912762
 41
2.363541920730901
 42
3.919485564579408
1001
PE_URL
1000

  0
LINE
  5
6A4
102
{ACAD_REACTORS
102
}
330
630
100
AcDbEntity
  8
0
  6
Continuous
 62
     7
370
     5
100
AcDbLine
 10
2.929432175380498
 20
134.408548396761
 30
0.0
 11
2.929432175380498
 21
134.7702609025473
 31
0.0
1001
PE_URL
1000

  0
ARC
  5
6A5
102
{ACAD_REACTORS
102
}
330
630
100
AcDbEntity
  8
0
  6
Continuous
 62
     7
370
     5
100
AcDbCircle
 10
2.300109453786717
 20
132.7817339927897
 30
0.0
 40
0.9266733093094617
100
AcDbArc
 50
243.5315818982375
 51
303.9942420870381
1001
PE_URL
1000

  0
ARC
  5
6A6
102
{ACAD_REACTORS
102
}
330
630
100
AcDbEntity
  8
0
  6
Continuous
 62
     7
370
     5
100
AcDbCircle
 10
3.299313526465994
 20
134.6065198956276
 30
0.0
 40
1.000587842497231
100
AcDbArc
 50
358.4481460844543
 51
54.03678299644601
1001
PE_URL
1000

  0
LINE
  5
6A7
102
{ACAD_REACTORS
102
}
330
630
100
AcDbEntity
  8
0
  6
Continuous
 62
     7
370
     5
100
AcDbLine
 10
2.936070397478034
 20
134.3418888380365
 30
0.0
 11
2.561736649167869
 21
134.5579947934748
 31
0.0
1001
PE_URL
1000

  0
LINE
  5
6A8
102
{ACAD_REACTORS
102
}
330
630
100
AcDbEntity
  8
0
  6
Continuous
 62
     7
370
     5
100
AcDbLine
 10
2.342185590208828
 20
133.3130541420069
 30
0.0
 11
1.967766952973761
 21
133.529209104523
 31
0.0
1001
PE_URL
1000

  0
ARC
  5
6A9
102
{ACAD_REACTORS
102
}
330
630
100
AcDbEntity
  8
0
  6
Continuous
 62
     7
370
     5
100
AcDbCircle
 10
17.87766952966558
 20
132.5117351430163
 30
0.0
 40
0.3074043815823578
100
AcDbArc
 50
62.609672236361
 51
117.390327763639
1001
PE_URL
1000

  0
ARC
  5
6AA
102
{ACAD_REACTORS
102
}
330
630
100
AcDbEntity
  8
0
  6
Continuous
 62
     7
370
     5
100
AcDbCircle
 10
17.71204766563096
 20
132.7986495304613
 30
0.0
 40
0.3073609615145145
100
AcDbArc
 50
302.6054783392876
 51
357.3945215138965
1001
PE_URL
1000

  0
ARC
  5
6AB
102
{ACAD_REACTORS
102
}
330
630
100
AcDbEntity
  8
0
  6
Continuous
 62
     7
370
     5
100
AcDbCircle
 10
18.04329139370748
 20
132.7986495304613
 30
0.0
 40
0.3073609615144614
100
AcDbArc
 50
182.6054784861035
 51
237.3945216587361
1001
PE_URL
1000

  0
LINE
  5
6AC
102
{ACAD_REACTORS
102
}
330
630
100
AcDbEntity
  8
0
  6
Continuous
 62
     7
370
     5
100
AcDbLine
 10
17.73624817342716
 20
132.7846773600068
 30
0.0
 11
17.73624817342716
 21
163.4866118869104
 31
0.0
1001
PE_URL
1000

  0
ARC
  5
6AD
102
{ACAD_REACTORS
102
}
330
630
100
AcDbEntity
  8
0
  6
Continuous
 62
     7
370
     5
100
AcDbCircle
 10
17.87766952966558
 20
163.2136696699199
 30
0.0
 40
0.3074043815823586
100
AcDbArc
 50
62.609672236361
 51
117.390327763639
1001
PE_URL
1000

  0
LINE
  5
6AE
102
{ACAD_REACTORS
102
}
330
630
100
AcDbEntity
  8
0
  6
Continuous
 62
     7
370
     5
100
AcDbLine
 10
18.01909088590401
 20
163.4866118869104
 30
0.0
 11
18.01909088590401
 21
132.7846773600068
 31
0.0
1001
PE_URL
1000

  0
ARC
  5
6AF
102
{ACAD_REACTORS
102
}
330
630
100
AcDbEntity
  8
0
  6
Continuous
 62
     7
370
     5
100
AcDbCircle
 10
18.48986512493502
 20
132.3496250689568
 30
0.0
 40
0.3073609615144695
100
AcDbArc
 50
302.6054783407956
 51
357.394521514574
1001
PE_URL
1000

  0
LINE
  5
6B0
102
{ACAD_REACTORS
102
}
330
630
100
AcDbEntity
  8
0
  6
Continuous
 62
     7
370
     5
100
AcDbLine
 10
18.65548698897692
 20
132.0907039249469
 30
0.0
 11
17.87766952966558
 21
132.5397283864477
 31
0.0
1001
PE_URL
1000

  0
LINE
  5
6B1
102
{ACAD_REACTORS
102
}
330
630
100
AcDbEntity
  8
0
  6
Continuous
 62
     7
370
     5
100
AcDbLine
 10
18.01909088590401
 20
132.7846773600068
 30
0.0
 11
18.79690834520807
 21
132.3356528985059
 31
0.0
1001
PE_URL
1000

  0
LINE
  5
6B2
102
{ACAD_REACTORS
102
}
330
630
100
AcDbEntity
  8
0
  6
Continuous
 62
     7
370
     5
100
AcDbLine
 10
16.96817679250307
 20
132.3412791897899
 30
0.0
 11
17.73624817342716
 21
132.7846773600068
 31
0.0
1001
PE_URL
1000

  0
LINE
  5
6B3
102
{ACAD_REACTORS
102
}
330
630
100
AcDbEntity
  8
0
  6
Continuous
 62
     7
370
     5
100
AcDbLine
 10
17.87766952966558
 20
132.5397283864477
 30
0.0
 11
17.31198410471916
 21
132.2131651417185
 31
0.0
1001
PE_URL
1000

  0
SPLINE
  5
6B4
102
{ACAD_REACTORS
102
}
330
630
100
AcDbEntity
  8
0
  6
Continuous
 62
     7
370
     5
100
AcDbSpline
210
0.0
220
0.0
230
1.0
 70
     8
 71
     3
 72
    12
 73
     8
 74
     0
 42
0.000000001
 43
0.00000001
 40
0.0
 40
0.0
 40
0.0
 40
0.0
 40
0.4480832962971599
 40
0.6390739768471291
 40
0.8319772733508264
 40
0.9300724225914988
 40
0.9999999999999999
 40
0.9999999999999999
 40
0.9999999999999999
 40
0.9999999999999999
 10
16.96817679250307
 20
132.3412791897899
 30
0.0
 10
17.01017711701206
 20
132.3298074095037
 30
0.0
 10
17.07007962764692
 20
132.313445906384
 30
0.0
 10
17.1725977185306
 20
132.2768074778323
 30
0.0
 10
17.23766909238111
 20
132.2503913511282
 30
0.0
 10
17.28576127635824
 20
132.2276985909593
 30
0.0
 10
17.30427787854933
 20
132.2174361549478
 30
0.0
 10
17.31198410471916
 20
132.2131651417185
 30
0.0
1001
PE_URL
1000

  0
LWPOLYLINE
  5
6B5
102
{ACAD_REACTORS
102
}
330
630
100
AcDbEntity
  8
0
  6
Continuous
 62
     7
370
     5
100
AcDbPolyline
 90
       19
 70
   128
 43
0.0
 10
16.60487732353431
 20
141.7667324508002
 10
16.5110610585798
 20
142.3269749659776
 10
16.2409278898449
 20
142.7113260116166
 10
15.82705986422297
 20
142.8734271792018
 10
15.31937557365382
 20
142.7937266755616
 10
14.77910923618401
 20
142.4818375576906
 10
14.27142494561485
 20
141.9753782561966
 10
13.85755692000021
 20
141.3354352373826
 10
13.58742375126531
 20
140.6391950738725
 10
13.49360748631079
 20
139.9706346047933
 10
13.58742375126531
 20
139.4103920896159
 10
13.85755692000021
 20
139.0260410439769
 10
14.27142494561485
 20
138.863939876388
 10
14.77910923618401
 20
138.9436403800282
 10
15.31937557365382
 20
139.2555294978993
 10
15.82705986422297
 20
139.7619887993969
 10
16.2409278898449
 20
140.4019318182072
 10
16.5110610585798
 20
141.098171981721
 10
16.60487732353431
 20
141.7667324508002
1001
PE_URL
1000

  0
LWPOLYLINE
  5
6B6
102
{ACAD_REACTORS
102
}
330
630
100
AcDbEntity
  8
0
  6
Continuous
 62
     7
370
     5
100
AcDbPolyline
 90
       19
 70
   128
 43
0.0
 10
4.301219330885942
 20
134.6639818779404
 10
4.20740306593143
 20
135.2242243931178
 10
3.937269897196529
 20
135.6085754387568
 10
3.523401871581882
 20
135.7706766063457
 10
3.015717581005447
 20
135.6909761027055
 10
2.475451243542921
 20
135.3790869848344
 10
1.967766952973761
 20
134.8726276833368
 10
1.553898927351838
 20
134.2326846645265
 10
1.283765758616937
 20
133.5364445010127
 10
1.189949493662425
 20
132.8678840319335
 10
1.283765758616937
 20
132.3076415167561
 10
1.553898927351838
 20
131.9232904711171
 10
1.967766952973761
 20
131.7611893035319
 10
2.475451243542921
 20
131.8408898071721
 10
3.015717581005447
 20
132.1527789250431
 10
3.523401871581882
 20
132.6592382265371
 10
3.937269897196529
 20
133.2991812453511
 10
4.20740306593143
 20
133.9954214088611
 10
4.301219330885942
 20
134.6639818779404
1001
PE_URL
1000

  0
LWPOLYLINE
  5
6B7
102
{ACAD_REACTORS
102
}
330
630
100
AcDbEntity
  8
0
  6
Continuous
 62
     7
370
     5
100
AcDbPolyline
 90
        9
 70
   128
 43
0.0
 10
11.7998127836363
 20
139.9342376107015
 10
11.75520684066942
 20
140.2086878757545
 10
11.66310125065138
 20
140.4409305463087
 10
11.52670003204912
 20
140.6228867445716
 10
11.35074808713034
 20
140.7482268762287
 10
11.14136614407835
 20
140.8125908139955
 10
10.90583783913098
 20
140.813739570578
 10
10.65235634531928
 20
140.7516331849147
 10
10.38973936186449
 20
140.628432112273
1001
PE_URL
1000

  0
LINE
  5
6B8
102
{ACAD_REACTORS
102
}
330
630
100
AcDbEntity
  8
0
  6
Continuous
 62
     7
370
     5
100
AcDbLine
 10
10.38973936186449
 20
140.628432112273
 30
0.0
 11
7.40508745533225
 21
138.905429241775
 31
0.0
1001
PE_URL
1000

  0
ARC
  5
6B9
102
{ACAD_REACTORS
102
}
330
630
100
AcDbEntity
  8
0
  6
Continuous
 62
     7
370
     5
100
AcDbCircle
 10
9.08579071654458
 20
136.2956772215512
 30
0.0
 40
3.104121302291693
100
AcDbArc
 50
122.7818915419858
 51
174.6853203580875
1001
PE_URL
1000

  0
ARC
  5
6BA
102
{ACAD_REACTORS
102
}
330
630
100
AcDbEntity
  8
0
  6
Continuous
 62
     7
370
     5
100
AcDbCircle
 10
-21.1279179078665
 20
139.1558218055034
 30
0.0
 40
27.24466603113065
100
AcDbArc
 50
323.6904845947435
 51
354.5816777134016
1001
PE_URL
1000

  0
LINE
  5
6BB
102
{ACAD_REACTORS
102
}
330
630
100
AcDbEntity
  8
0
  6
Continuous
 62
     7
370
     5
100
AcDbLine
 10
0.0585786437695788
 20
122.5795759622233
 30
0.0
 11
0.826650024693663
 21
123.0229741324401
 31
0.0
1001
PE_URL
1000

  0
LINE
  5
6BC
102
{ACAD_REACTORS
102
}
330
630
100
AcDbEntity
  8
0
  6
Continuous
 62
     7
370
     5
100
AcDbLine
 10
0.0585786437695788
 20
153.281510489127
 30
0.0
 11
0.0585786437695788
 21
122.5795759622233
 31
0.0
1001
PE_URL
1000

  0
LINE
  5
6BD
102
{ACAD_REACTORS
102
}
330
630
100
AcDbEntity
  8
0
  6
Continuous
 62
     7
370
     5
100
AcDbLine
 10
1.33137084990085
 20
154.0162777897676
 30
0.0
 11
0.0585786437695788
 21
153.281510489127
 31
0.0
1001
PE_URL
1000

  0
LINE
  5
6BE
102
{ACAD_REACTORS
102
}
330
630
100
AcDbEntity
  8
0
  6
Continuous
 62
     7
370
     5
100
AcDbLine
 10
1.33137084990085
 20
154.0162777897676
 30
0.0
 11
1.33137084990085
 21
151.7299635164854
 31
0.0
1001
PE_URL
1000

  0
LINE
  5
6BF
102
{ACAD_REACTORS
102
}
330
630
100
AcDbEntity
  8
0
  6
Continuous
 62
     7
370
     5
100
AcDbLine
 10
1.33137084990085
 20
151.7299635164854
 30
0.0
 11
2.462741699800972
 21
152.3830900059438
 31
0.0
1001
PE_URL
1000

  0
ARC
  5
6C0
102
{ACAD_REACTORS
102
}
330
630
100
AcDbEntity
  8
0
  6
Continuous
 62
     7
370
     5
100
AcDbCircle
 10
2.51794818255803
 20
152.3154080941313
 30
0.0
 40
0.0873418394856999
100
AcDbArc
 50
350.7859630071586
 51
129.203285239955
1001
PE_URL
1000

  0
LINE
  5
6C1
102
{ACAD_REACTORS
102
}
330
630
100
AcDbEntity
  8
0
  6
Continuous
 62
     7
370
     5
100
AcDbLine
 10
2.604163056039397
 20
152.3014226547493
 30
0.0
 11
2.604163056039397
 21
146.8811478037824
 31
0.0
1001
PE_URL
1000

  0
LINE
  5
6C2
102
{ACAD_REACTORS
102
}
330
630
100
AcDbEntity
  8
0
  6
Continuous
 62
     7
370
     5
100
AcDbLine
 10
2.604163056039397
 20
146.8811478037824
 30
0.0
 11
5.264318287099741
 21
148.4168227309165
 31
0.0
1001
PE_URL
1000

  0
ELLIPSE
  5
6C3
102
{ACAD_REACTORS
102
}
330
630
100
AcDbEntity
  8
0
  6
Continuous
 62
     7
370
     5
100
AcDbEllipse
 10
5.264145934448607
 20
148.2533155279125
 30
0.0
 11
0.1001137647704126
 21
0.1734208491335779
 31
0.0
210
0.0
220
0.0
230
1.0
 40
0.5766787367375786
 41
5.498315064820154
 42
7.067893416475596
1001
PE_URL
1000

  0
LINE
  5
6C4
102
{ACAD_REACTORS
102
}
330
630
100
AcDbEntity
  8
0
  6
Continuous
 62
     7
370
     5
100
AcDbLine
 10
5.405653493271529
 20
148.3352051292641
 30
0.0
 11
5.405653493271529
 21
146.243205027964
 31
0.0
1001
PE_URL
1000

  0
LINE
  5
6C5
102
{ACAD_REACTORS
102
}
330
630
100
AcDbEntity
  8
0
  6
Continuous
 62
     7
370
     5
100
AcDbLine
 10
5.405653493271529
 20
146.243205027964
 30
0.0
 11
12.38917332392521
 21
150.2747052133091
 31
0.0
1001
PE_URL
1000

  0
LINE
  5
6C6
102
{ACAD_REACTORS
102
}
330
630
100
AcDbEntity
  8
0
  6
Continuous
 62
     7
370
     5
100
AcDbLine
 10
12.38917332392521
 20
150.2747052133091
 30
0.0
 11
12.38917332392521
 21
152.3667053146091
 31
0.0
1001
PE_URL
1000

  0
ELLIPSE
  5
6C7
102
{ACAD_REACTORS
102
}
330
630
100
AcDbEntity
  8
0
  6
Continuous
 62
     7
370
     5
100
AcDbEllipse
 10
12.53068088274813
 20
152.4481968630025
 30
0.0
 11
0.09999184349458723
 21
0.1732097896632894
 31
0.0
210
0.0
220
0.0
230
1.0
 40
0.5780852101871684
 41
0.7859256885307003
 42
2.355504040123059
1001
PE_URL
1000

  0
LINE
  5
6C8
102
{ACAD_REACTORS
102
}
330
630
100
AcDbEntity
  8
0
  6
Continuous
 62
     7
370
     5
100
AcDbLine
 10
12.53050853009699
 20
152.6115050718727
 30
0.0
 11
15.19066376115734
 21
154.1471799990068
 31
0.0
1001
PE_URL
1000

  0
LINE
  5
6C9
102
{ACAD_REACTORS
102
}
330
630
100
AcDbEntity
  8
0
  6
Continuous
 62
     7
370
     5
100
AcDbLine
 10
15.19066376115734
 20
154.1471799990068
 30
0.0
 11
15.19066376115734
 21
159.5674548499737
 31
0.0
1001
PE_URL
1000

  0
ARC
  5
6CA
102
{ACAD_REACTORS
102
}
330
630
100
AcDbEntity
  8
0
  6
Continuous
 62
     7
370
     5
100
AcDbCircle
 10
15.49770698143038
 20
159.5534826795229
 30
0.0
 40
0.3073609615144461
100
AcDbArc
 50
122.605478339756
 51
177.394521514574
1001
PE_URL
1000

  0
LINE
  5
6CB
102
{ACAD_REACTORS
102
}
330
630
100
AcDbEntity
  8
0
  6
Continuous
 62
     7
370
     5
100
AcDbLine
 10
15.33208511739576
 20
159.8124038235328
 30
0.0
 11
16.46345596729589
 21
160.4655303129912
 31
0.0
1001
PE_URL
1000

  0
LINE
  5
6CC
102
{ACAD_REACTORS
102
}
330
630
100
AcDbEntity
  8
0
  6
Continuous
 62
     7
370
     5
100
AcDbLine
 10
16.46345596729589
 20
160.4655303129912
 30
0.0
 11
16.46345596729589
 21
162.7518445862697
 31
0.0
1001
PE_URL
1000

  0
LINE
  5
6CD
102
{ACAD_REACTORS
102
}
330
630
100
AcDbEntity
  8
0
  6
Continuous
 62
     7
370
     5
100
AcDbLine
 10
17.73624817342716
 20
163.4866118869104
 30
0.0
 11
16.46345596729589
 21
162.7518445862697
 31
0.0
1001
PE_URL
1000

  0
LWPOLYLINE
  5
6CE
102
{ACAD_REACTORS
102
}
330
630
100
AcDbEntity
  8
0
  6
Continuous
 62
     7
370
     5
100
AcDbPolyline
 90
        9
 70
   128
 43
0.0
 10
16.96817679250307
 20
132.3412791897899
 10
15.90852466178694
 20
132.7079736427004
 10
14.9476224511709
 20
133.2593177391136
 10
14.09693862700442
 20
133.9887311307284
 10
13.36662618794435
 20
134.8875081939586
 10
12.76540148779532
 20
135.9449219324197
 10
12.30044020499554
 20
137.1483520047586
 10
11.97729170009188
 20
138.4834353497099
 10
11.7998127836363
 20
139.9342376107015
1001
PE_URL
1000

  0
LINE
  5
6CF
102
{ACAD_REACTORS
102
}
330
630
100
AcDbEntity
  8
0
  6
Continuous
 62
     7
370
     5
100
AcDbLine
 10
18.79690834520807
 20
132.3356528985059
 30
0.0
 11
18.79690834520807
 21
163.0375874254096
 31
0.0
1001
PE_URL
1000

  0
LINE
  5
6D0
102
{ACAD_REACTORS
102
}
330
630
100
AcDbEntity
  8
0
  6
Continuous
 62
     7
370
     5
100
AcDbLine
 10
18.79690834520807
 20
163.0375874254096
 30
0.0
 11
18.01909088590401
 21
163.4866118869104
 31
0.0
1001
PE_URL
1000

  0
LINE
  5
6D1
102
{ACAD_REACTORS
102
}
330
630
100
AcDbEntity
  8
0
  6
Continuous
 62
     7
370
     5
100
AcDbLine
 10
18.79690834520807
 20
132.0090631137609
 30
0.0
 11
18.65548698897692
 21
132.0907039249469
 31
0.0
1001
PE_URL
1000

  0
LINE
  5
6D2
102
{ACAD_REACTORS
102
}
330
630
100
AcDbEntity
  8
0
  6
Continuous
 62
     7
370
     5
100
AcDbLine
 10
18.79690834520807
 20
132.0090631137609
 30
0.0
 11
18.23122292026164
 21
131.6824998690317
 31
0.0
1001
PE_URL
1000

  0
LINE
  5
6D3
102
{ACAD_REACTORS
102
}
330
630
100
AcDbEntity
  8
0
  6
Continuous
 62
     7
370
     5
100
AcDbLine
 10
18.23122292026164
 20
131.6824998690317
 30
0.0
 11
17.31198410471916
 21
132.2131651417185
 31
0.0
1001
PE_URL
1000

  0
LWPOLYLINE
  5
6D4
102
{ACAD_REACTORS
102
}
330
630
100
AcDbEntity
  8
0
  6
Continuous
 62
     7
370
     5
100
AcDbPolyline
 90
        3
 70
   128
 43
0.0
 10
16.46226335987376
 20
132.3563197400508
 10
17.13154086517534
 20
132.0248108432606
 10
18.23122292026164
 20
131.6824998690317
1001
PE_URL
1000

  0
LINE
  5
6D5
102
{ACAD_REACTORS
102
}
330
630
100
AcDbEntity
  8
0
  6
Continuous
 62
     7
370
     5
100
AcDbLine
 10
18.79690834520807
 20
132.0090631137609
 30
0.0
 11
18.79690834520807
 21
132.3356528985059
 31
0.0
1001
PE_URL
1000

  0
LINE
  5
6D6
102
{ACAD_REACTORS
102
}
330
630
100
AcDbEntity
  8
0
  6
Continuous
 62
     7
370
     5
100
AcDbLine
 10
18.79690834520807
 20
163.0375874254096
 30
0.0
 11
18.79690834520807
 21
163.0376139654218
 31
0.0
1001
PE_URL
1000

  0
LINE
  5
6D7
102
{ACAD_REACTORS
102
}
330
630
100
AcDbEntity
  8
0
  6
Continuous
 62
     7
370
     5
100
AcDbLine
 10
1.684924240496912
 20
122.1305249607067
 30
0.0
 11
0.7656854249544267
 21
122.6611902333934
 31
0.0
1001
PE_URL
1000

  0
SPLINE
  5
6D8
102
{ACAD_REACTORS
102
}
330
630
100
AcDbEntity
  8
0
  6
Continuous
 62
     7
370
     5
100
AcDbSpline
210
0.0
220
0.0
230
1.0
 70
     8
 71
     3
 72
    12
 73
     8
 74
     0
 42
0.000000001
 43
0.00000001
 40
0.0
 40
0.0
 40
0.0
 40
0.0
 40
0.1083575554969109
 40
0.2158039789773621
 40
0.3886590225097402
 40
0.6796131254043062
 40
1.0
 40
1.0
 40
1.0
 40
1.0
 10
0.7656854249544267
 20
122.6611902333934
 30
0.0
 10
0.7556484277556592
 20
122.6692890721206
 30
0.0
 10
0.7356588301445299
 20
122.6854186499259
 30
0.0
 10
0.7206921178840275
 20
122.7312146120494
 30
0.0
 10
0.7217326577047061
 20
122.8050845294019
 30
0.0
 10
0.754628266684449
 20
122.9097287745935
 30
0.0
 10
0.8018843960853701
 20
122.9840332269123
 30
0.0
 10
0.826650024693663
 20
123.0229741324401
 30
0.0
1001
PE_URL
1000

  0
LINE
  5
6D9
102
{ACAD_REACTORS
102
}
330
630
100
AcDbEntity
  8
0
  6
Continuous
 62
     7
370
     5
100
AcDbLine
 10
7.055674205341347
 20
135.970892537287
 30
0.0
 11
5.995014033560437
 21
136.5831986211524
 31
0.0
1001
PE_URL
1000

  0
ARC
  5
6DA
102
{ACAD_REACTORS
102
}
330
630
100
AcDbEntity
  8
0
  6
Continuous
 62
     7
370
     5
100
AcDbCircle
 10
-20.16245268348212
 20
138.5706348427084
 30
0.0
 40
27.34200232957608
100
AcDbArc
 50
323.0386081357049
 51
354.5439394350131
1001
PE_URL
1000

  0
LINE
  5
6DB
102
{ACAD_REACTORS
102
}
330
630
100
AcDbEntity
  8
0
  6
Continuous
 62
     7
370
     5
100
AcDbLine
 10
11.4503995336454
 20
140.016126028404
 30
0.0
 11
10.38973936186449
 21
140.628432112273
 31
0.0
1001
PE_URL
1000

  0
LWPOLYLINE
  5
6DC
102
{ACAD_REACTORS
102
}
330
630
100
AcDbEntity
  8
0
  6
Continuous
 62
     7
370
     5
100
AcDbPolyline
 90
        3
 70
   128
 43
0.0
 10
11.4503995336454
 20
140.016126028404
 10
11.71301651710746
 20
140.1393271010493
 10
11.76781874978406
 20
140.1577014252289
1001
PE_URL
1000

  0
LINE
  5
6DD
102
{ACAD_REACTORS
102
}
330
630
100
AcDbEntity
  8
0
  6
Continuous
 62
     7
370
     5
100
AcDbLine
 10
0.7656854249544267
 20
122.6611902333934
 30
0.0
 11
0.2000000000080036
 21
122.3346269886642
 31
0.0
1001
PE_URL
1000

  0
ARC
  5
6DE
102
{ACAD_REACTORS
102
}
330
630
100
AcDbEntity
  8
0
  6
Continuous
 62
     7
370
     5
100
AcDbCircle
 10
0.3656218640353472
 20
122.5935481326778
 30
0.0
 40
0.3073609615144341
100
AcDbArc
 50
182.6054784861035
 51
237.3945216619348
1001
PE_URL
1000

  0
LINE
  5
6DF
102
{ACAD_REACTORS
102
}
330
630
100
AcDbEntity
  8
0
  6
Continuous
 62
     7
370
     5
100
AcDbLine
 10
0.9778174593047879
 20
121.8856025271634
 30
0.0
 11
1.119238815543213
 21
121.8039617159775
 31
0.0
1001
PE_URL
1000

  0
LINE
  5
6E0
102
{ACAD_REACTORS
102
}
330
630
100
AcDbEntity
  8
0
  6
Continuous
 62
     7
370
     5
100
AcDbLine
 10
0.2000000000080036
 20
122.3346269886642
 30
0.0
 11
0.9778174593047879
 21
121.8856025271634
 31
0.0
1001
PE_URL
1000

  0
LINE
  5
6E1
102
{ACAD_REACTORS
102
}
330
630
100
AcDbEntity
  8
0
  6
Continuous
 62
     7
370
     5
100
AcDbLine
 10
1.684924240496912
 20
122.1305249607067
 30
0.0
 11
1.119238815543213
 21
121.8039617159775
 31
0.0
1001
PE_URL
1000

  0
ARC
  5
6E2
102
{ACAD_REACTORS
102
}
330
630
100
AcDbEntity
  8
0
  6
Continuous
 62
     7
370
     5
100
AcDbCircle
 10
0.9192334483341256
 20
121.9673787929823
 30
0.0
 40
0.1005954471803214
100
AcDbArc
 50
245.6928809592791
 51
305.6175774752363
1001
PE_URL
1000

  0
LINE
  5
6E3
102
{ACAD_REACTORS
102
}
330
630
100
AcDbEntity
  8
0
  6
Continuous
 62
     7
370
     5
100
AcDbLine
 10
8.465747627105884
 20
138.2931231579096
 30
0.0
 11
7.40508745533225
 21
138.905429241775
 31
0.0
1001
PE_URL
1000

  0
LINE
  5
6E4
102
{ACAD_REACTORS
102
}
330
630
100
AcDbEntity
  8
0
  6
Continuous
 62
     7
370
     5
100
AcDbLine
 10
8.465747627105884
 20
138.2931231579096
 30
0.0
 11
11.4503995336454
 21
140.016126028404
 31
0.0
1001
PE_URL
1000

  0
ARC
  5
6E5
102
{ACAD_REACTORS
102
}
330
630
100
AcDbEntity
  8
0
  6
Continuous
 62
     7
370
     5
100
AcDbCircle
 10
10.14645088833277
 20
135.6833711376858
 30
0.0
 40
3.104121302291644
100
AcDbArc
 50
122.7818915422561
 51
174.6853203580875
1001
PE_URL
1000

  0
ARC
  5
6E6
102
{ACAD_REACTORS
102
}
330
630
100
AcDbEntity
  8
0
  6
Continuous
 62
     7
370
     5
100
AcDbCircle
 10
18.69890796477193
 20
163.0484047728933
 30
0.0
 40
0.098595585969251
100
AcDbArc
 50
353.7011524706849
 51
54.98666713707911
1001
PE_URL
1000

  0
ARC
  5
6E7
102
{ACAD_REACTORS
102
}
330
630
100
AcDbEntity
  8
0
  6
Continuous
 62
     7
370
     5
100
AcDbCircle
 10
16.55859307844003
 20
162.763957392006
 30
0.0
 40
0.0959051092530658
100
AcDbArc
 50
124.0563508213687
 51
187.2558295745633
1001
PE_URL
1000

  0
LINE
  5
6E8
102
{ACAD_REACTORS
102
}
330
630
100
AcDbEntity
  8
0
  6
Continuous
 62
     7
370
     5
100
AcDbLine
 10
3.664823227820307
 20
151.6891165708839
 30
0.0
 11
2.604163056039397
 21
152.3014226547493
 31
0.0
1001
PE_URL
1000

  0
LINE
  5
6E9
102
{ACAD_REACTORS
102
}
330
630
100
AcDbEntity
  8
0
  6
Continuous
 62
     7
370
     5
100
AcDbLine
 10
3.664823227820307
 20
151.6891165708839
 30
0.0
 11
3.664823227820307
 21
147.4934538876514
 31
0.0
1001
PE_URL
1000

  0
ARC
  5
6EA
102
{ACAD_REACTORS
102
}
330
630
100
AcDbEntity
  8
0
  6
Continuous
 62
     7
370
     5
100
AcDbCircle
 10
3.566822847376898
 20
151.6999339183712
 30
0.0
 40
0.0985955859691373
100
AcDbArc
 50
353.7011524685835
 51
54.98666713326888
1001
PE_URL
1000

  0
ARC
  5
6EB
102
{ACAD_REACTORS
102
}
330
630
100
AcDbEntity
  8
0
  6
Continuous
 62
     7
370
     5
100
AcDbCircle
 10
1.417585723389493
 20
154.0302632291459
 30
0.0
 40
0.0873418394856902
100
AcDbArc
 50
50.79671476600625
 51
189.2140369893078
1001
PE_URL
1000

  0
LINE
  5
6EC
102
{ACAD_REACTORS
102
}
330
630
100
AcDbEntity
  8
0
  6
Continuous
 62
     7
370
     5
100
AcDbLine
 10
2.39203102168176
 20
153.5672798682754
 30
0.0
 11
1.472792206139275
 21
154.0979451409621
 31
0.0
1001
PE_URL
1000

  0
LINE
  5
6ED
102
{ACAD_REACTORS
102
}
330
630
100
AcDbEntity
  8
0
  6
Continuous
 62
     7
370
     5
100
AcDbLine
 10
228.2419369326635
 20
10.44589526336131
 30
0.0
 11
228.8076223576172
 21
10.77245850809049
 31
0.0
1001
PE_URL
1000

  0
LWPOLYLINE
  5
6EE
102
{ACAD_REACTORS
102
}
330
630
100
AcDbEntity
  8
0
  6
Continuous
 62
     7
370
     5
100
AcDbPolyline
 90
        3
 70
   128
 43
0.0
 10
228.2419369326635
 20
10.44589526336131
 10
227.1422548775845
 20
10.7882062375902
 10
226.4729773722902
 20
11.11971513437675
1001
PE_URL
1000

  0
ARC
  5
6EF
102
{ACAD_REACTORS
102
}
330
630
100
AcDbEntity
  8
0
  6
Continuous
 62
     7
370
     5
100
AcDbCircle
 10
189.848261328927
 20
17.33403023703795
 30
0.0
 40
27.34200232957713
100
AcDbArc
 50
323.0386081356881
 51
354.5439394350135
1001
PE_URL
1000

  0
LINE
  5
6F0
102
{ACAD_REACTORS
102
}
330
630
100
AcDbEntity
  8
0
  6
Continuous
 62
     7
370
     5
100
AcDbLine
 10
211.1299528279524
 20
0.5673571103070572
 30
0.0
 11
211.6956382528988
 21
0.8939203550362436
 31
0.0
1001
PE_URL
1000

  0
ARC
  5
6F1
102
{ACAD_REACTORS
102
}
330
630
100
AcDbEntity
  8
0
  6
Continuous
 62
     7
370
     5
100
AcDbCircle
 10
229.0042501966054
 20
41.65168663675286
 30
0.0
 40
0.0873418394856921
100
AcDbArc
 50
350.7859630083365
 51
129.2032852339938
1001
PE_URL
1000

  0
LINE
  5
6F2
102
{ACAD_REACTORS
102
}
330
630
100
AcDbEntity
  8
0
  6
Continuous
 62
     7
370
     5
100
AcDbLine
 10
229.0904650700941
 20
10.93576667047091
 30
0.0
 11
229.0904650700941
 21
41.63770119737092
 31
0.0
1001
PE_URL
1000

  0
ARC
  5
6F3
102
{ACAD_REACTORS
102
}
330
630
100
AcDbEntity
  8
0
  6
Continuous
 62
     7
370
     5
100
AcDbCircle
 10
228.7834218498137
 20
10.94973884092178
 30
0.0
 40
0.3073609615145076
100
AcDbArc
 50
302.6054783407956
 51
357.394521514574
1001
PE_URL
1000

  0
LINE
  5
6F4
102
{ACAD_REACTORS
102
}
330
630
100
AcDbEntity
  8
0
  6
Continuous
 62
     7
370
     5
100
AcDbLine
 10
228.9490437138556
 20
10.85409931927643
 30
0.0
 11
228.9490437138556
 21
10.69081769691184
 31
0.0
1001
PE_URL
1000

  0
LINE
  5
6F5
102
{ACAD_REACTORS
102
}
330
630
100
AcDbEntity
  8
0
  6
Continuous
 62
     7
370
     5
100
AcDbLine
 10
229.0904650700941
 20
10.93576667047091
 30
0.0
 11
229.8682825293909
 21
10.48674220896646
 31
0.0
1001
PE_URL
1000

  0
ARC
  5
6F6
102
{ACAD_REACTORS
102
}
330
630
100
AcDbEntity
  8
0
  6
Continuous
 62
     7
370
     5
100
AcDbCircle
 10
229.5612393091251
 20
10.50071437941733
 30
0.0
 40
0.3073609615144102
100
AcDbArc
 50
302.6054783392876
 51
357.394521514574
1001
PE_URL
1000

  0
LINE
  5
6F7
102
{ACAD_REACTORS
102
}
330
630
100
AcDbEntity
  8
0
  6
Continuous
 62
     7
370
     5
100
AcDbLine
 10
229.7268611731597
 20
10.24179323540739
 30
0.0
 11
228.9490437138556
 21
10.69081769691184
 31
0.0
1001
PE_URL
1000

  0
LINE
  5
6F8
102
{ACAD_REACTORS
102
}
330
630
100
AcDbEntity
  8
0
  6
Continuous
 62
     7
370
     5
100
AcDbLine
 10
228.9490437138556
 20
10.69081769691184
 30
0.0
 11
228.8076223576172
 21
10.77245850809049
 31
0.0
1001
PE_URL
1000

  0
LINE
  5
6F9
102
{ACAD_REACTORS
102
}
330
630
100
AcDbEntity
  8
0
  6
Continuous
 62
     7
370
     5
100
AcDbLine
 10
229.1611757482133
 20
9.915229990678199
 30
0.0
 11
229.7268611731597
 21
10.24179323540739
 31
0.0
1001
PE_URL
1000

  0
LINE
  5
6FA
102
{ACAD_REACTORS
102
}
330
630
100
AcDbEntity
  8
0
  6
Continuous
 62
     7
370
     5
100
AcDbLine
 10
228.2419369326635
 20
10.44589526336131
 30
0.0
 11
229.1611757482133
 21
9.915229990678199
 31
0.0
1001
PE_URL
1000

  0
LINE
  5
6FB
102
{ACAD_REACTORS
102
}
330
630
100
AcDbEntity
  8
0
  6
Continuous
 62
     7
370
     5
100
AcDbLine
 10
229.8682825293909
 20
41.1886767358701
 30
0.0
 11
229.0904650700941
 21
41.63770119737092
 31
0.0
1001
PE_URL
1000

  0
LINE
  5
6FC
102
{ACAD_REACTORS
102
}
330
630
100
AcDbEntity
  8
0
  6
Continuous
 62
     7
370
     5
100
AcDbLine
 10
229.8682825293909
 20
10.48674220896646
 30
0.0
 11
229.8682825293909
 21
41.1886767358701
 31
0.0
1001
PE_URL
1000

  0
SPLINE
  5
6FD
102
{ACAD_REACTORS
102
}
330
630
100
AcDbEntity
  8
0
  6
Continuous
 62
     7
370
     5
100
AcDbSpline
210
0.0
220
0.0
230
1.0
 70
     8
 71
     3
 72
    12
 73
     8
 74
     0
 42
0.000000001
 43
0.00000001
 40
0.0
 40
0.0
 40
0.0
 40
0.0
 40
0.1083575554968377
 40
0.2158039789773047
 40
0.3886590225097131
 40
0.6796131254043007
 40
1.0
 40
1.0
 40
1.0
 40
1.0
 10
229.1611757482133
 20
9.915229990678199
 30
0.0
 10
229.1712127454048
 20
9.90900307519405
 30
0.0
 10
229.1912023430159
 20
9.896601603675663
 30
0.0
 10
229.2061690552764
 20
9.88102598144178
 30
0.0
 10
229.2051285154557
 20
9.867918710842787
 30
0.0
 10
229.172232906476
 20
9.864708391694876
 30
0.0
 10
229.1249767770751
 20
9.87478273308443
 30
0.0
 10
229.1002111484668
 20
9.880062416385044
 30
0.0
1001
PE_URL
1000

  0
LWPOLYLINE
  5
6FE
102
{ACAD_REACTORS
102
}
330
630
100
AcDbEntity
  8
0
  6
Continuous
 62
     7
370
     5
100
AcDbPolyline
 90
        3
 70
   128
 43
0.0
 10
227.5336375440638
 20
10.50740905051134
 10
228.0405590177579
 20
10.24675686929186
 10
229.1002111484668
 20
9.880062416385044
1001
PE_URL
1000

  0
SPLINE
  5
6FF
102
{ACAD_REACTORS
102
}
330
630
100
AcDbEntity
  8
0
  6
Continuous
 62
     7
370
     5
100
AcDbSpline
210
0.0
220
0.0
230
1.0
 70
     8
 71
     3
 72
    12
 73
     8
 74
     0
 42
0.000000001
 43
0.00000001
 40
0.0
 40
0.0
 40
0.0
 40
0.0
 40
0.4480832962971862
 40
0.6390739768471705
 40
0.8319772733508926
 40
0.9300724225915848
 40
1.0
 40
1.0
 40
1.0
 40
1.0
 10
212.9586843806646
 20
0.5617573590316169
 30
0.0
 10
212.9166840561484
 20
0.5110033720520732
 30
0.0
 10
212.8567815455135
 20
0.4386160445901623
 30
0.0
 10
212.7542634546371
 20
0.3733871394542803
 30
0.0
 10
212.6891920807793
 20
0.3506619803265494
 30
0.0
 10
212.6410998968022
 20
0.3513407241480309
 30
0.0
 10
212.6225832946111
 20
0.3597537537498283
 30
0.0
 10
212.6148770684485
 20
0.3632550823494967
 30
0.0
1001
PE_URL
1000

  0
LINE
  5
700
102
{ACAD_REACTORS
102
}
330
630
100
AcDbEntity
  8
0
  6
Continuous
 62
     7
370
     5
100
AcDbLine
 10
211.6956382528988
 20
0.8939203550362436
 30
0.0
 11
212.6148770684485
 21
0.3632550823494967
 31
0.0
1001
PE_URL
1000

  0
LINE
  5
701
102
{ACAD_REACTORS
102
}
330
630
100
AcDbEntity
  8
0
  6
Continuous
 62
     7
370
     5
100
AcDbLine
 10
211.2713741841908
 20
0.4857162991247606
 30
0.0
 11
212.0491916434949
 21
0.0366918376203103
 31
0.0
1001
PE_URL
1000

  0
LINE
  5
702
102
{ACAD_REACTORS
102
}
330
630
100
AcDbEntity
  8
0
  6
Continuous
 62
     7
370
     5
100
AcDbLine
 10
211.1299528279524
 20
0.5673571103070572
 30
0.0
 11
211.2713741841908
 21
0.4857162991247606
 31
0.0
1001
PE_URL
1000

  0
LINE
  5
703
102
{ACAD_REACTORS
102
}
330
630
100
AcDbEntity
  8
0
  6
Continuous
 62
     7
370
     5
100
AcDbLine
 10
212.0491916434949
 20
0.0366918376203103
 30
0.0
 11
212.6148770684485
 21
0.3632550823494967
 31
0.0
1001
PE_URL
1000

  0
ARC
  5
704
102
{ACAD_REACTORS
102
}
330
630
100
AcDbEntity
  8
0
  6
Continuous
 62
     7
370
     5
100
AcDbCircle
 10
211.2161677014337
 20
0.5533982109409408
 30
0.0
 40
0.0873418394856935
100
AcDbArc
 50
170.7859630095143
 51
309.2032852382761
1001
PE_URL
1000

  0
LINE
  5
705
102
{ACAD_REACTORS
102
}
330
630
100
AcDbEntity
  8
0
  6
Continuous
 62
     7
370
     5
100
AcDbLine
 10
217.1026662585318
 20
15.8006942463071
 30
0.0
 11
7.301967271483591
 21
136.9160597584887
 31
0.0
1001
PE_URL
1000

  0
LINE
  5
706
102
{ACAD_REACTORS
102
}
330
630
100
AcDbEntity
  8
0
  6
Continuous
 62
     7
370
     5
100
AcDbLine
 10
8.19123759345166
 20
147.85128849998
 30
0.0
 11
3.664823227820307
 21
150.4643318930684
 31
0.0
1001
PE_URL
1000

  0
LINE
  5
707
102
{ACAD_REACTORS
102
}
330
630
100
AcDbEntity
  8
0
  6
Continuous
 62
     7
370
     5
100
AcDbLine
 10
3.664823227820307
 20
150.7909216778098
 30
0.0
 11
8.47410329273771
 21
148.0145833923489
 31
0.0
1001
PE_URL
1000

  0
LINE
  5
708
102
{ACAD_REACTORS
102
}
330
630
100
AcDbEntity
  8
0
  6
Continuous
 62
     7
370
     5
100
AcDbLine
 10
9.252047179539659
 20
148.4636808388859
 30
0.0
 11
3.664823227820307
 21
151.6891165708839
 31
0.0
1001
PE_URL
1000

  0
LINE
  5
709
102
{ACAD_REACTORS
102
}
330
630
100
AcDbEntity
  8
0
  6
Continuous
 62
     7
370
     5
100
AcDbLine
 10
10.29350439588961
 20
139.3482646812081
 30
0.0
 11
11.99947772262021
 21
138.363427242537
 31
0.0
1001
PE_URL
1000

  0
LINE
  5
70A
102
{ACAD_REACTORS
102
}
330
630
100
AcDbEntity
  8
0
  6
Continuous
 62
     7
370
     5
100
AcDbLine
 10
15.51382461381945
 20
141.3491817393333
 30
0.0
 11
15.80114143040191
 21
141.0904449848458
 31
0.0
1001
PE_URL
1000

  0
LINE
  5
70B
102
{ACAD_REACTORS
102
}
330
630
100
AcDbEntity
  8
0
  6
Continuous
 62
     7
370
     5
100
AcDbLine
 10
15.23309016802887
 20
140.106660821104
 30
0.0
 11
14.86539464181624
 21
140.2260680859727
 31
0.0
1001
PE_URL
1000

  0
LINE
  5
70C
102
{ACAD_REACTORS
102
}
330
630
100
AcDbEntity
  8
0
  6
Continuous
 62
     7
370
     5
100
AcDbLine
 10
15.233090183483
 20
140.4384425670287
 30
0.0
 11
14.58466019602565
 21
140.8127865384376
 31
0.0
1001
PE_URL
1000

  0
LINE
  5
70D
102
{ACAD_REACTORS
102
}
330
630
100
AcDbEntity
  8
0
  6
Continuous
 62
     7
370
     5
100
AcDbLine
 10
14.86539464181624
 20
141.2990328605483
 30
0.0
 11
15.51391848293497
 21
140.9246347066437
 31
0.0
1001
PE_URL
1000

  0
LINE
  5
70E
102
{ACAD_REACTORS
102
}
330
630
100
AcDbEntity
  8
0
  6
Continuous
 62
     7
370
     5
100
AcDbLine
 10
3.210166621171084
 20
134.2464311664771
 30
0.0
 11
3.49748343776082
 21
133.987694411986
 31
0.0
1001
PE_URL
1000

  0
LINE
  5
70F
102
{ACAD_REACTORS
102
}
330
630
100
AcDbEntity
  8
0
  6
Continuous
 62
     7
370
     5
100
AcDbLine
 10
2.929432175380498
 20
133.0039102482442
 30
0.0
 11
2.561736649167869
 21
133.1233175131092
 31
0.0
1001
PE_URL
1000

  0
LINE
  5
710
102
{ACAD_REACTORS
102
}
330
630
100
AcDbEntity
  8
0
  6
Continuous
 62
     7
370
     5
100
AcDbLine
 10
2.929432190841908
 20
133.3356919941689
 30
0.0
 11
2.281002203377284
 21
133.7100359655778
 31
0.0
1001
PE_URL
1000

  0
LINE
  5
711
102
{ACAD_REACTORS
102
}
330
630
100
AcDbEntity
  8
0
  6
Continuous
 62
     7
370
     5
100
AcDbLine
 10
2.561736649167869
 20
134.1962822876885
 30
0.0
 11
3.210260490293877
 21
133.8218841337839
 31
0.0
1001
PE_URL
1000

  0
ARC
  5
712
102
{ACAD_REACTORS
102
}
330
630
100
AcDbEntity
  8
0
  6
Continuous
 62
     7
370
     5
100
AcDbCircle
 10
0.1414159890373412
 20
122.4164032544868
 30
0.0
 40
0.1005954471802443
100
AcDbArc
 50
245.6928809500197
 51
305.6175774752363
1001
PE_URL
1000

  0
ARC
  5
713
102
{ACAD_REACTORS
102
}
330
630
100
AcDbEntity
  8
0
  6
Continuous
 62
     7
370
     5
100
AcDbCircle
 10
0.1000914124997507
 20
122.4879538756613
 30
0.0
 40
0.1005878556986939
100
AcDbArc
 50
114.3746582904636
 51
174.3052007488762
1001
PE_URL
1000

  0
ARC
  5
714
102
{ACAD_REACTORS
102
}
330
630
100
AcDbEntity
  8
0
  6
Continuous
 62
     7
370
     5
100
AcDbCircle
 10
0.1000914124997507
 20
153.189888402565
 30
0.0
 40
0.1005878556988049
100
AcDbArc
 50
114.3746582904636
 51
174.3052007488762
1001
PE_URL
1000

  0
ARC
  5
715
102
{ACAD_REACTORS
102
}
330
630
100
AcDbEntity
  8
0
  6
Continuous
 62
     7
370
     5
100
AcDbCircle
 10
17.83138528470226
 20
163.4987246925921
 30
0.0
 40
0.0959051093632755
100
AcDbArc
 50
124.0563508646504
 51
187.255829533302
1001
PE_URL
1000

  0
ARC
  5
716
102
{ACAD_REACTORS
102
}
330
630
100
AcDbEntity
  8
0
  6
Continuous
 62
     7
370
     5
100
AcDbCircle
 10
17.92109050538784
 20
163.4974292343577
 30
0.0
 40
0.09859558604837
100
AcDbArc
 50
353.7011524980837
 51
54.98666710851919
1001
PE_URL
1000

  0
LINE
  5
717
102
{ACAD_REACTORS
102
}
330
630
100
AcDbEntity
  8
0
  6
Continuous
 62
     7
370
     5
100
AcDbLine
 10
7.095288414053357
 20
147.2186105056426
 30
0.0
 11
5.405653493271529
 21
148.3352051292641
 31
0.0
1001
PE_URL
1000

  0
ARC
  5
718
102
{ACAD_REACTORS
102
}
330
630
100
AcDbEntity
  8
0
  6
Continuous
 62
     7
370
     5
100
AcDbCircle
 10
0.1537157550301345
 20
153.2936232948086
 30
0.0
 40
0.0959051093633
100
AcDbArc
 50
124.0563508607323
 51
187.255829533302
1001
PE_URL
1000

  0
ARC
  5
719
102
{ACAD_REACTORS
102
}
330
630
100
AcDbEntity
  8
0
  6
Continuous
 62
     7
370
     5
100
AcDbCircle
 10
229.7854451841304
 20
10.32356950122994
 30
0.0
 40
0.1005954471805595
100
AcDbArc
 50
234.3824225233182
 51
294.3071190453506
1001
PE_URL
1000

  0
ARC
  5
71A
102
{ACAD_REACTORS
102
}
330
630
100
AcDbEntity
  8
0
  6
Continuous
 62
     7
370
     5
100
AcDbCircle
 10
229.8267697606607
 20
10.39512012240448
 30
0.0
 40
0.1005878556989047
100
AcDbArc
 50
5.694799251123807
 51
65.62534171090779
1001
PE_URL
1000

  0
ARC
  5
71B
102
{ACAD_REACTORS
102
}
330
630
100
AcDbEntity
  8
0
  6
Continuous
 62
     7
370
     5
100
AcDbCircle
 10
229.8267697606607
 20
41.09705464930812
 30
0.0
 40
0.1005878556987673
100
AcDbArc
 50
5.694799251123807
 51
65.62534171090779
1001
PE_URL
1000

  0
ARC
  5
71C
102
{ACAD_REACTORS
102
}
330
630
100
AcDbEntity
  8
0
  6
Continuous
 62
     7
370
     5
100
AcDbCircle
 10
212.1077756544655
 20
0.1184681034465029
 30
0.0
 40
0.1005954471806202
100
AcDbArc
 50
234.382422525606
 51
294.3071190453506
1001
PE_URL
1000

  0
ARC
  5
71D
102
{ACAD_REACTORS
102
}
330
630
100
AcDbEntity
  8
0
  6
Continuous
 62
     7
370
     5
100
AcDbCircle
 10
211.9906076325242
 20
0.1184681034465029
 30
0.0
 40
0.1005954471803726
100
AcDbArc
 50
245.6928809546494
 51
305.6175774752363
1001
PE_URL
1000

  0
ARC
  5
71E
102
{ACAD_REACTORS
102
}
330
630
100
AcDbEntity
  8
0
  6
Continuous
 62
     7
370
     5
100
AcDbCircle
 10
229.7731454182322
 20
41.20078954159908
 30
0.0
 40
0.0959051092612276
100
AcDbArc
 50
352.744170430435
 51
55.94364917383793
1001
PE_URL
1000

  0
ARC
  5
71F
102
{ACAD_REACTORS
102
}
330
630
100
AcDbEntity
  8
0
  6
Continuous
 62
     7
370
     5
100
AcDbCircle
 10
229.7268612907101
 20
10.40510148503745
 30
0.0
 40
0.1999999999999632
100
AcDbArc
 50
299.9973117328325
 51
0.0
1001
PE_URL
1000

  0
LINE
  5
720
102
{ACAD_REACTORS
102
}
330
630
100
AcDbEntity
  8
0
  6
Continuous
 62
     7
370
     5
100
AcDbLine
 10
229.9268613919958
 20
10.40510155549782
 30
0.0
 11
229.9268613919958
 21
41.10703536621804
 31
0.0
1001
PE_URL
1000

  0
LINE
  5
721
102
{ACAD_REACTORS
102
}
330
630
100
AcDbEntity
  8
0
  6
Continuous
 62
     7
370
     5
100
AcDbLine
 10
223.8280649808185
 20
6.768865049136366
 30
0.0
 11
229.8268532589682
 21
10.23189180952249
 31
0.0
1001
PE_URL
1000

  0
LINE
  5
722
102
{ACAD_REACTORS
102
}
330
630
100
AcDbEntity
  8
0
  6
Continuous
 62
     7
370
     5
100
AcDbLine
 10
212.1491834658846
 20
0.0267902596642671
 30
0.0
 11
218.1479717440416
 21
3.489817020050396
 31
0.0
1001
PE_URL
1000

  0
LINE
  5
723
102
{ACAD_REACTORS
102
}
330
630
100
AcDbEntity
  8
0
  6
Continuous
 62
     7
370
     5
100
AcDbLine
 10
211.1713827439999
 20
0.4758149622830388
 30
0.0
 11
211.9492002093793
 21
0.0267904972752149
 31
0.0
1001
PE_URL
1000

  0
ARC
  5
724
102
{ACAD_REACTORS
102
}
330
630
100
AcDbEntity
  8
0
  6
Continuous
 62
     7
370
     5
100
AcDbCircle
 10
212.0491917610452
 20
0.2000000872540113
 30
0.0
 40
0.200000000000126
100
AcDbArc
 50
240.0026882664557
 51
299.9973117328325
1001
PE_URL
1000

  0
LINE
  5
725
102
{ACAD_REACTORS
102
}
330
630
100
AcDbEntity
  8
0
  6
Continuous
 62
     7
370
     5
100
AcDbLine
 10
229.8268528473818
 20
41.28024612222725
 30
0.0
 11
229.0490353819951
 21
41.72927058723508
 31
0.0
1001
PE_URL
1000

  0
ARC
  5
726
102
{ACAD_REACTORS
102
}
330
630
100
AcDbEntity
  8
0
  6
Continuous
 62
     7
370
     5
100
AcDbCircle
 10
229.7268612907101
 20
41.10703601193745
 30
0.0
 40
0.2000000000000124
100
AcDbArc
 50
0.0
 51
60.00268826716751
1001
PE_URL
1000

  0
LINE
  5
727
102
{ACAD_REACTORS
102
}
330
630
100
AcDbEntity
  8
0
  6
Continuous
 62
     7
370
     5
100
AcDbLine
 10
228.9490437228778
 20
10.85409934387644
 30
0.0
 11
228.9490437228778
 21
41.88264919780704
 31
0.0
1001
PE_URL
1000

  0
LINE
  5
728
102
{ACAD_REACTORS
102
}
330
630
100
AcDbEntity
  8
0
  6
Continuous
 62
     7
370
     5
100
AcDbLine
 10
228.241936825787
 20
10.44589522105161
 30
0.0
 11
228.9490437228778
 21
10.85409934387644
 31
0.0
1001
PE_URL
1000

  0
LWPOLYLINE
  5
729
102
{ACAD_REACTORS
102
}
330
630
100
AcDbEntity
  8
0
  6
Continuous
 62
     7
370
     5
100
AcDbPolyline
 90
        3
 70
   128
 43
0.0
 10
226.4729776174972
 20
11.11971535902194
 10
227.0568122266886
 20
10.82477588067923
 10
228.241936825787
 20
10.44589522105161
1001
PE_URL
1000

  0
ARC
  5
72A
102
{ACAD_REACTORS
102
}
330
630
100
AcDbEntity
  8
0
  6
Continuous
 62
     7
370
     5
100
AcDbCircle
 10
190.5059051075623
 20
17.01393467776143
 30
0.0
 40
26.62441849202537
100
AcDbArc
 50
322.7380666776969
 51
357.3882016071166
1001
PE_URL
1000

  0
LINE
  5
72B
102
{ACAD_REACTORS
102
}
330
630
100
AcDbEntity
  8
0
  6
Continuous
 62
     7
370
     5
100
AcDbLine
 10
210.9885316977925
 20
0.4857164490276773
 30
0.0
 11
211.6956385948833
 21
0.8939205718525045
 31
0.0
1001
PE_URL
1000

  0
ARC
  5
72C
102
{ACAD_REACTORS
102
}
330
630
100
AcDbEntity
  8
0
  6
Continuous
 62
     7
370
     5
100
AcDbCircle
 10
217.0251725034068
 20
15.80782087856278
 30
0.0
 40
0.0778208177571962
100
AcDbArc
 50
354.7459319772362
 51
50.55968583806277
1001
PE_URL
1000

  0
LINE
  5
72D
102
{ACAD_REACTORS
102
}
330
630
100
AcDbEntity
  8
0
  6
Continuous
 62
     7
370
     5
100
AcDbLine
 10
211.1299528137934
 20
0.5673571215265838
 30
0.0
 11
228.807622606877
 21
10.77245867137754
 31
0.0
1001
PE_URL
1000

  0
LINE
  5
72E
102
{ACAD_REACTORS
102
}
330
630
100
AcDbEntity
  8
0
  6
Continuous
 62
     7
370
     5
100
AcDbLine
 10
228.9490439595429
 20
10.85409948748202
 30
0.0
 11
228.9490439595429
 21
10.69081786225797
 31
0.0
1001
PE_URL
1000

  0
LINE
  5
72F
102
{ACAD_REACTORS
102
}
330
630
100
AcDbEntity
  8
0
  6
Continuous
 62
     7
370
     5
100
AcDbLine
 10
228.9490439595429
 20
10.69081786225797
 30
0.0
 11
228.807622606877
 21
10.77245867137754
 31
0.0
1001
PE_URL
1000

  0
LINE
  5
730
102
{ACAD_REACTORS
102
}
330
630
100
AcDbEntity
  8
0
  6
Continuous
 62
     7
370
     5
100
AcDbLine
 10
217.4939138586305
 20
3.832989557598921
 30
0.0
 11
223.1507683768104
 21
7.09862215999965
 31
0.0
1001
PE_URL
1000

  0
LINE
  5
731
102
{ACAD_REACTORS
102
}
330
630
100
AcDbEntity
  8
0
  6
Continuous
 62
     7
370
     5
100
AcDbLine
 10
217.4939138586305
 20
3.832989557598921
 30
0.0
 11
218.0497253822141
 21
3.500726247442799
 31
0.0
1001
PE_URL
1000

  0
LINE
  5
732
102
{ACAD_REACTORS
102
}
330
630
100
AcDbEntity
  8
0
  6
Continuous
 62
     7
370
     5
100
AcDbLine
 10
212.0491916318388
 20
0.0366918473991973
 30
0.0
 11
218.0497253822141
 21
3.500726247442799
 31
0.0
1001
PE_URL
1000

  0
LINE
  5
733
102
{ACAD_REACTORS
102
}
330
630
100
AcDbEntity
  8
0
  6
Continuous
 62
     7
370
     5
100
AcDbLine
 10
211.2713741664593
 20
0.4857163124070212
 30
0.0
 11
212.0491916318388
 21
0.0366918473991973
 31
0.0
1001
PE_URL
1000

  0
LINE
  5
734
102
{ACAD_REACTORS
102
}
330
630
100
AcDbEntity
  8
0
  6
Continuous
 62
     7
370
     5
100
AcDbLine
 10
211.1299528137934
 20
0.5673571215265838
 30
0.0
 11
211.2713741664593
 21
0.4857163124070212
 31
0.0
1001
PE_URL
1000

  0
LINE
  5
735
102
{ACAD_REACTORS
102
}
330
630
100
AcDbEntity
  8
0
  6
Continuous
 62
     7
370
     5
100
AcDbLine
 10
229.7268614249224
 20
10.24179339725015
 30
0.0
 11
228.9490439595429
 21
10.69081786225797
 31
0.0
1001
PE_URL
1000

  0
LINE
  5
736
102
{ACAD_REACTORS
102
}
330
630
100
AcDbEntity
  8
0
  6
Continuous
 62
     7
370
     5
100
AcDbLine
 10
223.7263276745471
 20
6.777758997206547
 30
0.0
 11
229.7268614249224
 21
10.24179339725015
 31
0.0
1001
PE_URL
1000

  0
LINE
  5
737
102
{ACAD_REACTORS
102
}
330
630
100
AcDbEntity
  8
0
  6
Continuous
 62
     7
370
     5
100
AcDbLine
 10
223.1507683768104
 20
7.09862215999965
 30
0.0
 11
223.7263276745471
 21
6.777758997206547
 31
0.0
1001
PE_URL
1000

  0
ARC
  5
738
102
{ACAD_REACTORS
102
}
330
630
100
AcDbEntity
  8
0
  6
Continuous
 62
     7
370
     5
100
AcDbCircle
 10
229.5612389272901
 20
10.50071461407424
 30
0.0
 40
0.3073613642652838
100
AcDbArc
 50
302.6055705216268
 51
357.3944846937448
1001
PE_URL
1000

  0
ARC
  5
739
102
{ACAD_REACTORS
102
}
330
630
100
AcDbEntity
  8
0
  6
Continuous
 62
     7
370
     5
100
AcDbCircle
 10
228.7834214619106
 20
10.94973907908206
 30
0.0
 40
0.3073613642651473
100
AcDbArc
 50
302.6055705216268
 51
357.3944846937448
1001
PE_URL
1000

  0
LINE
  5
73A
102
{ACAD_REACTORS
102
}
330
630
100
AcDbEntity
  8
0
  6
Continuous
 62
     7
370
     5
100
AcDbLine
 10
229.0904650755438
 20
10.93576669300455
 30
0.0
 11
229.8682825409232
 21
10.48674222799673
 31
0.0
1001
PE_URL
1000

  0
ARC
  5
73B
102
{ACAD_REACTORS
102
}
330
630
100
AcDbEntity
  8
0
  6
Continuous
 62
     7
370
     5
100
AcDbCircle
 10
229.0042512449836
 20
41.65168747174539
 30
0.0
 40
0.0873410548013013
100
AcDbArc
 50
350.7848636095952
 51
129.2043846357394
1001
PE_URL
1000

  0
LINE
  5
73C
102
{ACAD_REACTORS
102
}
330
630
100
AcDbEntity
  8
0
  6
Continuous
 62
     7
370
     5
100
AcDbLine
 10
229.0904650755438
 20
10.93576669300455
 30
0.0
 11
229.0904650755438
 21
41.63770050372477
 31
0.0
1001
PE_URL
1000

  0
LINE
  5
73D
102
{ACAD_REACTORS
102
}
330
630
100
AcDbEntity
  8
0
  6
Continuous
 62
     7
370
     5
100
AcDbLine
 10
229.8682825409232
 20
41.18867603871695
 30
0.0
 11
229.0904650755438
 21
41.63770050372477
 31
0.0
1001
PE_URL
1000

  0
LINE
  5
73E
102
{ACAD_REACTORS
102
}
330
630
100
AcDbEntity
  8
0
  6
Continuous
 62
     7
370
     5
100
AcDbLine
 10
229.8682825409232
 20
10.48674222799673
 30
0.0
 11
229.8682825409232
 21
41.18867603871695
 31
0.0
1001
PE_URL
1000

  0
ELLIPSE
  5
73F
102
{ACAD_REACTORS
102
}
330
630
100
AcDbEntity
  8
0
  6
Continuous
 62
     7
370
     5
100
AcDbEllipse
 10
223.7263277264465
 20
6.941067192430637
 30
0.0
 11
-0.1026525863727556
 21
0.1716643463722676
 31
0.0
210
0.0
220
0.0
230
1.0
 40
0.5873687162543133
 41
2.347239087449793
 42
3.132555986713562
1001
PE_URL
1000

  0
ELLIPSE
  5
740
102
{ACAD_REACTORS
102
}
330
630
100
AcDbEntity
  8
0
  6
Continuous
 62
     7
370
     5
100
AcDbEllipse
 10
218.0497253253088
 20
3.664034379860823
 30
0.0
 11
-0.09741494644129034
 21
0.1746892004041456
 31
0.0
210
0.0
220
0.0
230
1.0
 40
0.567218392760024
 41
2.364703013104653
 42
3.935499339872509
1001
PE_URL
1000

  0
LINE
  5
741
102
{ACAD_REACTORS
102
}
330
630
100
AcDbEntity
  8
0
  6
Continuous
 62
     7
370
     5
100
AcDbLine
 10
218.1886781910762
 20
3.580968524689524
 30
0.0
 11
218.1886781910762
 21
4.234068516332627
 31
0.0
1001
PE_URL
1000

  0
ARC
  5
742
102
{ACAD_REACTORS
102
}
330
630
100
AcDbEntity
  8
0
  6
Continuous
 62
     7
370
     5
100
AcDbCircle
 10
211.2161679286692
 20
0.5533984178364335
 30
0.0
 40
0.0873418346895923
100
AcDbArc
 50
170.7860017442641
 51
309.2030804307777
1001
PE_URL
1000

  0
ARC
  5
743
102
{ACAD_REACTORS
102
}
330
630
100
AcDbEntity
  8
0
  6
Continuous
 62
     7
370
     5
100
AcDbCircle
 10
229.7854453879299
 20
10.32356954988427
 30
0.0
 40
0.1005953272404012
100
AcDbArc
 50
234.3824071886914
 51
294.3071553661998
1001
PE_URL
1000

  0
ARC
  5
744
102
{ACAD_REACTORS
102
}
330
630
100
AcDbEntity
  8
0
  6
Continuous
 62
     7
370
     5
100
AcDbCircle
 10
229.8267704647187
 20
10.39512036722226
 30
0.0
 40
0.1005873642274767
100
AcDbArc
 50
5.694777305296686
 51
65.62564794091357
1001
PE_URL
1000

  0
ARC
  5
745
102
{ACAD_REACTORS
102
}
330
630
100
AcDbEntity
  8
0
  6
Continuous
 62
     7
370
     5
100
AcDbCircle
 10
229.8267704647187
 20
41.09705417794248
 30
0.0
 40
0.1005873642277259
100
AcDbArc
 50
5.694777305296686
 51
65.62564794091357
1001
PE_URL
1000

  0
ARC
  5
746
102
{ACAD_REACTORS
102
}
330
630
100
AcDbEntity
  8
0
  6
Continuous
 62
     7
370
     5
100
AcDbCircle
 10
212.1077755948536
 20
0.1184680000333174
 30
0.0
 40
0.1005953272402008
100
AcDbArc
 50
234.382407184958
 51
294.3071553619965
1001
PE_URL
1000

  0
ARC
  5
747
102
{ACAD_REACTORS
102
}
330
630
100
AcDbEntity
  8
0
  6
Continuous
 62
     7
370
     5
100
AcDbCircle
 10
211.9906082028065
 20
0.1184665288128599
 30
0.0
 40
0.100593820275212
100
AcDbArc
 50
245.6923804620636
 51
305.6178335822653
1001
PE_URL
1000

  0
ARC
  5
748
102
{ACAD_REACTORS
102
}
330
630
100
AcDbEntity
  8
0
  6
Continuous
 62
     7
370
     5
100
AcDbCircle
 10
229.7759801813409
 20
41.20207224120168
 30
0.0
 40
0.0932694152698403
100
AcDbArc
 50
351.7420983439733
 51
56.94541256756436
1001
PE_URL
1000

  0
ARC
  5
749
102
{ACAD_REACTORS
102
}
330
630
100
AcDbEntity
  8
0
  6
Continuous
 62
     7
370
     5
100
AcDbCircle
 10
229.7268611731524
 20
10.40510139778416
 30
0.0
 40
0.2000000000000124
100
AcDbArc
 50
299.9973117328325
 51
0.0
1001
PE_URL
1000

  0
LINE
  5
74A
102
{ACAD_REACTORS
102
}
330
630
100
AcDbEntity
  8
0
  6
Continuous
 62
     7
370
     5
100
AcDbLine
 10
229.9268611731495
 20
10.40510139778416
 30
0.0
 11
229.9268611731495
 21
41.10703592469144
 31
0.0
1001
PE_URL
1000

  0
LINE
  5
74B
102
{ACAD_REACTORS
102
}
330
630
100
AcDbEntity
  8
0
  6
Continuous
 62
     7
370
     5
100
AcDbLine
 10
223.828064846788
 20
6.768864910263801
 30
0.0
 11
229.8268530464156
 21
10.2318916253098
 31
0.0
1001
PE_URL
1000

  0
LINE
  5
74C
102
{ACAD_REACTORS
102
}
330
630
100
AcDbEntity
  8
0
  6
Continuous
 62
     7
370
     5
100
AcDbLine
 10
212.1491835167508
 20
0.0267902275263623
 30
0.0
 11
218.1479717163784
 21
3.489816942572361
 31
0.0
1001
PE_URL
1000

  0
LINE
  5
74D
102
{ACAD_REACTORS
102
}
330
630
100
AcDbEntity
  8
0
  6
Continuous
 62
     7
370
     5
100
AcDbLine
 10
211.1713823109203
 20
0.4758146890271746
 30
0.0
 11
211.9491997702244
 21
0.0267902275263623
 31
0.0
1001
PE_URL
1000

  0
ARC
  5
74E
102
{ACAD_REACTORS
102
}
330
630
100
AcDbEntity
  8
0
  6
Continuous
 62
     7
370
     5
100
AcDbCircle
 10
212.0491916434876
 20
0.2000000000007276
 30
0.0
 40
0.1999999999999708
100
AcDbArc
 50
240.0026882664557
 51
299.9973117328325
1001
PE_URL
1000

  0
LINE
  5
74F
102
{ACAD_REACTORS
102
}
330
630
100
AcDbEntity
  8
0
  6
Continuous
 62
     7
370
     5
100
AcDbLine
 10
229.8268530464156
 20
41.28024569716581
 30
0.0
 11
229.0490355871116
 21
41.72927015866662
 31
0.0
1001
PE_URL
1000

  0
ARC
  5
750
102
{ACAD_REACTORS
102
}
330
630
100
AcDbEntity
  8
0
  6
Continuous
 62
     7
370
     5
100
AcDbCircle
 10
229.7268611731524
 20
41.10703592469144
 30
0.0
 40
0.20000000000002
100
AcDbArc
 50
0.0
 51
60.00268826716751
1001
PE_URL
1000

  0
LINE
  5
751
102
{ACAD_REACTORS
102
}
330
630
100
AcDbEntity
  8
0
  6
Continuous
 62
     7
370
     5
100
AcDbLine
 10
211.1299528279451
 20
0.5673571103070572
 30
0.0
 11
228.8076223576099
 21
10.77245850809413
 31
0.0
1001
PE_URL
1000

  0
ARC
  5
752
102
{ACAD_REACTORS
102
}
330
630
100
AcDbEntity
  8
0
  6
Continuous
 62
     7
370
     5
100
AcDbCircle
 10
228.7834218498137
 20
10.94973884092178
 30
0.0
 40
0.307360961513707
100
AcDbArc
 50
302.6054783392876
 51
357.394521514574
1001
PE_URL
1000

  0
LINE
  5
753
102
{ACAD_REACTORS
102
}
330
630
100
AcDbEntity
  8
0
  6
Continuous
 62
     7
370
     5
100
AcDbLine
 10
228.9490437138484
 20
10.69081769691184
 30
0.0
 11
228.9490437138484
 21
41.71936854856904
 31
0.0
1001
PE_URL
1000

  0
ARC
  5
754
102
{ACAD_REACTORS
102
}
330
630
100
AcDbEntity
  8
0
  6
Continuous
 62
     7
370
     5
100
AcDbCircle
 10
229.0042501965982
 20
41.65168663675649
 30
0.0
 40
0.0873418394857385
100
AcDbArc
 50
350.7859630083365
 51
129.2032852339938
1001
PE_URL
1000

  0
LINE
  5
755
102
{ACAD_REACTORS
102
}
330
630
100
AcDbEntity
  8
0
  6
Continuous
 62
     7
370
     5
100
AcDbLine
 10
229.0904650700868
 20
10.93576667047091
 30
0.0
 11
229.0904650700868
 21
41.63770119737455
 31
0.0
1001
PE_URL
1000

  0
LINE
  5
756
102
{ACAD_REACTORS
102
}
330
630
100
AcDbEntity
  8
0
  6
Continuous
 62
     7
370
     5
100
AcDbLine
 10
217.4939138586305
 20
3.832989557598921
 30
0.0
 11
223.1507681081166
 21
7.098622004890785
 31
0.0
1001
PE_URL
1000

  0
LINE
  5
757
102
{ACAD_REACTORS
102
}
330
630
100
AcDbEntity
  8
0
  6
Continuous
 62
     7
370
     5
100
AcDbLine
 10
217.4939138586305
 20
3.832989557598921
 30
0.0
 11
218.0497252077585
 21
3.50072613023076
 31
0.0
1001
PE_URL
1000

  0
LINE
  5
758
102
{ACAD_REACTORS
102
}
330
630
100
AcDbEntity
  8
0
  6
Continuous
 62
     7
370
     5
100
AcDbLine
 10
212.0491916434876
 20
0.0366918376239482
 30
0.0
 11
218.0497252077585
 21
3.50072613023076
 31
0.0
1001
PE_URL
1000

  0
LINE
  5
759
102
{ACAD_REACTORS
102
}
330
630
100
AcDbEntity
  8
0
  6
Continuous
 62
     7
370
     5
100
AcDbLine
 10
211.2713741841835
 20
0.4857162991283985
 30
0.0
 11
212.0491916434876
 21
0.0366918376239482
 31
0.0
1001
PE_URL
1000

  0
LINE
  5
75A
102
{ACAD_REACTORS
102
}
330
630
100
AcDbEntity
  8
0
  6
Continuous
 62
     7
370
     5
100
AcDbLine
 10
211.1299528279451
 20
0.5673571103070572
 30
0.0
 11
211.2713741841835
 21
0.4857162991283985
 31
0.0
1001
PE_URL
1000

  0
LINE
  5
75B
102
{ACAD_REACTORS
102
}
330
630
100
AcDbEntity
  8
0
  6
Continuous
 62
     7
370
     5
100
AcDbLine
 10
228.9490437138484
 20
10.69081769691184
 30
0.0
 11
228.8076223576099
 21
10.77245850809413
 31
0.0
1001
PE_URL
1000

  0
LINE
  5
75C
102
{ACAD_REACTORS
102
}
330
630
100
AcDbEntity
  8
0
  6
Continuous
 62
     7
370
     5
100
AcDbLine
 10
229.7268611731524
 20
10.24179323541102
 30
0.0
 11
228.9490437138484
 21
10.69081769691184
 31
0.0
1001
PE_URL
1000

  0
LINE
  5
75D
102
{ACAD_REACTORS
102
}
330
630
100
AcDbEntity
  8
0
  6
Continuous
 62
     7
370
     5
100
AcDbLine
 10
223.7263276088888
 20
6.777758942804212
 30
0.0
 11
229.7268611731524
 21
10.24179323541102
 31
0.0
1001
PE_URL
1000

  0
LINE
  5
75E
102
{ACAD_REACTORS
102
}
330
630
100
AcDbEntity
  8
0
  6
Continuous
 62
     7
370
     5
100
AcDbLine
 10
223.1507681081166
 20
7.098622004890785
 30
0.0
 11
223.7263276088888
 21
6.777758942804212
 31
0.0
1001
PE_URL
1000

  0
LINE
  5
75F
102
{ACAD_REACTORS
102
}
330
630
100
AcDbEntity
  8
0
  6
Continuous
 62
     7
370
     5
100
AcDbLine
 10
229.0904650700868
 20
10.93576667047091
 30
0.0
 11
229.8682825293909
 21
10.4867422089701
 31
0.0
1001
PE_URL
1000

  0
ARC
  5
760
102
{ACAD_REACTORS
102
}
330
630
100
AcDbEntity
  8
0
  6
Continuous
 62
     7
370
     5
100
AcDbCircle
 10
229.5612393091178
 20
10.50071437942097
 30
0.0
 40
0.3073609615149109
100
AcDbArc
 50
302.6054783395732
 51
357.3945215138965
1001
PE_URL
1000

  0
LINE
  5
761
102
{ACAD_REACTORS
102
}
330
630
100
AcDbEntity
  8
0
  6
Continuous
 62
     7
370
     5
100
AcDbLine
 10
229.8682825293909
 20
41.1886767358701
 30
0.0
 11
229.0904650700868
 21
41.63770119737455
 31
0.0
1001
PE_URL
1000

  0
LINE
  5
762
102
{ACAD_REACTORS
102
}
330
630
100
AcDbEntity
  8
0
  6
Continuous
 62
     7
370
     5
100
AcDbLine
 10
229.8682825293909
 20
10.4867422089701
 30
0.0
 11
229.8682825293909
 21
41.1886767358701
 31
0.0
1001
PE_URL
1000

  0
ELLIPSE
  5
763
102
{ACAD_REACTORS
102
}
330
630
100
AcDbEntity
  8
0
  6
Continuous
 62
     7
370
     5
100
AcDbEllipse
 10
223.7263276088888
 20
6.941067105177353
 30
0.0
 11
-0.1026525863727556
 21
0.1716643463722676
 31
0.0
210
0.0
220
0.0
230
1.0
 40
0.5873687162543133
 41
2.347239087449792
 42
3.132555986782632
1001
PE_URL
1000

  0
ELLIPSE
  5
764
102
{ACAD_REACTORS
102
}
330
630
100
AcDbEntity
  8
0
  6
Continuous
 62
     7
370
     5
100
AcDbEllipse
 10
218.0497252077585
 20
3.664034292607539
 30
0.0
 11
-0.09741494644129034
 21
0.1746892004041456
 31
0.0
210
0.0
220
0.0
230
1.0
 40
0.5672183927595275
 41
2.364703013104216
 42
3.935499339906362
1001
PE_URL
1000

  0
LINE
  5
765
102
{ACAD_REACTORS
102
}
330
630
100
AcDbEntity
  8
0
  6
Continuous
 62
     7
370
     5
100
AcDbLine
 10
218.1886780450404
 20
3.580968435766408
 30
0.0
 11
218.1886780450404
 21
4.234068385212595
 31
0.0
1001
PE_URL
1000

  0
ARC
  5
766
102
{ACAD_REACTORS
102
}
330
630
100
AcDbEntity
  8
0
  6
Continuous
 62
     7
370
     5
100
AcDbCircle
 10
211.2161677014337
 20
0.5533982109445788
 30
0.0
 40
0.0873418394856741
100
AcDbArc
 50
170.7859630118701
 51
309.2032852332395
1001
PE_URL
1000

  0
ARC
  5
767
102
{ACAD_REACTORS
102
}
330
630
100
AcDbEntity
  8
0
  6
Continuous
 62
     7
370
     5
100
AcDbCircle
 10
229.7854451841231
 20
10.32356950123358
 30
0.0
 40
0.1005954471807688
100
AcDbArc
 50
234.3824225233182
 51
294.3071190453506
1001
PE_URL
1000

  0
ARC
  5
768
102
{ACAD_REACTORS
102
}
330
630
100
AcDbEntity
  8
0
  6
Continuous
 62
     7
370
     5
100
AcDbCircle
 10
229.8267697606534
 20
10.39512012240812
 30
0.0
 40
0.1005878556989259
100
AcDbArc
 50
5.694799249061806
 51
65.62534170533378
1001
PE_URL
1000

  0
ARC
  5
769
102
{ACAD_REACTORS
102
}
330
630
100
AcDbEntity
  8
0
  6
Continuous
 62
     7
370
     5
100
AcDbCircle
 10
229.8267697606534
 20
41.09705464930812
 30
0.0
 40
0.1005878556988379
100
AcDbArc
 50
5.694799251123807
 51
65.62534170627755
1001
PE_URL
1000

  0
ARC
  5
76A
102
{ACAD_REACTORS
102
}
330
630
100
AcDbEntity
  8
0
  6
Continuous
 62
     7
370
     5
100
AcDbCircle
 10
212.1077756544582
 20
0.1184681034465029
 30
0.0
 40
0.100595447180329
100
AcDbArc
 50
234.3824225233182
 51
294.3071190444065
1001
PE_URL
1000

  0
ARC
  5
76B
102
{ACAD_REACTORS
102
}
330
630
100
AcDbEntity
  8
0
  6
Continuous
 62
     7
370
     5
100
AcDbCircle
 10
211.9906076325242
 20
0.1184681034465029
 30
0.0
 40
0.1005954471799664
100
AcDbArc
 50
245.6928809500197
 51
305.6175774692151
1001
PE_URL
1000

  0
ARC
  5
76C
102
{ACAD_REACTORS
102
}
330
630
100
AcDbEntity
  8
0
  6
Continuous
 62
     7
370
     5
100
AcDbCircle
 10
229.7731454177665
 20
41.20078954139535
 30
0.0
 40
0.0959051096936088
100
AcDbArc
 50
352.7441705860327
 51
55.94364901815914
1001
PE_URL
1000

  0
ENDBLK
  5
76E
330
630
100
AcDbEntity
  8
0
100
AcDbBlockEnd
  0
ENDSEC
  0
SECTION
  2
ENTITIES
  0
MTEXT
  5
234
330
1F
100
AcDbEntity
  8
寸法線
100
AcDbMText
 10
385.4959259259258
 20
267.8601851851853
 30
0.0
 40
11.66666666666667
 41
273.3522079092452
 71
     1
 72
     5
  1
{MPP-10/0300/FF/R}
 73
     1
 44
1.0
1001
ACAD
1000
ACAD_MTEXT_DEFINED_HEIGHT_BEGIN
1070
    46
1040
11.66666666666667
1000
ACAD_MTEXT_DEFINED_HEIGHT_END
  0
INSERT
  5
76F
330
1F
100
AcDbEntity
  8
0
100
AcDbBlockReference
  2
A$C28493
 10
365.1889146606684
 20
296.6979595292559
 30
0.0
  0
ENDSEC
  0
SECTION
  2
OBJECTS
  0
DICTIONARY
  5
C
330
0
100
AcDbDictionary
281
     1
  3
ACAD_DETAILVIEWSTYLE
350
217
  3
ACAD_GROUP
350
D
  3
ACAD_LAYOUT
350
1A
  3
ACAD_MLINESTYLE
350
17
  3
ACAD_PLOTSETTINGS
350
19
  3
ACAD_PLOTSTYLENAME
350
E
  3
ACAD_SCALELIST
350
47
  3
ACAD_SECTIONVIEWSTYLE
350
218
  3
AcDbVariableDictionary
350
212
  3
APPDATA
350
211
  3
DWGPROPS
350
770
  0
DICTIONARY
  5
22F
330
2
100
AcDbDictionary
280
     1
281
     1
  3
ACAD_LAYERSTATES
360
230
  0
DICTIONARY
  5
21B
330
21A
100
AcDbDictionary
280
     1
281
     1
  3
ADSK_XREC_LAYER_RECONCILED
360
21C
  0
DICTIONARY
  5
217
102
{ACAD_REACTORS
330
C
102
}
330
C
100
AcDbDictionary
281
     1
  0
DICTIONARY
  5
D
102
{ACAD_REACTORS
330
C
102
}
330
C
100
AcDbDictionary
281
     1
  0
DICTIONARY
  5
1A
102
{ACAD_REACTORS
330
C
102
}
330
C
100
AcDbDictionary
281
     1
  3
Layout1
350
1E
  3
Layout2
350
26
  3
Model
350
22
  0
DICTIONARY
  5
17
102
{ACAD_REACTORS
330
C
102
}
330
C
100
AcDbDictionary
281
     1
  3
Standard
350
18
  0
DICTIONARY
  5
19
102
{ACAD_REACTORS
330
C
102
}
330
C
100
AcDbDictionary
281
     1
  0
ACDBDICTIONARYWDFLT
  5
E
102
{ACAD_REACTORS
330
C
102
}
330
C
100
AcDbDictionary
281
     1
  3
Normal
350
F
100
AcDbDictionaryWithDefault
340
F
  0
DICTIONARY
  5
47
102
{ACAD_REACTORS
330
C
102
}
330
C
100
AcDbDictionary
281
     1
  3
A0
350
48
  3
A1
350
49
  3
A2
350
4A
  3
A3
350
4B
  3
A4
350
4C
  3
A5
350
4D
  3
A6
350
4E
  3
A7
350
4F
  3
A8
350
50
  3
A9
350
51
  3
B0
350
52
  3
B1
350
53
  3
B2
350
54
  3
B3
350
55
  3
B4
350
56
  3
B5
350
57
  3
B6
350
58
  3
B7
350
59
  3
B8
350
5A
  3
B9
350
5B
  3
C0
350
5C
  3
C1
350
5D
  3
C2
350
5E
  3
C3
350
5F
  3
C4
350
60
  3
C5
350
61
  3
C6
350
62
  3
C7
350
63
  3
C8
350
64
  3
C9
350
65
  3
D0
350
66
  3
D1
350
67
  3
D2
350
68
  0
DICTIONARY
  5
218
102
{ACAD_REACTORS
330
C
102
}
330
C
100
AcDbDictionary
281
     1
  0
DICTIONARY
  5
212
102
{ACAD_REACTORS
330
C
102
}
330
C
100
AcDbDictionary
281
     1
  0
DICTIONARY
  5
211
102
{ACAD_REACTORS
330
C
102
}
330
C
100
AcDbDictionary
281
     1
  0
XRECORD
  5
770
102
{ACAD_REACTORS
330
C
102
}
330
C
100
AcDbXrecord
280
     1
  1
DWGPROPS COOKIE
  2

  3

  4

  6

  7

  8
ModuleX
  9

300
=
301
=
302
=
303
=
304
=
305
=
306
=
307
=
308
=
309
=
 40
0.0
 41
2458687.078849051
 42
2459611.287813125
  1

 90
        0
  0
DICTIONARY
  5
230
102
{ACAD_REACTORS
330
22F
102
}
330
22F
100
AcDbDictionary
281
     1
  0
XRECORD
  5
21C
102
{ACAD_REACTORS
330
21B
102
}
330
21B
100
AcDbXrecord
280
     1
290
     1
  0
LAYOUT
  5
1E
102
{ACAD_REACTORS
330
1A
102
}
330
1A
100
AcDbPlotSettings
  1

  2
none_device
  4

  6

 40
0.0
 41
0.0
 42
0.0
 43
0.0
 44
0.0
 45
0.0
 46
0.0
 47
0.0
 48
0.0
 49
0.0
140
0.0
141
0.0
142
1.0
143
1.0
 70
   688
 72
     1
 73
     0
 74
     5
  7

 75
    16
147
1.0
148
0.0
149
0.0
100
AcDbLayout
  1
Layout1
 70
     1
 71
     1
 10
0.0
 20
0.0
 11
420.0
 21
297.0
 12
0.0
 22
0.0
 32
0.0
 14
1.000000000000000E+20
 24
1.000000000000000E+20
 34
1.000000000000000E+20
 15
-1.000000000000000E+20
 25
-1.000000000000000E+20
 35
-1.000000000000000E+20
146
0.0
 13
0.0
 23
0.0
 33
0.0
 16
1.0
 26
0.0
 36
0.0
 17
0.0
 27
1.0
 37
0.0
 76
     0
330
1B
  0
LAYOUT
  5
26
102
{ACAD_REACTORS
330
1A
102
}
330
1A
100
AcDbPlotSettings
  1

  2
none_device
  4

  6

 40
0.0
 41
0.0
 42
0.0
 43
0.0
 44
0.0
 45
0.0
 46
0.0
 47
0.0
 48
0.0
 49
0.0
140
0.0
141
0.0
142
1.0
143
1.0
 70
   688
 72
     1
 73
     0
 74
     5
  7

 75
    16
147
1.0
148
0.0
149
0.0
100
AcDbLayout
  1
Layout2
 70
     1
 71
     2
 10
0.0
 20
0.0
 11
0.0
 21
0.0
 12
0.0
 22
0.0
 32
0.0
 14
0.0
 24
0.0
 34
0.0
 15
0.0
 25
0.0
 35
0.0
146
0.0
 13
0.0
 23
0.0
 33
0.0
 16
1.0
 26
0.0
 36
0.0
 17
0.0
 27
1.0
 37
0.0
 76
     0
330
23
  0
LAYOUT
  5
22
102
{ACAD_REACTORS
330
1A
102
}
330
1A
100
AcDbPlotSettings
  1

  2
none_device
  4
Letter_(8.50_x_11.00_Inches)
  6

 40
6.35
 41
6.35
 42
6.35000508
 43
6.35000508
 44
215.9
 45
279.4
 46
0.0
 47
0.0
 48
0.0
 49
0.0
140
0.0
141
0.0
142
1.0
143
1.0
 70
  1712
 72
     1
 73
     0
 74
     0
  7

 75
     0
147
1.0
148
0.0
149
0.0
100
AcDbLayout
  1
Model
 70
     1
 71
     0
 10
0.0
 20
0.0
 11
1189.0
 21
841.0
 12
0.0
 22
0.0
 32
0.0
 14
365.18891466067
 24
256.1935185185186
 34
0.0
 15
595.1157760526642
 25
460.302930604984
 35
0.0
146
0.0
 13
0.0
 23
0.0
 33
0.0
 16
1.0
 26
0.0
 36
0.0
 17
0.0
 27
1.0
 37
0.0
 76
     0
330
1F
331
29
  0
MLINESTYLE
  5
18
102
{ACAD_REACTORS
330
17
102
}
330
17
100
AcDbMlineStyle
  2
Standard
 70
     0
  3

 62
   256
 51
90.0
 52
90.0
 71
     2
 49
0.5
 62
   256
  6
BYLAYER
 49
-0.5
 62
   256
  6
BYLAYER
  0
ACDBPLACEHOLDER
  5
F
102
{ACAD_REACTORS
330
E
102
}
330
E
  0
SCALE
  5
48
102
{ACAD_REACTORS
330
47
102
}
330
47
100
AcDbScale
 70
     0
300
1:1
140
1.0
141
1.0
290
     1
  0
SCALE
  5
49
102
{ACAD_REACTORS
330
47
102
}
330
47
100
AcDbScale
 70
     0
300
1:2
140
1.0
141
2.0
290
     0
  0
SCALE
  5
4A
102
{ACAD_REACTORS
330
47
102
}
330
47
100
AcDbScale
 70
     0
300
1:4
140
1.0
141
4.0
290
     0
  0
SCALE
  5
4B
102
{ACAD_REACTORS
330
47
102
}
330
47
100
AcDbScale
 70
     0
300
1:5
140
1.0
141
5.0
290
     0
  0
SCALE
  5
4C
102
{ACAD_REACTORS
330
47
102
}
330
47
100
AcDbScale
 70
     0
300
1:8
140
1.0
141
8.0
290
     0
  0
SCALE
  5
4D
102
{ACAD_REACTORS
330
47
102
}
330
47
100
AcDbScale
 70
     0
300
1:10
140
1.0
141
10.0
290
     0
  0
SCALE
  5
4E
102
{ACAD_REACTORS
330
47
102
}
330
47
100
AcDbScale
 70
     0
300
1:16
140
1.0
141
16.0
290
     0
  0
SCALE
  5
4F
102
{ACAD_REACTORS
330
47
102
}
330
47
100
AcDbScale
 70
     0
300
1:20
140
1.0
141
20.0
290
     0
  0
SCALE
  5
50
102
{ACAD_REACTORS
330
47
102
}
330
47
100
AcDbScale
 70
     0
300
1:30
140
1.0
141
30.0
290
     0
  0
SCALE
  5
51
102
{ACAD_REACTORS
330
47
102
}
330
47
100
AcDbScale
 70
     0
300
1:40
140
1.0
141
40.0
290
     0
  0
SCALE
  5
52
102
{ACAD_REACTORS
330
47
102
}
330
47
100
AcDbScale
 70
     0
300
1:50
140
1.0
141
50.0
290
     0
  0
SCALE
  5
53
102
{ACAD_REACTORS
330
47
102
}
330
47
100
AcDbScale
 70
     0
300
1:100
140
1.0
141
100.0
290
     0
  0
SCALE
  5
54
102
{ACAD_REACTORS
330
47
102
}
330
47
100
AcDbScale
 70
     0
300
2:1
140
2.0
141
1.0
290
     0
  0
SCALE
  5
55
102
{ACAD_REACTORS
330
47
102
}
330
47
100
AcDbScale
 70
     0
300
4:1
140
4.0
141
1.0
290
     0
  0
SCALE
  5
56
102
{ACAD_REACTORS
330
47
102
}
330
47
100
AcDbScale
 70
     0
300
8:1
140
8.0
141
1.0
290
     0
  0
SCALE
  5
57
102
{ACAD_REACTORS
330
47
102
}
330
47
100
AcDbScale
 70
     0
300
10:1
140
10.0
141
1.0
290
     0
  0
SCALE
  5
58
102
{ACAD_REACTORS
330
47
102
}
330
47
100
AcDbScale
 70
     0
300
100:1
140
100.0
141
1.0
290
     0
  0
SCALE
  5
59
102
{ACAD_REACTORS
330
47
102
}
330
47
100
AcDbScale
 70
     0
300
1/128" = 1'-0"
140
0.0078125
141
12.0
290
     0
  0
SCALE
  5
5A
102
{ACAD_REACTORS
330
47
102
}
330
47
100
AcDbScale
 70
     0
300
1/64" = 1'-0"
140
0.015625
141
12.0
290
     0
  0
SCALE
  5
5B
102
{ACAD_REACTORS
330
47
102
}
330
47
100
AcDbScale
 70
     0
300
1/32" = 1'-0"
140
0.03125
141
12.0
290
     0
  0
SCALE
  5
5C
102
{ACAD_REACTORS
330
47
102
}
330
47
100
AcDbScale
 70
     0
300
1/16" = 1'-0"
140
0.0625
141
12.0
290
     0
  0
SCALE
  5
5D
102
{ACAD_REACTORS
330
47
102
}
330
47
100
AcDbScale
 70
     0
300
3/32" = 1'-0"
140
0.09375
141
12.0
290
     0
  0
SCALE
  5
5E
102
{ACAD_REACTORS
330
47
102
}
330
47
100
AcDbScale
 70
     0
300
1/8" = 1'-0"
140
0.125
141
12.0
290
     0
  0
SCALE
  5
5F
102
{ACAD_REACTORS
330
47
102
}
330
47
100
AcDbScale
 70
     0
300
3/16" = 1'-0"
140
0.1875
141
12.0
290
     0
  0
SCALE
  5
60
102
{ACAD_REACTORS
330
47
102
}
330
47
100
AcDbScale
 70
     0
300
1/4" = 1'-0"
140
0.25
141
12.0
290
     0
  0
SCALE
  5
61
102
{ACAD_REACTORS
330
47
102
}
330
47
100
AcDbScale
 70
     0
300
3/8" = 1'-0"
140
0.375
141
12.0
290
     0
  0
SCALE
  5
62
102
{ACAD_REACTORS
330
47
102
}
330
47
100
AcDbScale
 70
     0
300
1/2" = 1'-0"
140
0.5
141
12.0
290
     0
  0
SCALE
  5
63
102
{ACAD_REACTORS
330
47
102
}
330
47
100
AcDbScale
 70
     0
300
3/4" = 1'-0"
140
0.75
141
12.0
290
     0
  0
SCALE
  5
64
102
{ACAD_REACTORS
330
47
102
}
330
47
100
AcDbScale
 70
     0
300
1" = 1'-0"
140
1.0
141
12.0
290
     0
  0
SCALE
  5
65
102
{ACAD_REACTORS
330
47
102
}
330
47
100
AcDbScale
 70
     0
300
1-1/2" = 1'-0"
140
1.5
141
12.0
290
     0
  0
SCALE
  5
66
102
{ACAD_REACTORS
330
47
102
}
330
47
100
AcDbScale
 70
     0
300
3" = 1'-0"
140
3.0
141
12.0
290
     0
  0
SCALE
  5
67
102
{ACAD_REACTORS
330
47
102
}
330
47
100
AcDbScale
 70
     0
300
6" = 1'-0"
140
6.0
141
12.0
290
     0
  0
SCALE
  5
68
102
{ACAD_REACTORS
330
47
102
}
330
47
100
AcDbScale
 70
     0
300
1'-0" = 1'-0"
140
12.0
141
12.0
290
     0
  0
ENDSEC
  0
EOF
