  0
SECTION
  2
HEADER
  9
$ACADVER
  1
AC1015
  9
$ACADMAINTVER
 70
     6
  9
$DWGCODEPAGE
  3
ANSI_932
  9
$INSBASE
 10
0.0
 20
0.0
 30
0.0
  9
$EXTMIN
 10
365.1889083628785
 20
-107.2015432098764
 30
0.0
  9
$EXTMAX
 10
1225.147892455567
 20
460.302935363655
 30
0.0
  9
$LIMMIN
 10
0.0
 20
0.0
  9
$LIMMAX
 10
1189.0
 20
841.0
  9
$ORTHOMODE
 70
     0
  9
$REGENMODE
 70
     1
  9
$FILLMODE
 70
     1
  9
$QTEXTMODE
 70
     0
  9
$MIRRTEXT
 70
     1
  9
$LTSCALE
 40
1.0
  9
$ATTMODE
 70
     1
  9
$TEXTSIZE
 40
3.5
  9
$TRACEWID
 40
1.0
  9
$TEXTSTYLE
  7
Standard
  9
$CLAYER
  8
0
  9
$CELTYPE
  6
ByLayer
  9
$CECOLOR
 62
   256
  9
$CELTSCALE
 40
1.0
  9
$DISPSILH
 70
     0
  9
$DIMSCALE
 40
1.0
  9
$DIMASZ
 40
3.302
  9
$DIMEXO
 40
1.0
  9
$DIMDLI
 40
3.75
  9
$DIMRND
 40
0.0
  9
$DIMDLE
 40
0.0
  9
$DIMEXE
 40
1.0
  9
$DIMTP
 40
0.0
  9
$DIMTM
 40
0.0
  9
$DIMTXT
 40
3.5
  9
$DIMCEN
 40
2.5
  9
$DIMTSZ
 40
0.0
  9
$DIMTOL
 70
     0
  9
$DIMLIM
 70
     0
  9
$DIMTIH
 70
     1
  9
$DIMTOH
 70
     1
  9
$DIMSE1
 70
     0
  9
$DIMSE2
 70
     0
  9
$DIMTAD
 70
     1
  9
$DIMZIN
 70
     0
  9
$DIMBLK
  1

  9
$DIMASO
 70
     1
  9
$DIMSHO
 70
     1
  9
$DIMPOST
  1

  9
$DIMAPOST
  1

  9
$DIMALT
 70
     0
  9
$DIMALTD
 70
     3
  9
$DIMALTF
 40
0.0393700787401575
  9
$DIMLFAC
 40
1.0
  9
$DIMTOFL
 70
     1
  9
$DIMTVP
 40
0.0
  9
$DIMTIX
 70
     0
  9
$DIMSOXD
 70
     0
  9
$DIMSAH
 70
     0
  9
$DIMBLK1
  1

  9
$DIMBLK2
  1

  9
$DIMSTYLE
  2
ISO-25
  9
$DIMCLRD
 70
     0
  9
$DIMCLRE
 70
     0
  9
$DIMCLRT
 70
     0
  9
$DIMTFAC
 40
1.0
  9
$DIMGAP
 40
1.524
  9
$DIMJUST
 70
     0
  9
$DIMSD1
 70
     0
  9
$DIMSD2
 70
     0
  9
$DIMTOLJ
 70
     0
  9
$DIMTZIN
 70
     0
  9
$DIMALTZ
 70
     0
  9
$DIMALTTZ
 70
     0
  9
$DIMUPT
 70
     0
  9
$DIMDEC
 70
     2
  9
$DIMTDEC
 70
     2
  9
$DIMALTU
 70
     2
  9
$DIMALTTD
 70
     3
  9
$DIMTXSTY
  7
Standard
  9
$DIMAUNIT
 70
     0
  9
$DIMADEC
 70
     2
  9
$DIMALTRND
 40
0.0
  9
$DIMAZIN
 70
     0
  9
$DIMDSEP
 70
    44
  9
$DIMATFIT
 70
     3
  9
$DIMFRAC
 70
     0
  9
$DIMLDRBLK
  1

  9
$DIMLUNIT
 70
     2
  9
$DIMLWD
 70
    -2
  9
$DIMLWE
 70
    -2
  9
$DIMTMOVE
 70
     0
  9
$LUNITS
 70
     2
  9
$LUPREC
 70
     2
  9
$SKETCHINC
 40
1.0
  9
$FILLETRAD
 40
10.0
  9
$AUNITS
 70
     0
  9
$AUPREC
 70
     2
  9
$MENU
  1
.
  9
$ELEVATION
 40
0.0
  9
$PELEVATION
 40
0.0
  9
$THICKNESS
 40
0.0
  9
$LIMCHECK
 70
     0
  9
$CHAMFERA
 40
0.0
  9
$CHAMFERB
 40
0.0
  9
$CHAMFERC
 40
0.0
  9
$CHAMFERD
 40
0.0
  9
$SKPOLY
 70
     0
  9
$TDCREATE
 40
2458687.453849086
  9
$TDUCREATE
 40
2458687.078849086
  9
$TDUPDATE
 40
2458737.493635729
  9
$TDUUPDATE
 40
2458737.118635729
  9
$TDINDWG
 40
0.0059008218
  9
$TDUSRTIMER
 40
0.0001679514
  9
$USRTIMER
 70
     1
  9
$ANGBASE
 50
0.0
  9
$ANGDIR
 70
     0
  9
$PDMODE
 70
     0
  9
$PDSIZE
 40
-1.0
  9
$PLINEWID
 40
0.0
  9
$SPLFRAME
 70
     0
  9
$SPLINETYPE
 70
     6
  9
$SPLINESEGS
 70
     8
  9
$HANDSEED
  5
69C
  9
$SURFTAB1
 70
     6
  9
$SURFTAB2
 70
     6
  9
$SURFTYPE
 70
     6
  9
$SURFU
 70
     6
  9
$SURFV
 70
     6
  9
$UCSBASE
  2

  9
$UCSNAME
  2

  9
$UCSORG
 10
0.0
 20
0.0
 30
0.0
  9
$UCSXDIR
 10
1.0
 20
0.0
 30
0.0
  9
$UCSYDIR
 10
0.0
 20
1.0
 30
0.0
  9
$UCSORTHOREF
  2

  9
$UCSORTHOVIEW
 70
     1
  9
$UCSORGTOP
 10
0.0
 20
0.0
 30
0.0
  9
$UCSORGBOTTOM
 10
0.0
 20
0.0
 30
0.0
  9
$UCSORGLEFT
 10
0.0
 20
0.0
 30
0.0
  9
$UCSORGRIGHT
 10
0.0
 20
0.0
 30
0.0
  9
$UCSORGFRONT
 10
0.0
 20
0.0
 30
0.0
  9
$UCSORGBACK
 10
0.0
 20
0.0
 30
0.0
  9
$PUCSBASE
  2

  9
$PUCSNAME
  2

  9
$PUCSORG
 10
0.0
 20
0.0
 30
0.0
  9
$PUCSXDIR
 10
1.0
 20
0.0
 30
0.0
  9
$PUCSYDIR
 10
0.0
 20
1.0
 30
0.0
  9
$PUCSORTHOREF
  2

  9
$PUCSORTHOVIEW
 70
     0
  9
$PUCSORGTOP
 10
0.0
 20
0.0
 30
0.0
  9
$PUCSORGBOTTOM
 10
0.0
 20
0.0
 30
0.0
  9
$PUCSORGLEFT
 10
0.0
 20
0.0
 30
0.0
  9
$PUCSORGRIGHT
 10
0.0
 20
0.0
 30
0.0
  9
$PUCSORGFRONT
 10
0.0
 20
0.0
 30
0.0
  9
$PUCSORGBACK
 10
0.0
 20
0.0
 30
0.0
  9
$USERI1
 70
     0
  9
$USERI2
 70
     0
  9
$USERI3
 70
     0
  9
$USERI4
 70
     0
  9
$USERI5
 70
     0
  9
$USERR1
 40
0.0
  9
$USERR2
 40
0.0
  9
$USERR3
 40
0.0
  9
$USERR4
 40
0.0
  9
$USERR5
 40
0.0
  9
$WORLDVIEW
 70
     1
  9
$SHADEDGE
 70
     3
  9
$SHADEDIF
 70
    70
  9
$TILEMODE
 70
     1
  9
$MAXACTVP
 70
    64
  9
$PINSBASE
 10
0.0
 20
0.0
 30
0.0
  9
$PLIMCHECK
 70
     0
  9
$PEXTMIN
 10
1.000000000000000E+20
 20
1.000000000000000E+20
 30
1.000000000000000E+20
  9
$PEXTMAX
 10
-1.000000000000000E+20
 20
-1.000000000000000E+20
 30
-1.000000000000000E+20
  9
$PLIMMIN
 10
0.0
 20
0.0
  9
$PLIMMAX
 10
0.0
 20
0.0
  9
$UNITMODE
 70
     0
  9
$VISRETAIN
 70
     1
  9
$PLINEGEN
 70
     0
  9
$PSLTSCALE
 70
     1
  9
$TREEDEPTH
 70
  3020
  9
$CMLSTYLE
  2
Standard
  9
$CMLJUST
 70
     0
  9
$CMLSCALE
 40
20.0
  9
$PROXYGRAPHICS
 70
     1
  9
$MEASUREMENT
 70
     1
  9
$CELWEIGHT
370
    -1
  9
$ENDCAPS
280
     0
  9
$JOINSTYLE
280
     0
  9
$LWDISPLAY
290
     1
  9
$INSUNITS
 70
     4
  9
$HYPERLINKBASE
  1

  9
$STYLESHEET
  1

  9
$XEDIT
290
     1
  9
$CEPSNTYPE
380
     0
  9
$PSTYLEMODE
290
     1
  9
$FINGERPRINTGUID
  2
{5A54540F-9E90-4C4F-B401-B83331D554B4}
  9
$VERSIONGUID
  2
{FAEB1C32-E019-11D5-929B-00C0DF256EC4}
  9
$EXTNAMES
290
     1
  9
$PSVPSCALE
 40
0.0
  9
$OLESTARTUP
290
     0
  0
ENDSEC
  0
SECTION
  2
CLASSES
  0
CLASS
  1
ACDBDICTIONARYWDFLT
  2
AcDbDictionaryWithDefault
  3
ObjectDBX Classes
 90
        0
280
     0
281
     0
  0
CLASS
  1
VISUALSTYLE
  2
AcDbVisualStyle
  3
ObjectDBX Classes
 90
     4095
280
     0
281
     0
  0
CLASS
  1
MATERIAL
  2
AcDbMaterial
  3
ObjectDBX Classes
 90
     1153
280
     0
281
     0
  0
CLASS
  1
SCALE
  2
AcDbScale
  3
ObjectDBX Classes
 90
     1153
280
     0
281
     0
  0
CLASS
  1
TABLESTYLE
  2
AcDbTableStyle
  3
ObjectDBX Classes
 90
     4095
280
     0
281
     0
  0
CLASS
  1
MLEADERSTYLE
  2
AcDbMLeaderStyle
  3
ACDB_MLEADERSTYLE_CLASS
 90
     4095
280
     0
281
     0
  0
CLASS
  1
SUN
  2
AcDbSun
  3
SCENEOE
 90
     1153
280
     0
281
     0
  0
CLASS
  1
ACDBPLACEHOLDER
  2
AcDbPlaceHolder
  3
ObjectDBX Classes
 90
        0
280
     0
281
     0
  0
CLASS
  1
LAYOUT
  2
AcDbLayout
  3
ObjectDBX Classes
 90
        0
280
     0
281
     0
  0
CLASS
  1
DICTIONARYVAR
  2
AcDbDictionaryVar
  3
ObjectDBX Classes
 90
        0
280
     0
281
     0
  0
ENDSEC
  0
SECTION
  2
TABLES
  0
TABLE
  2
VPORT
  5
8
330
0
100
AcDbSymbolTable
 70
     1
  0
VPORT
  5
29
330
8
100
AcDbSymbolTableRecord
100
AcDbViewportTableRecord
  2
*Active
 70
     0
 10
0.0
 20
0.0
 11
1.0
 21
1.0
 12
795.1684004092227
 22
176.5506960768893
 13
0.0
 23
0.0
 14
10.0
 24
10.0
 15
10.0
 25
10.0
 16
0.0
 26
0.0
 36
1.0
 17
0.0
 27
0.0
 37
0.0
 40
578.8545681450022
 41
1.940740740740741
 42
50.0
 43
0.0
 44
0.0
 50
0.0
 51
0.0
 71
    16
 72
  2000
 73
     1
 74
     3
 75
     0
 76
     0
 77
     0
 78
     0
281
     0
 65
     1
110
0.0
120
0.0
130
0.0
111
1.0
121
0.0
131
0.0
112
0.0
122
1.0
132
0.0
 79
     1
146
0.0
  0
ENDTAB
  0
TABLE
  2
LTYPE
  5
5
330
0
100
AcDbSymbolTable
 70
     6
  0
LTYPE
  5
14
330
5
100
AcDbSymbolTableRecord
100
AcDbLinetypeTableRecord
  2
ByBlock
 70
     0
  3

 72
    65
 73
     0
 40
0.0
  0
LTYPE
  5
15
330
5
100
AcDbSymbolTableRecord
100
AcDbLinetypeTableRecord
  2
ByLayer
 70
     0
  3

 72
    65
 73
     0
 40
0.0
  0
LTYPE
  5
16
330
5
100
AcDbSymbolTableRecord
100
AcDbLinetypeTableRecord
  2
Continuous
 70
     0
  3
Solid line
 72
    65
 73
     0
 40
0.0
  0
LTYPE
  5
6E
330
5
100
AcDbSymbolTableRecord
100
AcDbLinetypeTableRecord
  2
HIDDEN
 70
     0
  3
Hidden __ __ __ __ __ __ __ __ __ __ __ __ __ __
 72
    65
 73
     2
 40
1.905
 49
1.27
 74
     0
 49
-0.635
 74
     0
  0
LTYPE
  5
6F
330
5
100
AcDbSymbolTableRecord
100
AcDbLinetypeTableRecord
  2
PHANTOM
 70
     0
  3
Phantom ______  __  __  ______  __  __  ______
 72
    65
 73
     6
 40
12.7
 49
6.35
 74
     0
 49
-1.27
 74
     0
 49
1.27
 74
     0
 49
-1.27
 74
     0
 49
1.27
 74
     0
 49
-1.27
 74
     0
  0
LTYPE
  5
70
330
5
100
AcDbSymbolTableRecord
100
AcDbLinetypeTableRecord
  2
CENTER
 70
     0
  3
Center ____ _ ____ _ ____ _ ____ _ ____ _ ____
 72
    65
 73
     4
 40
10.16
 49
6.35
 74
     0
 49
-1.27
 74
     0
 49
1.27
 74
     0
 49
-1.27
 74
     0
  0
LTYPE
  5
71
330
5
100
AcDbSymbolTableRecord
100
AcDbLinetypeTableRecord
  2
CENTERX2
 70
     0
  3
Center (2x) ________  __  ________  __  _____
 72
    65
 73
     4
 40
20.32
 49
12.7
 74
     0
 49
-2.54
 74
     0
 49
2.54
 74
     0
 49
-2.54
 74
     0
  0
LTYPE
  5
72
330
5
100
AcDbSymbolTableRecord
100
AcDbLinetypeTableRecord
  2
DOT2
 70
     0
  3
Dot (.5x) ........................................
 72
    65
 73
     2
 40
0.635
 49
0.0
 74
     0
 49
-0.635
 74
     0
  0
ENDTAB
  0
TABLE
  2
LAYER
  5
2
102
{ACAD_XDICTIONARY
360
22F
102
}
330
0
100
AcDbSymbolTable
 70
     3
  0
LAYER
  5
10
330
2
100
AcDbSymbolTableRecord
100
AcDbLayerTableRecord
  2
0
 70
     0
 62
     7
  6
Continuous
370
    -3
390
F
  0
LAYER
  5
73
330
2
100
AcDbSymbolTableRecord
100
AcDbLayerTableRecord
  2
FORMAT
 70
     0
 62
     7
  6
Continuous
370
    -3
390
F
  0
LAYER
  5
21A
102
{ACAD_XDICTIONARY
360
21B
102
}
330
2
100
AcDbSymbolTableRecord
100
AcDbLayerTableRecord
  2
寸法線
 70
     0
 62
     7
  6
Continuous
370
    -3
390
F
  0
ENDTAB
  0
TABLE
  2
STYLE
  5
3
330
0
100
AcDbSymbolTable
 70
     3
  0
STYLE
  5
11
330
3
100
AcDbSymbolTableRecord
100
AcDbTextStyleTableRecord
  2
Standard
 70
     0
 40
0.0
 41
1.0
 50
0.0
 71
     0
 42
3.5
  3
txt
  4
bigfont
  0
STYLE
  5
E1
330
3
100
AcDbSymbolTableRecord
100
AcDbTextStyleTableRecord
  2
SLDTEXTSTYLE0
 70
     0
 40
0.0
 41
0.75
 50
0.0
 71
     0
 42
3.5
  3
TXT
  4
bigfont
  0
STYLE
  5
135
330
3
100
AcDbSymbolTableRecord
100
AcDbTextStyleTableRecord
  2
SLDTEXTSTYLE1
 70
     0
 40
0.0
 41
0.65625
 50
0.0
 71
     0
 42
3.5
  3
TXT
  4
bigfont
  0
ENDTAB
  0
TABLE
  2
VIEW
  5
6
330
0
100
AcDbSymbolTable
 70
     0
  0
ENDTAB
  0
TABLE
  2
UCS
  5
7
330
0
100
AcDbSymbolTable
 70
     0
  0
ENDTAB
  0
TABLE
  2
APPID
  5
9
330
0
100
AcDbSymbolTable
 70
     3
  0
APPID
  5
12
330
9
100
AcDbSymbolTableRecord
100
AcDbRegAppTableRecord
  2
ACAD
 70
     0
  0
APPID
  5
227
330
9
100
AcDbSymbolTableRecord
100
AcDbRegAppTableRecord
  2
ACAD_DSTYLE_DIMJAG
 70
     0
  0
APPID
  5
228
330
9
100
AcDbSymbolTableRecord
100
AcDbRegAppTableRecord
  2
ACAD_DSTYLE_DIMTALN
 70
     0
  0
ENDTAB
  0
TABLE
  2
DIMSTYLE
  5
A
330
0
100
AcDbSymbolTable
 70
     2
100
AcDbDimStyleTable
  0
DIMSTYLE
105
27
330
A
100
AcDbSymbolTableRecord
100
AcDbDimStyleTableRecord
  2
ISO-25
 70
     0
 41
2.5
 42
0.625
 43
3.75
 44
1.25
 73
     0
 74
     0
 77
     1
 78
     8
140
2.5
141
2.5
143
0.03937007874016
147
0.625
171
     3
172
     1
178
     0
271
     2
272
     2
274
     3
278
    44
283
     0
284
     8
340
11
  0
DIMSTYLE
105
220
330
A
100
AcDbSymbolTableRecord
100
AcDbDimStyleTableRecord
  2
STANDARD
 70
     0
 41
2.5
 42
1.5
 43
7.0
 44
1.0
 73
     0
 74
     0
 77
     3
 78
     8
 79
     2
140
3.0
141
0.0
146
0.6
147
1.0
171
     0
172
     1
176
     8
177
     8
271
     3
178
   256
179
     3
271
     3
272
     3
274
     0
289
     0
340
11
341
221
342
221
1001
ACAD_DSTYLE_DIMJAG
1070
   388
1040
1.5
1001
ACAD_DSTYLE_DIMTALN
1070
   392
1070
     0
  0
ENDTAB
  0
TABLE
  2
BLOCK_RECORD
  5
1
330
0
100
AcDbSymbolTable
 70
     3
  0
BLOCK_RECORD
  5
1F
330
1
100
AcDbSymbolTableRecord
100
AcDbBlockTableRecord
  2
*Model_Space
340
22
  0
BLOCK_RECORD
  5
1B
330
1
100
AcDbSymbolTableRecord
100
AcDbBlockTableRecord
  2
*Paper_Space
340
1E
  0
BLOCK_RECORD
  5
23
330
1
100
AcDbSymbolTableRecord
100
AcDbBlockTableRecord
  2
*Paper_Space0
340
26
  0
BLOCK_RECORD
  5
142
330
1
100
AcDbSymbolTableRecord
100
AcDbBlockTableRecord
  2
SW_NOTE_0
340
0
  0
BLOCK_RECORD
  5
221
330
1
100
AcDbSymbolTableRecord
100
AcDbBlockTableRecord
  2
_OPEN30
340
0
  0
ENDTAB
  0
ENDSEC
  0
SECTION
  2
BLOCKS
  0
BLOCK
  5
20
330
1F
100
AcDbEntity
  8
0
100
AcDbBlockBegin
  2
*Model_Space
 70
     0
 10
0.0
 20
0.0
 30
0.0
  3
*Model_Space
  1

  0
ENDBLK
  5
21
330
1F
100
AcDbEntity
  8
0
100
AcDbBlockEnd
  0
BLOCK
  5
1C
330
1B
100
AcDbEntity
 67
     1
  8
0
100
AcDbBlockBegin
  2
*Paper_Space
 70
     0
 10
0.0
 20
0.0
 30
0.0
  3
*Paper_Space
  1

  0
ENDBLK
  5
1D
330
1B
100
AcDbEntity
 67
     1
  8
0
100
AcDbBlockEnd
  0
BLOCK
  5
24
330
23
100
AcDbEntity
  8
0
100
AcDbBlockBegin
  2
*Paper_Space0
 70
     0
 10
0.0
 20
0.0
 30
0.0
  3
*Paper_Space0
  1

  0
ENDBLK
  5
25
330
23
100
AcDbEntity
  8
0
100
AcDbBlockEnd
  0
BLOCK
  5
143
330
142
100
AcDbEntity
  8
0
100
AcDbBlockBegin
  2
SW_NOTE_0
 70
     0
 10
0.0
 20
0.0
 30
0.0
  3
SW_NOTE_0
  1

  0
MTEXT
  5
145
330
142
100
AcDbEntity
  8
0
  6
Continuous
 62
     0
370
     0
100
AcDbMText
 10
0.0
 20
1.933601609657942
 30
0.0
 40
1.5
 41
0.0
 71
     1
 72
     1
  1
指示なき場合：
  7
SLDTEXTSTYLE0
 73
     1
 44
1.0
  0
MTEXT
  5
146
330
142
100
AcDbEntity
  8
0
  6
Continuous
 62
     0
370
     0
100
AcDbMText
 10
0.0
 20
-0.5663983344627033
 30
0.0
 40
1.5
 41
0.0
 71
     1
 72
     1
  1
寸法はミリメータとする　
  7
SLDTEXTSTYLE0
 73
     1
 44
1.0
  0
MTEXT
  5
147
330
142
100
AcDbEntity
  8
0
  6
Continuous
 62
     0
370
     0
100
AcDbMText
 10
0.0
 20
-3.066398278583349
 30
0.0
 40
1.5
 41
0.0
 71
     1
 72
     1
  1
表面粗さ：
  7
SLDTEXTSTYLE0
 73
     1
 44
1.0
  0
MTEXT
  5
148
330
142
100
AcDbEntity
  8
0
  6
Continuous
 62
     0
370
     0
100
AcDbMText
 10
0.0
 20
-5.566398222703994
 30
0.0
 40
1.5
 41
0.0
 71
     1
 72
     1
  1
　公差　：
  7
SLDTEXTSTYLE0
 73
     1
 44
1.0
  0
MTEXT
  5
149
330
142
100
AcDbEntity
  8
0
  6
Continuous
 62
     0
370
     0
100
AcDbMText
 10
0.0
 20
-8.06639816682464
 30
0.0
 40
1.5
 41
0.0
 71
     1
 72
     1
  1
　寸法　：
  7
SLDTEXTSTYLE0
 73
     1
 44
1.0
  0
MTEXT
  5
14A
330
142
100
AcDbEntity
  8
0
  6
Continuous
 62
     0
370
     0
100
AcDbMText
 10
0.0
 20
-10.56639811094528
 30
0.0
 40
1.5
 41
0.0
 71
     1
 72
     1
  1
　角度　：
  7
SLDTEXTSTYLE0
 73
     1
 44
1.0
  0
ENDBLK
  5
144
330
142
100
AcDbEntity
  8
0
100
AcDbBlockEnd
  0
BLOCK
  5
222
330
221
100
AcDbEntity
  8
0
100
AcDbBlockBegin
  2
_OPEN30
 70
     0
 10
0.0
 20
0.0
 30
0.0
  3
_OPEN30
  1

  0
LINE
  5
223
330
221
100
AcDbEntity
  8
0
  6
ByBlock
 62
     0
100
AcDbLine
 10
-1.0
 20
0.26794919
 30
0.0
 11
0.0
 21
0.0
 31
0.0
  0
LINE
  5
224
330
221
100
AcDbEntity
  8
0
  6
ByBlock
 62
     0
100
AcDbLine
 10
0.0
 20
0.0
 30
0.0
 11
-1.0
 21
-0.26794919
 31
0.0
  0
LINE
  5
225
330
221
100
AcDbEntity
  8
0
  6
ByBlock
 62
     0
100
AcDbLine
 10
0.0
 20
0.0
 30
0.0
 11
-1.0
 21
0.0
 31
0.0
  0
ENDBLK
  5
226
330
221
100
AcDbEntity
  8
0
100
AcDbBlockEnd
  0
ENDSEC
  0
SECTION
  2
ENTITIES
  0
LINE
  5
151
330
1F
100
AcDbEntity
  8
0
  6
Continuous
 62
     7
370
    25
100
AcDbLine
 10
383.1192583574949
 20
428.2067758645518
 30
0.0
 11
593.1299659635781
 21
306.9701749571697
 31
0.0
  0
ARC
  5
15B
330
1F
100
AcDbEntity
  8
0
  6
Continuous
 62
     7
370
    25
100
AcDbCircle
 10
365.3889083628785
 20
419.1958994389669
 30
0.0
 40
0.1999999999999915
100
AcDbArc
 50
180.0
 51
240.0026882663496
  0
LINE
  5
15C
330
1F
100
AcDbEntity
  8
0
  6
Continuous
 62
     7
370
    25
100
AcDbLine
 10
365.188916231957
 20
449.8978285697781
 30
0.0
 11
365.188916231957
 21
419.1958947590589
 31
0.0
  0
LINE
  5
15D
330
1F
100
AcDbEntity
  8
0
  6
Continuous
 62
     7
370
    25
100
AcDbLine
 10
365.2889181911277
 20
419.0226890523807
 30
0.0
 11
366.0667382803962
 21
418.5736630726327
 31
0.0
  0
ARC
  5
15E
330
1F
100
AcDbEntity
  8
0
  6
Continuous
 62
     7
370
    25
100
AcDbCircle
 10
383.0665778925423
 20
460.102935363655
 30
0.0
 40
0.1999999999999915
100
AcDbArc
 50
60.00268826634883
 51
119.9973117336512
  0
LINE
  5
15F
330
1F
100
AcDbEntity
  8
0
  6
Continuous
 62
     7
370
    25
100
AcDbLine
 10
383.944390918395
 20
459.8271186975875
 30
0.0
 11
383.1665708291264
 21
460.2761446773355
 31
0.0
  0
LINE
  5
160
330
1F
100
AcDbEntity
  8
0
  6
Continuous
 62
     7
370
    25
100
AcDbLine
 10
382.9665860085757
 20
460.2761458178445
 30
0.0
 11
365.2889162154942
 21
450.0710442679927
 31
0.0
  0
ARC
  5
161
330
1F
100
AcDbEntity
  8
0
  6
Continuous
 62
     7
370
    25
100
AcDbCircle
 10
365.3889083628785
 20
449.8978339658712
 30
0.0
 40
0.1999999999999915
100
AcDbArc
 50
119.9973117336512
 51
180.0
  0
LINE
  5
162
330
1F
100
AcDbEntity
  8
0
  6
Continuous
 62
     7
370
    25
100
AcDbLine
 10
384.1272443621149
 20
459.81721430586
 30
0.0
 11
383.9858232461146
 21
459.7355736333636
 31
0.0
  0
LINE
  5
163
330
1F
100
AcDbEntity
  8
0
  6
Continuous
 62
     7
370
    25
100
AcDbLine
 10
384.1272443621149
 20
428.7886644519289
 30
0.0
 11
384.1272443621149
 21
459.81721430586
 31
0.0
  0
LINE
  5
164
330
1F
100
AcDbEntity
  8
0
  6
Continuous
 62
     7
370
    25
100
AcDbLine
 10
383.4201374650246
 20
428.3804603291076
 30
0.0
 11
384.1272443621149
 21
428.7886644519289
 31
0.0
  0
LINE
  5
165
330
1F
100
AcDbEntity
  8
0
  6
Continuous
 62
     7
370
    25
100
AcDbLine
 10
384.1272443621149
 20
428.7886644519289
 30
0.0
 11
594.1379519681982
 21
307.5520635445467
 31
0.0
  0
LINE
  5
166
330
1F
100
AcDbEntity
  8
0
  6
Continuous
 62
     7
370
    25
100
AcDbLine
 10
384.1272443621149
 20
459.81721430586
 30
0.0
 11
594.1379519681982
 21
338.580613398478
 31
0.0
  0
LINE
  5
168
330
1F
100
AcDbEntity
  8
0
  6
Continuous
 62
     7
370
    25
100
AcDbLine
 10
383.4201374650246
 20
428.3804603291076
 30
0.0
 11
593.4308450711079
 21
307.1438594217255
 31
0.0
  0
LINE
  5
16B
330
1F
100
AcDbEntity
  8
0
  6
Continuous
 62
     7
370
    25
100
AcDbLine
 10
366.1667323370328
 20
418.4202815570844
 30
0.0
 11
366.8738392341232
 21
418.8284856799056
 31
0.0
  0
LINE
  5
16C
330
1F
100
AcDbEntity
  8
0
  6
Continuous
 62
     7
370
    25
100
AcDbLine
 10
366.1667323370328
 20
418.5835631823105
 30
0.0
 11
366.1667323370328
 21
418.4202815570844
 31
0.0
  0
LINE
  5
16D
330
1F
100
AcDbEntity
  8
0
  6
Continuous
 62
     7
370
    25
100
AcDbLine
 10
366.8738392341232
 20
418.8284856799056
 30
0.0
 11
576.8845468402066
 21
297.5918847725235
 31
0.0
  0
LINE
  5
16F
330
1F
100
AcDbEntity
  8
0
  6
Continuous
 62
     7
370
    25
100
AcDbLine
 10
366.1667323370328
 20
418.4202815570844
 30
0.0
 11
576.177439943116
 21
297.1836806497023
 31
0.0
  0
LINE
  5
171
330
1F
100
AcDbEntity
  8
0
  6
Continuous
 62
     7
370
    25
100
AcDbLine
 10
592.5433032350029
 20
306.6314915394358
 30
0.0
 11
382.5325956289197
 21
427.8680924468179
 31
0.0
  0
LINE
  5
178
330
1F
100
AcDbEntity
  8
0
  6
Continuous
 62
     7
370
    25
100
AcDbLine
 10
382.3656351690831
 20
458.9562734185937
 30
0.0
 11
382.3594606557763
 21
458.9598378892539
 31
0.0
  0
LINE
  5
179
330
1F
100
AcDbEntity
  8
0
  6
Continuous
 62
     7
370
    25
100
AcDbLine
 10
382.3594606557763
 20
458.9598378892539
 30
0.0
 11
382.3594606557763
 21
429.8021906274377
 31
0.0
  0
LINE
  5
17A
330
1F
100
AcDbEntity
  8
0
  6
Continuous
 62
     7
370
    25
100
AcDbLine
 10
377.8339773705057
 20
427.1896847356025
 30
0.0
 11
377.8339773705057
 21
434.137421619675
 31
0.0
  0
LINE
  5
17B
330
1F
100
AcDbEntity
  8
0
  6
Continuous
 62
     7
370
    25
100
AcDbLine
 10
377.8339773705057
 20
434.137421619675
 30
0.0
 11
370.4800668261458
 21
429.8920994266397
 31
0.0
  0
LINE
  5
17C
330
1F
100
AcDbEntity
  8
0
  6
Continuous
 62
     7
370
    25
100
AcDbLine
 10
370.4800668261458
 20
429.8920994266397
 30
0.0
 11
370.4800668261458
 21
422.9443625425672
 31
0.0
  0
LINE
  5
17D
330
1F
100
AcDbEntity
  8
0
  6
Continuous
 62
     7
370
    25
100
AcDbLine
 10
365.9545835408752
 20
420.331856650732
 30
0.0
 11
365.9545835408752
 21
449.4895039125482
 31
0.0
  0
LINE
  5
17E
330
1F
100
AcDbEntity
  8
0
  6
Continuous
 62
     7
370
    25
100
AcDbLine
 10
365.9545835408752
 20
449.4895039125482
 30
0.0
 11
382.3594606557763
 21
458.9598378892539
 31
0.0
  0
LINE
  5
17F
330
1F
100
AcDbEntity
  8
0
  6
Continuous
 62
     7
370
    25
100
AcDbLine
 10
370.5569637512539
 20
429.8477077766777
 30
0.0
 11
370.4800668261458
 21
429.8920994266397
 31
0.0
  0
LINE
  5
180
330
1F
100
AcDbEntity
  8
0
  6
Continuous
 62
     7
370
    25
100
AcDbLine
 10
377.8339915292126
 20
433.8924910483687
 30
0.0
 11
377.828954322271
 21
433.8895831306981
 31
0.0
  0
ARC
  5
197
330
1F
100
AcDbEntity
  8
0
  6
Continuous
 62
     7
370
    25
100
AcDbCircle
 10
383.0665766219613
 20
429.2096660009952
 30
0.0
 40
0.3074344667700756
100
AcDbArc
 50
62.61204327089522
 51
117.3873406425148
  0
ARC
  5
198
330
1F
100
AcDbEntity
  8
0
  6
Continuous
 62
     7
370
    25
100
AcDbCircle
 10
382.9009569090391
 20
429.4966131691806
 30
0.0
 40
0.3073613642653202
100
AcDbArc
 50
302.6055705212424
 51
357.3944846941434
  0
ARC
  5
199
330
1F
100
AcDbEntity
  8
0
  6
Continuous
 62
     7
370
    25
100
AcDbCircle
 10
383.2322278115032
 20
429.4966313420837
 30
0.0
 40
0.3073906335225117
100
AcDbArc
 50
182.6083741322093
 51
237.3921868391657
  0
LINE
  5
19A
330
1F
100
AcDbEntity
  8
0
  6
Continuous
 62
     7
370
    25
100
AcDbLine
 10
382.9251556564894
 20
429.4826423037821
 30
0.0
 11
382.9251556564894
 21
460.1845761145013
 31
0.0
  0
ARC
  5
19B
330
1F
100
AcDbEntity
  8
0
  6
Continuous
 62
     7
370
    25
100
AcDbCircle
 10
383.0665766219613
 20
459.911599811714
 30
0.0
 40
0.3074344667704958
100
AcDbArc
 50
62.61204327093908
 51
117.3873406424758
  0
LINE
  5
19C
330
1F
100
AcDbEntity
  8
0
  6
Continuous
 62
     7
370
    25
100
AcDbLine
 10
383.208000522668
 20
460.1845745938228
 30
0.0
 11
383.208000522668
 21
429.4826407831035
 31
0.0
  0
LINE
  5
19D
330
1F
100
AcDbEntity
  8
0
  6
Continuous
 62
     7
370
    25
100
AcDbLine
 10
376.9270904602066
 20
426.0200329696801
 30
0.0
 11
382.9251556564894
 21
429.4826423037821
 31
0.0
  0
LINE
  5
19E
330
1F
100
AcDbEntity
  8
0
  6
Continuous
 62
     7
370
    25
100
AcDbLine
 10
383.0665794066678
 20
429.2376919523555
 30
0.0
 11
377.0660456562968
 21
425.7736575523116
 31
0.0
  0
ELLIPSE
  5
19F
330
1F
100
AcDbEntity
  8
0
  6
Continuous
 62
     7
370
    25
100
AcDbEllipse
 10
377.0660443282781
 20
425.9369665441442
 30
0.0
 11
-0.0974149464412335
 21
0.1746892004041456
 31
0.0
210
0.0
220
0.0
230
1.0
 40
0.5672183927598543
 41
0.7939066863097461
 42
2.364703013104796
  0
ARC
  5
1A0
330
1F
100
AcDbEntity
  8
0
  6
Continuous
 62
     7
370
    25
100
AcDbCircle
 10
383.678776998308
 20
429.0475871894327
 30
0.0
 40
0.3073613642650415
100
AcDbArc
 50
302.60557052118
 51
357.3944846941199
  0
LINE
  5
1A1
330
1F
100
AcDbEntity
  8
0
  6
Continuous
 62
     7
370
    25
100
AcDbLine
 10
383.8443994959363
 20
428.7886659726075
 30
0.0
 11
383.0665794066678
 21
429.2376919523555
 31
0.0
  0
LINE
  5
1A2
330
1F
100
AcDbEntity
  8
0
  6
Continuous
 62
     7
370
    25
100
AcDbLine
 10
383.208000522668
 20
429.4826407831035
 30
0.0
 11
383.9858206119367
 21
429.0336148033554
 31
0.0
  0
LINE
  5
1A3
330
1F
100
AcDbEntity
  8
0
  6
Continuous
 62
     7
370
    25
100
AcDbLine
 10
383.9858206119367
 20
459.7355486140747
 30
0.0
 11
383.9858206119367
 21
429.0336148033554
 31
0.0
  0
LINE
  5
1A4
330
1F
100
AcDbEntity
  8
0
  6
Continuous
 62
     7
370
    25
100
AcDbLine
 10
383.9858206119367
 20
459.7355486140747
 30
0.0
 11
383.208000522668
 21
460.1845745938228
 31
0.0
  0
LINE
  5
1A5
330
1F
100
AcDbEntity
  8
0
  6
Continuous
 62
     7
370
    25
100
AcDbLine
 10
382.9251556564894
 20
460.1845761145013
 30
0.0
 11
365.2474858634079
 21
449.9794745646496
 31
0.0
  0
LINE
  5
1A6
330
1F
100
AcDbEntity
  8
0
  6
Continuous
 62
     7
370
    25
100
AcDbLine
 10
376.9270904602066
 20
426.0200329696801
 30
0.0
 11
376.9270904602066
 21
432.8115746851539
 31
0.0
  0
LINE
  5
1A7
330
1F
100
AcDbEntity
  8
0
  6
Continuous
 62
     7
370
    25
100
AcDbLine
 10
376.9270904602066
 20
432.8115746851539
 30
0.0
 11
371.2455510596908
 21
429.5316918035062
 31
0.0
  0
LINE
  5
1A8
330
1F
100
AcDbEntity
  8
0
  6
Continuous
 62
     7
370
    25
100
AcDbLine
 10
371.2455510596908
 20
422.7401500880325
 30
0.0
 11
371.2455510596908
 21
429.5316918035062
 31
0.0
  0
LINE
  5
1A9
330
1F
100
AcDbEntity
  8
0
  6
Continuous
 62
     7
370
    25
100
AcDbLine
 10
365.2474858634079
 20
419.2775407539304
 30
0.0
 11
371.2455510596908
 21
422.7401500880325
 31
0.0
  0
LINE
  5
1AA
330
1F
100
AcDbEntity
  8
0
  6
Continuous
 62
     7
370
    25
100
AcDbLine
 10
365.2474858634079
 20
449.9794745646496
 30
0.0
 11
365.2474858634079
 21
419.2775407539304
 31
0.0
  0
LINE
  5
1AB
330
1F
100
AcDbEntity
  8
0
  6
Continuous
 62
     7
370
    25
100
AcDbLine
 10
370.5569581536257
 20
422.9887401643381
 30
0.0
 11
370.5569581536257
 21
429.9293368722094
 31
0.0
  0
LINE
  5
1AC
330
1F
100
AcDbEntity
  8
0
  6
Continuous
 62
     7
370
    25
100
AcDbLine
 10
370.5569581536257
 20
429.9293368722094
 30
0.0
 11
377.6156833662718
 21
434.0042522004584
 31
0.0
  0
LINE
  5
1AD
330
1F
100
AcDbEntity
  8
0
  6
Continuous
 62
     7
370
    25
100
AcDbLine
 10
377.6156833662718
 20
434.0042522004584
 30
0.0
 11
377.6156833662718
 21
427.0636554925872
 31
0.0
  0
LINE
  5
1AE
330
1F
100
AcDbEntity
  8
0
  6
Continuous
 62
     7
370
    25
100
AcDbLine
 10
377.6156833662718
 20
427.0636554925872
 30
0.0
 11
382.3656410959837
 21
429.8057477228755
 31
0.0
  0
LINE
  5
1AF
330
1F
100
AcDbEntity
  8
0
  6
Continuous
 62
     7
370
    25
100
AcDbLine
 10
382.3656410959837
 20
429.8057477228755
 30
0.0
 11
382.3656410959837
 21
459.2154707523636
 31
0.0
  0
LINE
  5
1B0
330
1F
100
AcDbEntity
  8
0
  6
Continuous
 62
     7
370
    25
100
AcDbLine
 10
382.3656410959837
 20
459.2154707523636
 30
0.0
 11
365.8070004239138
 21
449.6563709635378
 31
0.0
  0
LINE
  5
1B1
330
1F
100
AcDbEntity
  8
0
  6
Continuous
 62
     7
370
    25
100
AcDbLine
 10
365.8070004239138
 20
449.6563709635378
 30
0.0
 11
365.8070004239138
 21
420.2466479340497
 31
0.0
  0
LINE
  5
1B2
330
1F
100
AcDbEntity
  8
0
  6
Continuous
 62
     7
370
    25
100
AcDbLine
 10
365.8070004239138
 20
420.2466479340497
 30
0.0
 11
370.5569581536257
 21
422.9887401643381
 31
0.0
  0
LINE
  5
1B3
330
1F
100
AcDbEntity
  8
0
  6
Continuous
 62
     7
370
    25
100
AcDbLine
 10
377.6218456965053
 20
425.4414008713585
 30
0.0
 11
371.9649911783267
 21
422.1757682689585
 31
0.0
  0
LINE
  5
1B4
330
1F
100
AcDbEntity
  8
0
  6
Continuous
 62
     7
370
    25
100
AcDbLine
 10
377.6218456965053
 20
425.4414008713585
 30
0.0
 11
377.0660456562968
 21
425.7736575523116
 31
0.0
  0
LINE
  5
1B5
330
1F
100
AcDbEntity
  8
0
  6
Continuous
 62
     7
370
    25
100
AcDbLine
 10
383.9858232461146
 20
428.7070237794325
 30
0.0
 11
383.8443994959363
 21
428.7886659726075
 31
0.0
  0
LINE
  5
1B6
330
1F
100
AcDbEntity
  8
0
  6
Continuous
 62
     7
370
    25
100
AcDbLine
 10
383.9858232461146
 20
428.7070237794325
 30
0.0
 11
366.3081534530331
 21
418.5019222295808
 31
0.0
  0
LINE
  5
1B7
330
1F
100
AcDbEntity
  8
0
  6
Continuous
 62
     7
370
    25
100
AcDbLine
 10
366.1667297028548
 20
418.5835644227557
 30
0.0
 11
366.3081534530331
 21
418.5019222295808
 31
0.0
  0
LINE
  5
1B8
330
1F
100
AcDbEntity
  8
0
  6
Continuous
 62
     7
370
    25
100
AcDbLine
 10
365.3889096135863
 20
419.0325904025037
 30
0.0
 11
366.1667297028548
 21
418.5835644227557
 31
0.0
  0
LINE
  5
1B9
330
1F
100
AcDbEntity
  8
0
  6
Continuous
 62
     7
370
    25
100
AcDbLine
 10
371.3894433639573
 20
422.4966248025475
 30
0.0
 11
365.3889096135863
 21
419.0325904025037
 31
0.0
  0
LINE
  5
1BA
330
1F
100
AcDbEntity
  8
0
  6
Continuous
 62
     7
370
    25
100
AcDbLine
 10
371.9649911783267
 20
422.1757682689585
 30
0.0
 11
371.3894433639573
 21
422.4966248025475
 31
0.0
  0
LINE
  5
1BB
330
1F
100
AcDbEntity
  8
0
  6
Continuous
 62
     7
370
    25
100
AcDbLine
 10
383.9858232461146
 20
459.7355736333636
 30
0.0
 11
383.9858232461146
 21
459.7355492985512
 31
0.0
  0
LINE
  5
1BC
330
1F
100
AcDbEntity
  8
0
  6
Continuous
 62
     7
370
    25
100
AcDbLine
 10
383.9858232461146
 20
429.0336135747924
 30
0.0
 11
383.9858232461146
 21
428.7070237794325
 31
0.0
  0
LINE
  5
1BD
330
1F
100
AcDbEntity
  8
0
  6
Continuous
 62
     7
370
    25
100
AcDbLine
 10
377.8339981146577
 20
433.886870580936
 30
0.0
 11
377.6156833662718
 21
434.0042522004584
 31
0.0
  0
LINE
  5
1BE
330
1F
100
AcDbEntity
  8
0
  6
Continuous
 62
     7
370
    25
100
AcDbLine
 10
376.9706946677136
 20
425.8751797055914
 30
0.0
 11
371.75516671501
 21
422.864319506457
 31
0.0
  0
LINE
  5
1BF
330
1F
100
AcDbEntity
  8
0
  6
Continuous
 62
     7
370
    25
100
AcDbLine
 10
371.75516671501
 20
422.864319506457
 30
0.0
 11
371.9649911783267
 21
422.1757682689585
 31
0.0
  0
LINE
  5
1C0
330
1F
100
AcDbEntity
  8
0
  6
Continuous
 62
     7
370
    25
100
AcDbLine
 10
376.9270963871072
 20
426.2541243563981
 30
0.0
 11
371.75516671501
 21
423.2684329089258
 31
0.0
  0
LINE
  5
1C1
330
1F
100
AcDbEntity
  8
0
  6
Continuous
 62
     7
370
    25
100
AcDbLine
 10
371.75516671501
 20
423.2684329089258
 30
0.0
 11
371.75516671501
 21
422.864319506457
 31
0.0
  0
LINE
  5
1C2
330
1F
100
AcDbEntity
  8
0
  6
Continuous
 62
     7
370
    25
100
AcDbLine
 10
376.9270963871072
 20
426.8298599747325
 30
0.0
 11
371.75516671501
 21
423.8441685272602
 31
0.0
  0
LINE
  5
1C3
330
1F
100
AcDbEntity
  8
0
  6
Continuous
 62
     7
370
    25
100
AcDbLine
 10
371.75516671501
 20
423.8441685272602
 30
0.0
 11
371.9043764369062
 21
423.3545660000508
 31
0.0
  0
LINE
  5
1C4
330
1F
100
AcDbEntity
  8
0
  6
Continuous
 62
     7
370
    25
100
AcDbLine
 10
376.9270963871072
 20
427.2339733772014
 30
0.0
 11
371.75516671501
 21
424.2482819297291
 31
0.0
  0
LINE
  5
1C5
330
1F
100
AcDbEntity
  8
0
  6
Continuous
 62
     7
370
    25
100
AcDbLine
 10
371.75516671501
 20
424.2482819297291
 30
0.0
 11
371.75516671501
 21
423.8441685272602
 31
0.0
  0
LINE
  5
1C6
330
1F
100
AcDbEntity
  8
0
  6
Continuous
 62
     7
370
    25
100
AcDbLine
 10
376.9270963871072
 20
427.8097089955357
 30
0.0
 11
371.75516671501
 21
424.8240175480634
 31
0.0
  0
LINE
  5
1C7
330
1F
100
AcDbEntity
  8
0
  6
Continuous
 62
     7
370
    25
100
AcDbLine
 10
371.75516671501
 20
424.8240175480634
 30
0.0
 11
371.9043764369062
 21
424.334415020854
 31
0.0
  0
LINE
  5
1C8
330
1F
100
AcDbEntity
  8
0
  6
Continuous
 62
     7
370
    25
100
AcDbLine
 10
376.9270963871072
 20
428.2138222078888
 30
0.0
 11
371.75516671501
 21
425.2281307604165
 31
0.0
  0
LINE
  5
1C9
330
1F
100
AcDbEntity
  8
0
  6
Continuous
 62
     7
370
    25
100
AcDbLine
 10
371.75516671501
 20
425.2281307604165
 30
0.0
 11
371.75516671501
 21
424.8240175480634
 31
0.0
  0
LINE
  5
1CA
330
1F
100
AcDbEntity
  8
0
  6
Continuous
 62
     7
370
    25
100
AcDbLine
 10
376.9270963871072
 20
428.789558016339
 30
0.0
 11
371.75516671501
 21
425.8038665688666
 31
0.0
  0
LINE
  5
1CB
330
1F
100
AcDbEntity
  8
0
  6
Continuous
 62
     7
370
    25
100
AcDbLine
 10
371.75516671501
 20
425.8038665688666
 30
0.0
 11
371.9043764369062
 21
425.3142638515415
 31
0.0
  0
LINE
  5
1CC
330
1F
100
AcDbEntity
  8
0
  6
Continuous
 62
     7
370
    25
100
AcDbLine
 10
376.9270963871072
 20
429.1936714188078
 30
0.0
 11
371.75516671501
 21
426.2079799713355
 31
0.0
  0
LINE
  5
1CD
330
1F
100
AcDbEntity
  8
0
  6
Continuous
 62
     7
370
    25
100
AcDbLine
 10
371.75516671501
 20
426.2079799713355
 30
0.0
 11
371.75516671501
 21
425.8038665688666
 31
0.0
  0
LINE
  5
1CE
330
1F
100
AcDbEntity
  8
0
  6
Continuous
 62
     7
370
    25
100
AcDbLine
 10
376.9270963871072
 20
429.7694068470265
 30
0.0
 11
371.75516671501
 21
426.7837153995542
 31
0.0
  0
LINE
  5
1CF
330
1F
100
AcDbEntity
  8
0
  6
Continuous
 62
     7
370
    25
100
AcDbLine
 10
371.75516671501
 20
426.7837153995542
 30
0.0
 11
371.9043764369062
 21
426.2941128723447
 31
0.0
  0
LINE
  5
1D0
330
1F
100
AcDbEntity
  8
0
  6
Continuous
 62
     7
370
    25
100
AcDbLine
 10
376.9270963871072
 20
430.1735202494953
 30
0.0
 11
371.75516671501
 21
427.187828802023
 31
0.0
  0
LINE
  5
1D1
330
1F
100
AcDbEntity
  8
0
  6
Continuous
 62
     7
370
    25
100
AcDbLine
 10
371.75516671501
 20
427.187828802023
 30
0.0
 11
371.75516671501
 21
426.7837153995542
 31
0.0
  0
LINE
  5
1D2
330
1F
100
AcDbEntity
  8
0
  6
Continuous
 62
     7
370
    25
100
AcDbLine
 10
376.9270963871072
 20
430.749255677714
 30
0.0
 11
371.75516671501
 21
427.7635642302416
 31
0.0
  0
LINE
  5
1D3
330
1F
100
AcDbEntity
  8
0
  6
Continuous
 62
     7
370
    25
100
AcDbLine
 10
371.75516671501
 20
427.7635642302416
 30
0.0
 11
371.9043764369062
 21
427.2739617030322
 31
0.0
  0
LINE
  5
1D4
330
1F
100
AcDbEntity
  8
0
  6
Continuous
 62
     7
370
    25
100
AcDbLine
 10
376.9270963871072
 20
431.1533690801828
 30
0.0
 11
371.75516671501
 21
428.1676776327105
 31
0.0
  0
LINE
  5
1D5
330
1F
100
AcDbEntity
  8
0
  6
Continuous
 62
     7
370
    25
100
AcDbLine
 10
371.75516671501
 20
428.1676776327105
 30
0.0
 11
371.75516671501
 21
427.7635642302416
 31
0.0
  0
LINE
  5
1D6
330
1F
100
AcDbEntity
  8
0
  6
Continuous
 62
     7
370
    25
100
AcDbLine
 10
371.2455510596908
 20
429.5316918035062
 30
0.0
 11
371.9649911783267
 21
429.116365547177
 31
0.0
  0
LINE
  5
1D7
330
1F
100
AcDbEntity
  8
0
  6
Continuous
 62
     7
370
    25
100
AcDbLine
 10
371.9649911783267
 20
429.116365547177
 30
0.0
 11
371.9649911783267
 21
428.2888241254971
 31
0.0
  0
ELLIPSE
  5
1D8
330
1F
100
AcDbEntity
  8
0
  6
Continuous
 62
     7
370
    25
100
AcDbEllipse
 10
371.3894419271428
 20
422.6599337315736
 30
0.0
 11
-0.1026525863727556
 21
0.1716643463722676
 31
0.0
210
0.0
220
0.0
230
1.0
 40
0.5873687162542152
 41
0.7764427606545041
 42
2.347239087449709
  0
ARC
  5
1D9
330
1F
100
AcDbEntity
  8
0
  6
Continuous
 62
     7
370
    25
100
AcDbCircle
 10
365.5545580184219
 20
419.2915297922323
 30
0.0
 40
0.3073906335228422
100
AcDbArc
 50
182.6083741322492
 51
237.3921868391585
  0
LINE
  5
1DA
330
1F
100
AcDbEntity
  8
0
  6
Continuous
 62
     7
370
    25
100
AcDbLine
 10
376.9270814052196
 20
431.980919261422
 30
0.0
 11
371.9649911783267
 21
429.116365547177
 31
0.0
  0
LINE
  5
1DB
330
1F
100
AcDbEntity
  8
0
  6
Continuous
 62
     7
370
    25
100
AcDbLine
 10
366.0253362457238
 20
449.5303269131991
 30
0.0
 11
365.8070004239138
 21
449.6563709635378
 31
0.0
  0
ARC
  5
1DC
330
1F
100
AcDbEntity
  8
0
  6
Continuous
 62
     7
370
    25
100
AcDbCircle
 10
366.1081462738205
 20
418.6653391041687
 30
0.0
 40
0.1005938202754838
100
AcDbArc
 50
245.6923804640357
 51
305.6178335840431
  0
ARC
  5
1DD
330
1F
100
AcDbEntity
  8
0
  6
Continuous
 62
     7
370
    25
100
AcDbCircle
 10
383.8935182518564
 20
459.7489448163319
 30
0.0
 40
0.0932694157336569
100
AcDbArc
 50
351.7420985276579
 51
56.94541238844673
  0
LINE
  5
1DE
330
1F
100
AcDbEntity
  8
0
  6
Continuous
 62
     8
370
    25
100
AcDbLine
 10
592.4990987641768
 20
306.6059805736631
 30
0.0
 11
382.4883911580936
 21
427.8425814810452
 31
0.0
  0
ARC
  5
1EA
330
1F
100
AcDbEntity
  8
0
  6
Continuous
 62
     8
370
    25
100
AcDbCircle
 10
365.3303261845519
 20
419.1143650839172
 30
0.0
 40
0.1005938202758866
100
AcDbArc
 50
245.6923804641423
 51
305.6178335839188
  0
ARC
  5
1EB
330
1F
100
AcDbEntity
  8
0
  6
Continuous
 62
     8
370
    25
100
AcDbCircle
 10
365.2889797900393
 20
419.1859438653696
 30
0.0
 40
0.1005571277498755
100
AcDbArc
 50
114.3708046309882
 51
174.3208514256312
  0
ARC
  5
1EC
330
1F
100
AcDbEntity
  8
0
  6
Continuous
 62
     8
370
    25
100
AcDbCircle
 10
365.2889797900391
 20
449.887877676089
 30
0.0
 40
0.1005571277496825
100
AcDbArc
 50
114.3708046309398
 51
174.3208514257505
  0
LWPOLYLINE
  5
1ED
330
1F
100
AcDbEntity
  8
0
  6
Continuous
 62
     8
370
    25
100
AcDbPolyline
 90
        6
 70
   128
 43
0.0
 10
382.9251556564894
 20
460.1845761145013
 10
382.9278741282184
 20
460.2148671274665
 10
382.9359241762839
 20
460.2408544207458
 10
382.9489896993223
 20
460.2615463210684
 10
382.9665860085757
 20
460.2761366922898
 10
382.9665860085757
 20
460.2761458178445
  0
ARC
  5
1EE
330
1F
100
AcDbEntity
  8
0
  6
Continuous
 62
     8
370
    25
100
AcDbCircle
 10
383.1128332116157
 20
460.1966745862674
 30
0.0
 40
0.0959334504231908
100
AcDbArc
 50
352.7540398576216
 51
55.93347105838328
  0
LWPOLYLINE
  5
1EF
330
1F
100
AcDbEntity
  8
0
  6
Continuous
 62
     8
370
    25
100
AcDbPolyline
 90
        6
 70
   128
 43
0.0
 10
365.2474858634079
 20
449.9794745646496
 10
365.2502043351369
 20
450.0097655776148
 10
365.2582543832025
 20
450.035752870894
 10
365.2713199062408
 20
450.0564447712167
 10
365.2889162154942
 20
450.071035142438
 10
365.2889162154942
 20
450.0710442679927
  0
MTEXT
  5
234
330
1F
100
AcDbEntity
  8
寸法線
100
AcDbMText
 10
768.6181481481481
 20
-95.53487654320975
 30
0.0
 40
11.66666666666667
 41
273.3522079092452
 71
     1
 72
     5
  1
{MPP-10/1200/FF/S}
 73
     1
 44
1.0
1001
ACAD
1000
ACAD_MTEXT_DEFINED_HEIGHT_BEGIN
1070
    46
1040
11.66666666666667
1000
ACAD_MTEXT_DEFINED_HEIGHT_END
  0
LINE
  5
2EB
330
1F
100
AcDbEntity
  8
0
  6
Continuous
 62
     7
370
    25
100
AcDbLine
 10
593.1299659635781
 20
306.9701749571697
 30
0.0
 11
803.1406735696614
 21
185.7335740497877
 31
0.0
  0
LINE
  5
2FF
330
1F
100
AcDbEntity
  8
0
  6
Continuous
 62
     7
370
    25
100
AcDbLine
 10
594.1379519681982
 20
307.5520635445468
 30
0.0
 11
804.1486595742815
 21
186.3154626371647
 31
0.0
  0
LINE
  5
300
330
1F
100
AcDbEntity
  8
0
  6
Continuous
 62
     7
370
    25
100
AcDbLine
 10
594.1379519681982
 20
338.580613398478
 30
0.0
 11
804.1486595742815
 21
217.3440124910959
 31
0.0
  0
LINE
  5
302
330
1F
100
AcDbEntity
  8
0
  6
Continuous
 62
     7
370
    25
100
AcDbLine
 10
593.4308450711078
 20
307.1438594217256
 30
0.0
 11
803.4415526771911
 21
185.9072585143434
 31
0.0
  0
LINE
  5
307
330
1F
100
AcDbEntity
  8
0
  6
Continuous
 62
     7
370
    25
100
AcDbLine
 10
576.8845468402064
 20
297.5918847725235
 30
0.0
 11
786.8952544462898
 21
176.3552838651415
 31
0.0
  0
LINE
  5
309
330
1F
100
AcDbEntity
  8
0
  6
Continuous
 62
     7
370
    25
100
AcDbLine
 10
576.177439943116
 20
297.1836806497023
 30
0.0
 11
786.1881475491994
 21
175.9470797423202
 31
0.0
  0
LINE
  5
30B
330
1F
100
AcDbEntity
  8
0
  6
Continuous
 62
     7
370
    25
100
AcDbLine
 10
802.5540108410862
 20
185.3948906320537
 30
0.0
 11
592.5433032350029
 21
306.6314915394358
 31
0.0
  0
LINE
  5
378
330
1F
100
AcDbEntity
  8
0
  6
Continuous
 62
     8
370
    25
100
AcDbLine
 10
802.5098063702601
 20
185.369379666281
 30
0.0
 11
592.4990987641768
 21
306.6059805736631
 31
0.0
  0
LINE
  5
448
330
1F
100
AcDbEntity
  8
0
  6
Continuous
 62
     7
370
    25
100
AcDbLine
 10
803.1406735696614
 20
185.7335740497877
 30
0.0
 11
1013.151381175745
 21
64.49697314240561
 31
0.0
  0
LINE
  5
453
330
1F
100
AcDbEntity
  8
0
  6
Continuous
 62
     7
370
    25
100
AcDbLine
 10
804.1486595742815
 20
186.3154626371648
 30
0.0
 11
1014.159367180365
 21
65.07886172978263
 31
0.0
  0
LINE
  5
454
330
1F
100
AcDbEntity
  8
0
  6
Continuous
 62
     7
370
    25
100
AcDbLine
 10
804.1486595742815
 20
217.3440124910959
 30
0.0
 11
1014.159367180365
 21
96.10741158371385
 31
0.0
  0
LINE
  5
455
330
1F
100
AcDbEntity
  8
0
  6
Continuous
 62
     7
370
    25
100
AcDbLine
 10
803.4415526771911
 20
185.9072585143435
 30
0.0
 11
1013.452260283274
 21
64.67065760696138
 31
0.0
  0
LINE
  5
458
330
1F
100
AcDbEntity
  8
0
  6
Continuous
 62
     7
370
    25
100
AcDbLine
 10
786.8952544462898
 20
176.3552838651415
 30
0.0
 11
996.9059620523731
 21
55.11868295775943
 31
0.0
  0
LINE
  5
459
330
1F
100
AcDbEntity
  8
0
  6
Continuous
 62
     7
370
    25
100
AcDbLine
 10
786.1881475491994
 20
175.9470797423203
 30
0.0
 11
996.1988551552827
 21
54.71047883493819
 31
0.0
  0
LINE
  5
45A
330
1F
100
AcDbEntity
  8
0
  6
Continuous
 62
     7
370
    25
100
AcDbLine
 10
1012.56471844717
 20
64.15828972467168
 30
0.0
 11
802.5540108410862
 21
185.3948906320537
 31
0.0
  0
LINE
  5
4AB
330
1F
100
AcDbEntity
  8
0
  6
Continuous
 62
     8
370
    25
100
AcDbLine
 10
1012.520513976343
 20
64.13277875889898
 30
0.0
 11
802.5098063702601
 21
185.369379666281
 31
0.0
  0
LINE
  5
4B2
330
1F
100
AcDbEntity
  8
0
  6
Continuous
 62
     7
370
    25
100
AcDbLine
 10
1013.151381175745
 20
64.49697314240561
 30
0.0
 11
1221.694008681072
 21
-55.89212316245292
 31
0.0
  0
SPLINE
  5
4B3
330
1F
100
AcDbEntity
  8
0
  6
Continuous
 62
     7
370
    25
100
AcDbSpline
210
0.0
220
0.0
230
1.0
 70
     8
 71
     3
 72
    10
 73
     6
 74
     0
 42
0.000000001
 43
0.00000001
 40
0.0
 40
0.0
 40
0.0
 40
0.0
 40
0.2116714959056676
 40
0.6437415387596134
 40
1.0
 40
1.0
 40
1.0
 40
1.0
 10
1207.849399172338
 20
-48.34562463265164
 30
0.0
 10
1207.849770730533
 20
-48.3291573556717
 30
0.0
 10
1207.850900724176
 20
-48.27907659171771
 30
0.0
 10
1207.875339381278
 20
-48.19242447944785
 30
0.0
 10
1207.914978058385
 20
-48.13235414069666
 30
0.0
 10
1207.932891420693
 20
-48.10520737847949
 30
0.0
  0
ARC
  5
4B4
330
1F
100
AcDbEntity
  8
0
  6
Continuous
 62
     7
370
    25
100
AcDbCircle
 10
1224.947892354282
 20
-56.60673703643735
 30
0.0
 40
0.1999999999999632
100
AcDbArc
 50
299.9973117336007
 51
0.0
  0
LINE
  5
4B5
330
1F
100
AcDbEntity
  8
0
  6
Continuous
 62
     7
370
    25
100
AcDbLine
 10
1225.147892455567
 20
-56.60673696597362
 30
0.0
 11
1225.147892455567
 21
-25.90480315525431
 31
0.0
  0
LINE
  5
4B6
330
1F
100
AcDbEntity
  8
0
  6
Continuous
 62
     7
370
    25
100
AcDbLine
 10
1219.049096044389
 20
-60.24297347233457
 30
0.0
 11
1225.047884322542
 21
-56.7799467119543
 31
0.0
  0
LINE
  5
4B7
330
1F
100
AcDbEntity
  8
0
  6
Continuous
 62
     7
370
    25
100
AcDbLine
 10
1207.37021452946
 20
-66.98504826180599
 30
0.0
 11
1213.369002807613
 21
-63.52202150142571
 31
0.0
  0
LINE
  5
4B8
330
1F
100
AcDbEntity
  8
0
  6
Continuous
 62
     7
370
    25
100
AcDbLine
 10
1206.392413807572
 20
-66.5360235591904
 30
0.0
 11
1207.170231272953
 21
-66.98504802419993
 31
0.0
  0
ARC
  5
4B9
330
1F
100
AcDbEntity
  8
0
  6
Continuous
 62
     7
370
    25
100
AcDbCircle
 10
1207.270222824618
 20
-66.81183843422119
 30
0.0
 40
0.200000000000126
100
AcDbArc
 50
240.0026882664278
 51
299.9973117337217
  0
LINE
  5
4BA
330
1F
100
AcDbEntity
  8
0
  6
Continuous
 62
     7
370
    25
100
AcDbLine
 10
1225.047883910951
 20
-25.73159239924527
 30
0.0
 11
1224.270066445571
 21
-25.28256793423569
 31
0.0
  0
ARC
  5
4BB
330
1F
100
AcDbEntity
  8
0
  6
Continuous
 62
     7
370
    25
100
AcDbCircle
 10
1224.947892354282
 20
-25.9048025095332
 30
0.0
 40
0.2000000000000124
100
AcDbArc
 50
0.0
 51
60.00268826640843
  0
LINE
  5
4BC
330
1F
100
AcDbEntity
  8
0
  6
Continuous
 62
     7
370
    25
100
AcDbLine
 10
1014.159367180365
 20
65.07886172978269
 30
0.0
 11
1224.170074786448
 21
-56.15773917759944
 31
0.0
  0
LINE
  5
4BD
330
1F
100
AcDbEntity
  8
0
  6
Continuous
 62
     7
370
    25
100
AcDbLine
 10
1014.159367180365
 20
96.10741158371385
 30
0.0
 11
1224.170074786448
 21
-25.12918932366821
 31
0.0
  0
LINE
  5
4BE
330
1F
100
AcDbEntity
  8
0
  6
Continuous
 62
     7
370
    25
100
AcDbLine
 10
1224.170074786448
 20
-56.15773917759944
 30
0.0
 11
1224.170074786448
 21
-25.12918932366821
 31
0.0
  0
LINE
  5
4BF
330
1F
100
AcDbEntity
  8
0
  6
Continuous
 62
     7
370
    25
100
AcDbLine
 10
1013.452260283274
 20
64.67065760696144
 30
0.0
 11
1223.462967889358
 21
-56.56594330042068
 31
0.0
  0
LINE
  5
4C0
330
1F
100
AcDbEntity
  8
0
  6
Continuous
 62
     7
370
    25
100
AcDbLine
 10
1223.462967889358
 20
-56.56594330042068
 30
0.0
 11
1224.170074786448
 21
-56.15773917759944
 31
0.0
  0
LWPOLYLINE
  5
4C1
330
1F
100
AcDbEntity
  8
0
  6
Continuous
 62
     7
370
    25
100
AcDbPolyline
 90
        3
 70
   128
 43
0.0
 10
1221.694008681072
 20
-55.89212316245292
 10
1222.277843290258
 20
-56.18706264079478
 10
1223.462967889358
 20
-56.56594330042068
  0
LINE
  5
4C2
330
1F
100
AcDbEntity
  8
0
  6
Continuous
 62
     7
370
    25
100
AcDbLine
 10
996.9059620523731
 20
55.11868295775943
 30
0.0
 11
1206.916669658456
 21
-66.11791794962264
 31
0.0
  0
ARC
  5
4C3
330
1F
100
AcDbEntity
  8
0
  6
Continuous
 62
     7
370
    25
100
AcDbCircle
 10
1185.726936171135
 20
-49.99790384371047
 30
0.0
 40
26.62441849202537
100
AcDbArc
 50
322.7380666776984
 51
357.3882016071159
  0
LINE
  5
4C4
330
1F
100
AcDbEntity
  8
0
  6
Continuous
 62
     7
370
    25
100
AcDbLine
 10
996.1988551552827
 20
54.71047883493819
 30
0.0
 11
1206.209562761366
 21
-66.52612207244388
 31
0.0
  0
LINE
  5
4C5
330
1F
100
AcDbEntity
  8
0
  6
Continuous
 62
     7
370
    25
100
AcDbLine
 10
1206.209562761366
 20
-66.52612207244388
 30
0.0
 11
1206.916669658456
 21
-66.11791794962264
 31
0.0
  0
LINE
  5
4C6
330
1F
100
AcDbEntity
  8
0
  6
Continuous
 62
     7
370
    25
100
AcDbLine
 10
1212.295641114052
 20
-51.14391765442761
 30
0.0
 11
1012.56471844717
 21
64.15828972467168
 31
0.0
  0
ARC
  5
4C7
330
1F
100
AcDbEntity
  8
0
  6
Continuous
 62
     7
370
    25
100
AcDbCircle
 10
1212.246203566977
 20
-51.20401764291032
 30
0.0
 40
0.0778208177571962
100
AcDbArc
 50
354.7459319788359
 51
50.55968583537544
  0
LINE
  5
4C8
330
1F
100
AcDbEntity
  8
0
  6
Continuous
 62
     7
370
    25
100
AcDbLine
 10
1207.850513429645
 20
-48.07147659603643
 30
0.0
 11
1207.943111372913
 21
-47.95389871023738
 31
0.0
  0
ARC
  5
4C9
330
1F
100
AcDbEntity
  8
0
  6
Continuous
 62
     7
370
    25
100
AcDbCircle
 10
1207.944988306839
 20
-47.95302301900912
 30
0.0
 40
0.1515148584504459
100
AcDbArc
 50
231.4252300615103
 51
264.319558504386
  0
LINE
  5
4CA
330
1F
100
AcDbEntity
  8
0
  6
Continuous
 62
     7
370
    25
100
AcDbLine
 10
1209.179410807183
 20
-48.66760085110982
 30
0.0
 11
1209.179410807183
 21
-49.25443333406841
 31
0.0
  0
LINE
  5
4CB
330
1F
100
AcDbEntity
  8
0
  6
Continuous
 62
     7
370
    25
100
AcDbLine
 10
1207.906618622911
 20
-48.51966604604959
 30
0.0
 11
1209.179410807183
 21
-49.25443333406841
 31
0.0
  0
ARC
  5
4CC
330
1F
100
AcDbEntity
  8
0
  6
Continuous
 62
     7
370
    25
100
AcDbCircle
 10
1208.923815765692
 20
-49.24989706448295
 30
0.0
 40
0.2556352929014917
100
AcDbArc
 50
340.2466392880026
 51
358.9832282493588
  0
LINE
  5
4CD
330
1F
100
AcDbEntity
  8
0
  6
Continuous
 62
     7
370
    25
100
AcDbLine
 10
1206.350983877366
 20
-66.44448139994753
 30
0.0
 11
1224.028653670448
 21
-56.23937985009584
 31
0.0
  0
LINE
  5
4CE
330
1F
100
AcDbEntity
  8
0
  6
Continuous
 62
     7
370
    25
100
AcDbLine
 10
1224.170075023113
 20
-56.1577390339896
 30
0.0
 11
1224.170075023113
 21
-56.32102065921563
 31
0.0
  0
LINE
  5
4CF
330
1F
100
AcDbEntity
  8
0
  6
Continuous
 62
     7
370
    25
100
AcDbLine
 10
1224.170075023113
 20
-56.32102065921563
 30
0.0
 11
1224.028653670448
 21
-56.23937985009584
 31
0.0
  0
LINE
  5
4D0
330
1F
100
AcDbEntity
  8
0
  6
Continuous
 62
     7
370
    25
100
AcDbLine
 10
1212.714944922204
 20
-63.17884896387167
 30
0.0
 11
1218.371799440383
 21
-59.91321636147163
 31
0.0
  0
LINE
  5
4D1
330
1F
100
AcDbEntity
  8
0
  6
Continuous
 62
     7
370
    25
100
AcDbLine
 10
1212.714944922204
 20
-63.17884896387167
 30
0.0
 11
1213.270756445782
 21
-63.51111227403314
 31
0.0
  0
LINE
  5
4D2
330
1F
100
AcDbEntity
  8
0
  6
Continuous
 62
     7
370
    25
100
AcDbLine
 10
1207.270222695411
 20
-66.97514667407691
 30
0.0
 11
1213.270756445782
 21
-63.51111227403314
 31
0.0
  0
LINE
  5
4D3
330
1F
100
AcDbEntity
  8
0
  6
Continuous
 62
     7
370
    25
100
AcDbLine
 10
1206.492405230031
 20
-66.52612220906738
 30
0.0
 11
1207.270222695411
 21
-66.97514667407691
 31
0.0
  0
LINE
  5
4D4
330
1F
100
AcDbEntity
  8
0
  6
Continuous
 62
     7
370
    25
100
AcDbLine
 10
1206.350983877366
 20
-66.44448139994753
 30
0.0
 11
1206.492405230031
 21
-66.52612220906738
 31
0.0
  0
LINE
  5
4D5
330
1F
100
AcDbEntity
  8
0
  6
Continuous
 62
     7
370
    25
100
AcDbLine
 10
1224.947892488493
 20
-56.77004512422522
 30
0.0
 11
1224.170075023113
 21
-56.32102065921563
 31
0.0
  0
LINE
  5
4D6
330
1F
100
AcDbEntity
  8
0
  6
Continuous
 62
     7
370
    25
100
AcDbLine
 10
1218.947358738122
 20
-60.23407952426899
 30
0.0
 11
1224.947892488493
 21
-56.77004512422522
 31
0.0
  0
LINE
  5
4D7
330
1F
100
AcDbEntity
  8
0
  6
Continuous
 62
     7
370
    25
100
AcDbLine
 10
1218.371799440383
 20
-59.91321636147163
 30
0.0
 11
1218.947358738122
 21
-60.23407952426899
 31
0.0
  0
ARC
  5
4D8
330
1F
100
AcDbEntity
  8
0
  6
Continuous
 62
     7
370
    25
100
AcDbCircle
 10
1224.782269990864
 20
-56.51112390740005
 30
0.0
 40
0.3073613642652838
100
AcDbArc
 50
302.6055705212755
 51
357.3944846941432
  0
ARC
  5
4D9
330
1F
100
AcDbEntity
  8
0
  6
Continuous
 62
     7
370
    25
100
AcDbCircle
 10
1224.004452525484
 20
-56.06209944239058
 30
0.0
 40
0.3073613642651473
100
AcDbArc
 50
302.6055705212912
 51
357.3944846941517
  0
LINE
  5
4DA
330
1F
100
AcDbEntity
  8
0
  6
Continuous
 62
     7
370
    25
100
AcDbLine
 10
1224.311496139113
 20
-56.07607182846769
 30
0.0
 11
1225.089313604493
 21
-56.52509629347722
 31
0.0
  0
ARC
  5
4DB
330
1F
100
AcDbEntity
  8
0
  6
Continuous
 62
     7
370
    25
100
AcDbCircle
 10
1224.225282308555
 20
-25.36015104972742
 30
0.0
 40
0.0873410548013013
100
AcDbArc
 50
350.7848636092788
 51
129.2043846357925
  0
LINE
  5
4DC
330
1F
100
AcDbEntity
  8
0
  6
Continuous
 62
     7
370
    25
100
AcDbLine
 10
1224.311496139113
 20
-56.07607182846769
 30
0.0
 11
1224.311496139113
 21
-25.37413801774838
 31
0.0
  0
LINE
  5
4DD
330
1F
100
AcDbEntity
  8
0
  6
Continuous
 62
     7
370
    25
100
AcDbLine
 10
1225.089313604493
 20
-25.82316248275791
 30
0.0
 11
1224.311496139113
 21
-25.37413801774838
 31
0.0
  0
LINE
  5
4DE
330
1F
100
AcDbEntity
  8
0
  6
Continuous
 62
     7
370
    25
100
AcDbLine
 10
1225.089313604493
 20
-56.52509629347722
 30
0.0
 11
1225.089313604493
 21
-25.82316248275791
 31
0.0
  0
ELLIPSE
  5
4DF
330
1F
100
AcDbEntity
  8
0
  6
Continuous
 62
     7
370
    25
100
AcDbEllipse
 10
1218.947358790017
 20
-60.07077132904394
 30
0.0
 11
-0.1026525863727556
 21
0.1716643463722676
 31
0.0
210
0.0
220
0.0
230
1.0
 40
0.5873687162543133
 41
2.347239087449792
 42
3.132555986783385
  0
ELLIPSE
  5
4E0
330
1F
100
AcDbEntity
  8
0
  6
Continuous
 62
     7
370
    25
100
AcDbEllipse
 10
1213.270756388882
 20
-63.3478041416146
 30
0.0
 11
-0.09741494644129034
 21
0.1746892004041456
 31
0.0
210
0.0
220
0.0
230
1.0
 40
0.567218392760024
 41
2.364703013104653
 42
3.935499339897048
  0
LINE
  5
4E1
330
1F
100
AcDbEntity
  8
0
  6
Continuous
 62
     7
370
    25
100
AcDbLine
 10
1213.409709254649
 20
-63.43086999678323
 30
0.0
 11
1213.409709254649
 21
-62.77777000514007
 31
0.0
  0
ARC
  5
4E2
330
1F
100
AcDbEntity
  8
0
  6
Continuous
 62
     7
370
    25
100
AcDbCircle
 10
1206.437198992237
 20
-66.45844010363643
 30
0.0
 40
0.0873418346895923
100
AcDbArc
 50
170.7860017458411
 51
309.2030804343336
  0
LINE
  5
4E3
330
1F
100
AcDbEntity
  8
0
  6
Continuous
 62
     8
370
    25
100
AcDbLine
 10
1212.323697414998
 20
-51.21114387581011
 30
0.0
 11
1012.520513976343
 21
64.13277875889898
 31
0.0
  0
SPLINE
  5
4E4
330
1F
100
AcDbEntity
  8
0
  6
Continuous
 62
     8
370
    25
100
AcDbSpline
210
0.0
220
0.0
230
1.0
 70
     8
 71
     3
 72
    11
 73
     7
 74
     0
 42
0.000000001
 43
0.00000001
 40
0.0
 40
0.0
 40
0.0
 40
0.0
 40
0.2959909923775547
 40
0.6764304226506667
 40
0.9722179886039501
 40
1.0
 40
1.0
 40
1.0
 40
1.0
 10
1207.850513429645
 20
-48.07147659603643
 30
0.0
 10
1207.825137747248
 20
-48.11437901388601
 30
0.0
 10
1207.76714651099
 20
-48.21242422940296
 30
0.0
 10
1207.739203454377
 20
-48.36835133330138
 30
0.0
 10
1207.74240511523
 20
-48.4830202149777
 30
0.0
 10
1207.763409522997
 20
-48.52495656045116
 30
0.0
 10
1207.765212982707
 20
-48.52855725751729
 30
0.0
  0
LINE
  5
4E5
330
1F
100
AcDbEntity
  8
0
  6
Continuous
 62
     8
370
    25
100
AcDbLine
 10
1207.906618622911
 20
-48.00023643099004
 30
0.0
 11
1207.906618622911
 21
-48.10020384081614
 31
0.0
  0
LINE
  5
4E6
330
1F
100
AcDbEntity
  8
0
  6
Continuous
 62
     8
370
    25
100
AcDbLine
 10
1207.906618622911
 20
-48.14925521822457
 30
0.0
 11
1207.906618622911
 21
-48.51966604604959
 31
0.0
  0
SPLINE
  5
4E7
330
1F
100
AcDbEntity
  8
0
  6
Continuous
 62
     8
370
    25
100
AcDbSpline
210
0.0
220
0.0
230
1.0
 70
     8
 71
     3
 72
    11
 73
     7
 74
     0
 42
0.000000001
 43
0.00000001
 40
0.0
 40
0.0
 40
0.0
 40
0.0
 40
0.4058100783329544
 40
0.7202590279399528
 40
0.8349950046827115
 40
1.0
 40
1.0
 40
1.0
 40
1.0
 10
1207.849878345785
 20
-48.34558417949907
 30
0.0
 10
1207.850101543454
 20
-48.3727259876882
 30
0.0
 10
1207.850497689692
 20
-48.42089909483022
 30
0.0
 10
1207.867351947732
 20
-48.47338574034424
 30
0.0
 10
1207.886623664755
 20
-48.50460339396719
 30
0.0
 10
1207.899200302749
 20
-48.51407765847861
 30
0.0
 10
1207.906618622911
 20
-48.51966604604959
 30
0.0
  0
ARC
  5
4E8
330
1F
100
AcDbEntity
  8
0
  6
Continuous
 62
     8
370
    25
100
AcDbCircle
 10
1207.654023549232
 20
-48.51567956536817
 30
0.0
 40
0.2526265292385751
100
AcDbArc
 50
340.1340401883681
 51
359.0958273490048
  0
ARC
  5
4E9
330
1F
100
AcDbEntity
  8
0
  6
Continuous
 62
     8
370
    25
100
AcDbCircle
 10
1225.006476451506
 20
-56.68826897158695
 30
0.0
 40
0.1005953272404012
100
AcDbArc
 50
234.3824071860799
 51
294.3071553649795
  0
ARC
  5
4EA
330
1F
100
AcDbEntity
  8
0
  6
Continuous
 62
     8
370
    25
100
AcDbCircle
 10
1225.047801528292
 20
-56.61671815425134
 30
0.0
 40
0.1005873642274767
100
AcDbArc
 50
5.694777307560063
 51
65.62564794301719
  0
ARC
  5
4EB
330
1F
100
AcDbEntity
  8
0
  6
Continuous
 62
     8
370
    25
100
AcDbCircle
 10
1225.047801528292
 20
-25.91478434353215
 30
0.0
 40
0.1005873642277259
100
AcDbArc
 50
5.694777307611649
 51
65.62564794294097
  0
ARC
  5
4EC
330
1F
100
AcDbEntity
  8
0
  6
Continuous
 62
     8
370
    25
100
AcDbCircle
 10
1207.328806658424
 20
-66.89337052143887
 30
0.0
 40
0.1005953272402008
100
AcDbArc
 50
234.3824071859998
 51
294.3071553650328
  0
ARC
  5
4ED
330
1F
100
AcDbEntity
  8
0
  6
Continuous
 62
     8
370
    25
100
AcDbCircle
 10
1207.211639266377
 20
-66.89337199266427
 30
0.0
 40
0.100593820275212
100
AcDbArc
 50
245.6923804638664
 51
305.6178335841556
  0
ARC
  5
4EE
330
1F
100
AcDbEntity
  8
0
  6
Continuous
 62
     8
370
    25
100
AcDbCircle
 10
1224.997011244914
 20
-25.80976628027381
 30
0.0
 40
0.0932694152698403
100
AcDbArc
 50
351.7420983454652
 51
56.94541257052829
  0
ARC
  5
62F
330
1F
100
AcDbEntity
  8
0
  6
HIDDEN
 62
     7
370
     5
100
AcDbCircle
 10
1224.947892236731
 20
-56.6067371236862
 30
0.0
 40
0.2000000000000124
100
AcDbArc
 50
299.9973117336633
 51
0.0000000000162844
  0
LINE
  5
630
330
1F
100
AcDbEntity
  8
0
  6
HIDDEN
 62
     7
370
     5
100
AcDbLine
 10
1225.147892236731
 20
-56.60673712368614
 30
0.0
 11
1225.147892236731
 21
-25.90480259678171
 31
0.0
  0
LINE
  5
631
330
1F
100
AcDbEntity
  8
0
  6
HIDDEN
 62
     7
370
     5
100
AcDbLine
 10
1219.049095910371
 20
-60.24297361120907
 30
0.0
 11
1225.047884109995
 21
-56.77994689616239
 31
0.0
  0
LINE
  5
632
330
1F
100
AcDbEntity
  8
0
  6
HIDDEN
 62
     7
370
     5
100
AcDbLine
 10
1207.370214580331
 20
-66.98504829394628
 30
0.0
 11
1213.369002779955
 21
-63.52202157889948
 31
0.0
  0
LINE
  5
633
330
1F
100
AcDbEntity
  8
0
  6
HIDDEN
 62
     7
370
     5
100
AcDbLine
 10
1206.392413374499
 20
-66.53602383244382
 30
0.0
 11
1207.170230833804
 21
-66.98504829394628
 31
0.0
  0
ARC
  5
634
330
1F
100
AcDbEntity
  8
0
  6
HIDDEN
 62
     7
370
     5
100
AcDbCircle
 10
1207.270222707067
 20
-66.81183852147021
 30
0.0
 40
0.1999999999999708
100
AcDbArc
 50
240.0026882663286
 51
299.9973117336734
  0
LINE
  5
635
330
1F
100
AcDbEntity
  8
0
  6
HIDDEN
 62
     7
370
     5
100
AcDbLine
 10
1225.047884109995
 20
-25.73159282430558
 30
0.0
 11
1224.27006665069
 21
-25.28256836280312
 31
0.0
  0
ARC
  5
636
330
1F
100
AcDbEntity
  8
0
  6
HIDDEN
 62
     7
370
     5
100
AcDbCircle
 10
1224.947892236731
 20
-25.90480259678171
 30
0.0
 40
0.20000000000002
100
AcDbArc
 50
0.0
 51
60.00268826633472
  0
LINE
  5
638
330
1F
100
AcDbEntity
  8
0
  6
HIDDEN
 62
     7
370
     5
100
AcDbLine
 10
1206.350983891525
 20
-66.44448141116251
 30
0.0
 11
1224.028653421189
 21
-56.23938001337856
 31
0.0
  0
ARC
  5
63B
330
1F
100
AcDbEntity
  8
0
  6
HIDDEN
 62
     7
370
     5
100
AcDbCircle
 10
1224.00445291339
 20
-56.06209968054972
 30
0.0
 40
0.307360961513707
100
AcDbArc
 50
302.6054783400101
 51
357.3945215144371
  0
LINE
  5
63C
330
1F
100
AcDbEntity
  8
0
  6
HIDDEN
 62
     7
370
     5
100
AcDbLine
 10
1224.170074777426
 20
-56.3210208245608
 30
0.0
 11
1224.170074777426
 21
-25.29246997290207
 31
0.0
  0
ARC
  5
63D
330
1F
100
AcDbEntity
  8
0
  6
HIDDEN
 62
     7
370
     5
100
AcDbCircle
 10
1224.225281260178
 20
-25.36015188471671
 30
0.0
 40
0.0873418394857385
100
AcDbArc
 50
350.7859630095023
 51
129.203285235582
  0
LINE
  5
63E
330
1F
100
AcDbEntity
  8
0
  6
HIDDEN
 62
     7
370
     5
100
AcDbLine
 10
1224.311496133663
 20
-56.07607185100139
 30
0.0
 11
1224.311496133663
 21
-25.37413732409695
 31
0.0
  0
LINE
  5
63F
330
1F
100
AcDbEntity
  8
0
  6
HIDDEN
 62
     7
370
     5
100
AcDbLine
 10
1212.714944922204
 20
-63.17884896387167
 30
0.0
 11
1218.371799171696
 21
-59.91321651658072
 31
0.0
  0
LINE
  5
640
330
1F
100
AcDbEntity
  8
0
  6
HIDDEN
 62
     7
370
     5
100
AcDbLine
 10
1212.714944922204
 20
-63.17884896387167
 30
0.0
 11
1213.270756271332
 21
-63.51111239124069
 31
0.0
  0
LINE
  5
641
330
1F
100
AcDbEntity
  8
0
  6
HIDDEN
 62
     7
370
     5
100
AcDbLine
 10
1207.270222707067
 20
-66.97514668384727
 30
0.0
 11
1213.270756271332
 21
-63.51111239124069
 31
0.0
  0
LINE
  5
642
330
1F
100
AcDbEntity
  8
0
  6
HIDDEN
 62
     7
370
     5
100
AcDbLine
 10
1206.492405247762
 20
-66.52612222234475
 30
0.0
 11
1207.270222707067
 21
-66.97514668384727
 31
0.0
  0
LINE
  5
643
330
1F
100
AcDbEntity
  8
0
  6
HIDDEN
 62
     7
370
     5
100
AcDbLine
 10
1206.350983891525
 20
-66.44448141116251
 30
0.0
 11
1206.492405247762
 21
-66.52612222234475
 31
0.0
  0
LINE
  5
644
330
1F
100
AcDbEntity
  8
0
  6
HIDDEN
 62
     7
370
     5
100
AcDbLine
 10
1224.170074777426
 20
-56.3210208245608
 30
0.0
 11
1224.028653421189
 21
-56.23938001337856
 31
0.0
  0
LINE
  5
645
330
1F
100
AcDbEntity
  8
0
  6
HIDDEN
 62
     7
370
     5
100
AcDbLine
 10
1224.947892236731
 20
-56.77004528606332
 30
0.0
 11
1224.170074777426
 21
-56.3210208245608
 31
0.0
  0
LINE
  5
646
330
1F
100
AcDbEntity
  8
0
  6
HIDDEN
 62
     7
370
     5
100
AcDbLine
 10
1218.947358672467
 20
-60.23407957866996
 30
0.0
 11
1224.947892236731
 21
-56.77004528606332
 31
0.0
  0
LINE
  5
647
330
1F
100
AcDbEntity
  8
0
  6
HIDDEN
 62
     7
370
     5
100
AcDbLine
 10
1218.371799171696
 20
-59.91321651658072
 30
0.0
 11
1218.947358672467
 21
-60.23407957866996
 31
0.0
  0
LINE
  5
649
330
1F
100
AcDbEntity
  8
0
  6
HIDDEN
 62
     7
370
     5
100
AcDbLine
 10
1224.311496133663
 20
-56.07607185100139
 30
0.0
 11
1225.089313592969
 21
-56.5250963125039
 31
0.0
  0
ARC
  5
64A
330
1F
100
AcDbEntity
  8
0
  6
HIDDEN
 62
     7
370
     5
100
AcDbCircle
 10
1224.782270372695
 20
-56.5111241420515
 30
0.0
 40
0.3073609615149109
100
AcDbArc
 50
302.6054783400716
 51
357.3945215142959
  0
LINE
  5
64B
330
1F
100
AcDbEntity
  8
0
  6
HIDDEN
 62
     7
370
     5
100
AcDbLine
 10
1225.089313592969
 20
-25.82316178559947
 30
0.0
 11
1224.311496133663
 21
-25.37413732409695
 31
0.0
  0
LINE
  5
64C
330
1F
100
AcDbEntity
  8
0
  6
HIDDEN
 62
     7
370
     5
100
AcDbLine
 10
1225.089313592969
 20
-56.5250963125039
 30
0.0
 11
1225.089313592969
 21
-25.82316178559947
 31
0.0
  0
ELLIPSE
  5
64D
330
1F
100
AcDbEntity
  8
0
  6
HIDDEN
 62
     7
370
     5
100
AcDbEllipse
 10
1218.947358672467
 20
-60.07077141629279
 30
0.0
 11
-0.1026525863727556
 21
0.1716643463722676
 31
0.0
210
0.0
220
0.0
230
1.0
 40
0.5873687162543133
 41
2.347239087449792
 42
3.132555986787579
  0
ELLIPSE
  5
64E
330
1F
100
AcDbEntity
  8
0
  6
HIDDEN
 62
     7
370
     5
100
AcDbEllipse
 10
1213.270756271332
 20
-63.34780422886351
 30
0.0
 11
-0.09741494644129034
 21
0.1746892004041456
 31
0.0
210
0.0
220
0.0
230
1.0
 40
0.5672183927595275
 41
2.364703013104216
 42
3.935499339899313
  0
LINE
  5
64F
330
1F
100
AcDbEntity
  8
0
  6
HIDDEN
 62
     7
370
     5
100
AcDbLine
 10
1213.409709108614
 20
-63.43087008570578
 30
0.0
 11
1213.409709108614
 21
-62.77777013626027
 31
0.0
  0
ARC
  5
650
330
1F
100
AcDbEntity
  8
0
  6
HIDDEN
 62
     7
370
     5
100
AcDbCircle
 10
1206.43719876501
 20
-66.45844031053
 30
0.0
 40
0.0873418394856741
100
AcDbArc
 50
170.7859630095658
 51
309.2032852355997
  0
ARC
  5
651
330
1F
100
AcDbEntity
  8
0
  6
HIDDEN
 62
     8
370
     5
100
AcDbCircle
 10
1225.006476247702
 20
-56.68826902023918
 30
0.0
 40
0.1005954471807688
100
AcDbArc
 50
234.3824225248988
 51
294.3071190459626
  0
ARC
  5
652
330
1F
100
AcDbEntity
  8
0
  6
HIDDEN
 62
     8
370
     5
100
AcDbCircle
 10
1225.047800824233
 20
-56.61671839906606
 30
0.0
 40
0.1005878556989259
100
AcDbArc
 50
5.694799251215666
 51
65.62534170632766
  0
ARC
  5
653
330
1F
100
AcDbEntity
  8
0
  6
HIDDEN
 62
     8
370
     5
100
AcDbCircle
 10
1225.047800824233
 20
-25.91478387216156
 30
0.0
 40
0.1005878556988379
100
AcDbArc
 50
5.694799251207612
 51
65.62534170630428
  0
ARC
  5
654
330
1F
100
AcDbEntity
  8
0
  6
HIDDEN
 62
     8
370
     5
100
AcDbCircle
 10
1207.328806718038
 20
-66.89337041802364
 30
0.0
 40
0.100595447180329
100
AcDbArc
 50
234.3824225247292
 51
294.3071190460793
  0
ARC
  5
655
330
1F
100
AcDbEntity
  8
0
  6
HIDDEN
 62
     8
370
     5
100
AcDbCircle
 10
1207.211638696097
 20
-66.89337041802403
 30
0.0
 40
0.1005954471799664
100
AcDbArc
 50
245.6928809536895
 51
305.6175774752692
  0
ARC
  5
656
330
1F
100
AcDbEntity
  8
0
  6
HIDDEN
 62
     8
370
     5
100
AcDbCircle
 10
1224.994176481347
 20
-25.81104898007916
 30
0.0
 40
0.0959051096936088
100
AcDbArc
 50
352.7441705890749
 51
55.94364901756159
  0
ENDSEC
  0
SECTION
  2
OBJECTS
  0
DICTIONARY
  5
C
330
0
100
AcDbDictionary
281
     1
  3
ACAD_DETAILVIEWSTYLE
350
217
  3
ACAD_GROUP
350
D
  3
ACAD_LAYOUT
350
1A
  3
ACAD_MLINESTYLE
350
17
  3
ACAD_PLOTSETTINGS
350
19
  3
ACAD_PLOTSTYLENAME
350
E
  3
ACAD_SCALELIST
350
47
  3
ACAD_SECTIONVIEWSTYLE
350
218
  3
AcDbVariableDictionary
350
212
  3
APPDATA
350
211
  3
DWGPROPS
350
69B
  0
DICTIONARY
  5
22F
330
2
100
AcDbDictionary
280
     1
281
     1
  3
ACAD_LAYERSTATES
360
230
  0
DICTIONARY
  5
21B
330
21A
100
AcDbDictionary
280
     1
281
     1
  3
ADSK_XREC_LAYER_RECONCILED
360
21C
  0
DICTIONARY
  5
217
102
{ACAD_REACTORS
330
C
102
}
330
C
100
AcDbDictionary
281
     1
  0
DICTIONARY
  5
D
102
{ACAD_REACTORS
330
C
102
}
330
C
100
AcDbDictionary
281
     1
  0
DICTIONARY
  5
1A
102
{ACAD_REACTORS
330
C
102
}
330
C
100
AcDbDictionary
281
     1
  3
Layout1
350
1E
  3
Layout2
350
26
  3
Model
350
22
  0
DICTIONARY
  5
17
102
{ACAD_REACTORS
330
C
102
}
330
C
100
AcDbDictionary
281
     1
  3
Standard
350
18
  0
DICTIONARY
  5
19
102
{ACAD_REACTORS
330
C
102
}
330
C
100
AcDbDictionary
281
     1
  0
ACDBDICTIONARYWDFLT
  5
E
102
{ACAD_REACTORS
330
C
102
}
330
C
100
AcDbDictionary
281
     1
  3
Normal
350
F
100
AcDbDictionaryWithDefault
340
F
  0
DICTIONARY
  5
47
102
{ACAD_REACTORS
330
C
102
}
330
C
100
AcDbDictionary
281
     1
  3
A0
350
48
  3
A1
350
49
  3
A2
350
4A
  3
A3
350
4B
  3
A4
350
4C
  3
A5
350
4D
  3
A6
350
4E
  3
A7
350
4F
  3
A8
350
50
  3
A9
350
51
  3
B0
350
52
  3
B1
350
53
  3
B2
350
54
  3
B3
350
55
  3
B4
350
56
  3
B5
350
57
  3
B6
350
58
  3
B7
350
59
  3
B8
350
5A
  3
B9
350
5B
  3
C0
350
5C
  3
C1
350
5D
  3
C2
350
5E
  3
C3
350
5F
  3
C4
350
60
  3
C5
350
61
  3
C6
350
62
  3
C7
350
63
  3
C8
350
64
  3
C9
350
65
  3
D0
350
66
  3
D1
350
67
  3
D2
350
68
  0
DICTIONARY
  5
218
102
{ACAD_REACTORS
330
C
102
}
330
C
100
AcDbDictionary
281
     1
  0
DICTIONARY
  5
212
102
{ACAD_REACTORS
330
C
102
}
330
C
100
AcDbDictionary
281
     1
  0
DICTIONARY
  5
211
102
{ACAD_REACTORS
330
C
102
}
330
C
100
AcDbDictionary
281
     1
  0
XRECORD
  5
69B
102
{ACAD_REACTORS
330
C
102
}
330
C
100
AcDbXrecord
280
     1
  1
DWGPROPS COOKIE
  2

  3

  4

  6

  7

  8
ModuleX
  9

300
=
301
=
302
=
303
=
304
=
305
=
306
=
307
=
308
=
309
=
 40
0.0
 41
2458687.078849086
 42
2458737.118635729
  1

 90
        0
  0
DICTIONARY
  5
230
102
{ACAD_REACTORS
330
22F
102
}
330
22F
100
AcDbDictionary
281
     1
  0
XRECORD
  5
21C
102
{ACAD_REACTORS
330
21B
102
}
330
21B
100
AcDbXrecord
280
     1
290
     1
  0
LAYOUT
  5
1E
102
{ACAD_REACTORS
330
1A
102
}
330
1A
100
AcDbPlotSettings
  1

  2
none_device
  4

  6

 40
0.0
 41
0.0
 42
0.0
 43
0.0
 44
0.0
 45
0.0
 46
0.0
 47
0.0
 48
0.0
 49
0.0
140
0.0
141
0.0
142
1.0
143
1.0
 70
   688
 72
     1
 73
     0
 74
     5
  7

 75
    16
147
1.0
148
0.0
149
0.0
100
AcDbLayout
  1
Layout1
 70
     1
 71
     1
 10
0.0
 20
0.0
 11
420.0
 21
297.0
 12
0.0
 22
0.0
 32
0.0
 14
1.000000000000000E+20
 24
1.000000000000000E+20
 34
1.000000000000000E+20
 15
-1.000000000000000E+20
 25
-1.000000000000000E+20
 35
-1.000000000000000E+20
146
0.0
 13
0.0
 23
0.0
 33
0.0
 16
1.0
 26
0.0
 36
0.0
 17
0.0
 27
1.0
 37
0.0
 76
     0
330
1B
  0
LAYOUT
  5
26
102
{ACAD_REACTORS
330
1A
102
}
330
1A
100
AcDbPlotSettings
  1

  2
none_device
  4

  6

 40
0.0
 41
0.0
 42
0.0
 43
0.0
 44
0.0
 45
0.0
 46
0.0
 47
0.0
 48
0.0
 49
0.0
140
0.0
141
0.0
142
1.0
143
1.0
 70
   688
 72
     1
 73
     0
 74
     5
  7

 75
    16
147
1.0
148
0.0
149
0.0
100
AcDbLayout
  1
Layout2
 70
     1
 71
     2
 10
0.0
 20
0.0
 11
0.0
 21
0.0
 12
0.0
 22
0.0
 32
0.0
 14
0.0
 24
0.0
 34
0.0
 15
0.0
 25
0.0
 35
0.0
146
0.0
 13
0.0
 23
0.0
 33
0.0
 16
1.0
 26
0.0
 36
0.0
 17
0.0
 27
1.0
 37
0.0
 76
     0
330
23
  0
LAYOUT
  5
22
102
{ACAD_REACTORS
330
1A
102
}
330
1A
100
AcDbPlotSettings
  1

  2
none_device
  4
Letter_(8.50_x_11.00_Inches)
  6

 40
6.35
 41
6.35
 42
6.35000508
 43
6.35000508
 44
215.9
 45
279.4
 46
0.0
 47
0.0
 48
0.0
 49
0.0
140
0.0
141
0.0
142
1.0
143
1.0
 70
  1712
 72
     1
 73
     0
 74
     0
  7

 75
     0
147
1.0
148
0.0
149
0.0
100
AcDbLayout
  1
Model
 70
     1
 71
     0
 10
0.0
 20
0.0
 11
1189.0
 21
841.0
 12
0.0
 22
0.0
 32
0.0
 14
365.1889083628785
 24
-107.2015432098764
 34
0.0
 15
1225.147892455567
 25
460.302935363655
 35
0.0
146
0.0
 13
0.0
 23
0.0
 33
0.0
 16
1.0
 26
0.0
 36
0.0
 17
0.0
 27
1.0
 37
0.0
 76
     0
330
1F
331
29
  0
MLINESTYLE
  5
18
102
{ACAD_REACTORS
330
17
102
}
330
17
100
AcDbMlineStyle
  2
Standard
 70
     0
  3

 62
   256
 51
90.0
 52
90.0
 71
     2
 49
0.5
 62
   256
  6
BYLAYER
 49
-0.5
 62
   256
  6
BYLAYER
  0
ACDBPLACEHOLDER
  5
F
102
{ACAD_REACTORS
330
E
102
}
330
E
  0
SCALE
  5
48
102
{ACAD_REACTORS
330
47
102
}
330
47
100
AcDbScale
 70
     0
300
1:1
140
1.0
141
1.0
290
     1
  0
SCALE
  5
49
102
{ACAD_REACTORS
330
47
102
}
330
47
100
AcDbScale
 70
     0
300
1:2
140
1.0
141
2.0
290
     0
  0
SCALE
  5
4A
102
{ACAD_REACTORS
330
47
102
}
330
47
100
AcDbScale
 70
     0
300
1:4
140
1.0
141
4.0
290
     0
  0
SCALE
  5
4B
102
{ACAD_REACTORS
330
47
102
}
330
47
100
AcDbScale
 70
     0
300
1:5
140
1.0
141
5.0
290
     0
  0
SCALE
  5
4C
102
{ACAD_REACTORS
330
47
102
}
330
47
100
AcDbScale
 70
     0
300
1:8
140
1.0
141
8.0
290
     0
  0
SCALE
  5
4D
102
{ACAD_REACTORS
330
47
102
}
330
47
100
AcDbScale
 70
     0
300
1:10
140
1.0
141
10.0
290
     0
  0
SCALE
  5
4E
102
{ACAD_REACTORS
330
47
102
}
330
47
100
AcDbScale
 70
     0
300
1:16
140
1.0
141
16.0
290
     0
  0
SCALE
  5
4F
102
{ACAD_REACTORS
330
47
102
}
330
47
100
AcDbScale
 70
     0
300
1:20
140
1.0
141
20.0
290
     0
  0
SCALE
  5
50
102
{ACAD_REACTORS
330
47
102
}
330
47
100
AcDbScale
 70
     0
300
1:30
140
1.0
141
30.0
290
     0
  0
SCALE
  5
51
102
{ACAD_REACTORS
330
47
102
}
330
47
100
AcDbScale
 70
     0
300
1:40
140
1.0
141
40.0
290
     0
  0
SCALE
  5
52
102
{ACAD_REACTORS
330
47
102
}
330
47
100
AcDbScale
 70
     0
300
1:50
140
1.0
141
50.0
290
     0
  0
SCALE
  5
53
102
{ACAD_REACTORS
330
47
102
}
330
47
100
AcDbScale
 70
     0
300
1:100
140
1.0
141
100.0
290
     0
  0
SCALE
  5
54
102
{ACAD_REACTORS
330
47
102
}
330
47
100
AcDbScale
 70
     0
300
2:1
140
2.0
141
1.0
290
     0
  0
SCALE
  5
55
102
{ACAD_REACTORS
330
47
102
}
330
47
100
AcDbScale
 70
     0
300
4:1
140
4.0
141
1.0
290
     0
  0
SCALE
  5
56
102
{ACAD_REACTORS
330
47
102
}
330
47
100
AcDbScale
 70
     0
300
8:1
140
8.0
141
1.0
290
     0
  0
SCALE
  5
57
102
{ACAD_REACTORS
330
47
102
}
330
47
100
AcDbScale
 70
     0
300
10:1
140
10.0
141
1.0
290
     0
  0
SCALE
  5
58
102
{ACAD_REACTORS
330
47
102
}
330
47
100
AcDbScale
 70
     0
300
100:1
140
100.0
141
1.0
290
     0
  0
SCALE
  5
59
102
{ACAD_REACTORS
330
47
102
}
330
47
100
AcDbScale
 70
     0
300
1/128" = 1'-0"
140
0.0078125
141
12.0
290
     0
  0
SCALE
  5
5A
102
{ACAD_REACTORS
330
47
102
}
330
47
100
AcDbScale
 70
     0
300
1/64" = 1'-0"
140
0.015625
141
12.0
290
     0
  0
SCALE
  5
5B
102
{ACAD_REACTORS
330
47
102
}
330
47
100
AcDbScale
 70
     0
300
1/32" = 1'-0"
140
0.03125
141
12.0
290
     0
  0
SCALE
  5
5C
102
{ACAD_REACTORS
330
47
102
}
330
47
100
AcDbScale
 70
     0
300
1/16" = 1'-0"
140
0.0625
141
12.0
290
     0
  0
SCALE
  5
5D
102
{ACAD_REACTORS
330
47
102
}
330
47
100
AcDbScale
 70
     0
300
3/32" = 1'-0"
140
0.09375
141
12.0
290
     0
  0
SCALE
  5
5E
102
{ACAD_REACTORS
330
47
102
}
330
47
100
AcDbScale
 70
     0
300
1/8" = 1'-0"
140
0.125
141
12.0
290
     0
  0
SCALE
  5
5F
102
{ACAD_REACTORS
330
47
102
}
330
47
100
AcDbScale
 70
     0
300
3/16" = 1'-0"
140
0.1875
141
12.0
290
     0
  0
SCALE
  5
60
102
{ACAD_REACTORS
330
47
102
}
330
47
100
AcDbScale
 70
     0
300
1/4" = 1'-0"
140
0.25
141
12.0
290
     0
  0
SCALE
  5
61
102
{ACAD_REACTORS
330
47
102
}
330
47
100
AcDbScale
 70
     0
300
3/8" = 1'-0"
140
0.375
141
12.0
290
     0
  0
SCALE
  5
62
102
{ACAD_REACTORS
330
47
102
}
330
47
100
AcDbScale
 70
     0
300
1/2" = 1'-0"
140
0.5
141
12.0
290
     0
  0
SCALE
  5
63
102
{ACAD_REACTORS
330
47
102
}
330
47
100
AcDbScale
 70
     0
300
3/4" = 1'-0"
140
0.75
141
12.0
290
     0
  0
SCALE
  5
64
102
{ACAD_REACTORS
330
47
102
}
330
47
100
AcDbScale
 70
     0
300
1" = 1'-0"
140
1.0
141
12.0
290
     0
  0
SCALE
  5
65
102
{ACAD_REACTORS
330
47
102
}
330
47
100
AcDbScale
 70
     0
300
1-1/2" = 1'-0"
140
1.5
141
12.0
290
     0
  0
SCALE
  5
66
102
{ACAD_REACTORS
330
47
102
}
330
47
100
AcDbScale
 70
     0
300
3" = 1'-0"
140
3.0
141
12.0
290
     0
  0
SCALE
  5
67
102
{ACAD_REACTORS
330
47
102
}
330
47
100
AcDbScale
 70
     0
300
6" = 1'-0"
140
6.0
141
12.0
290
     0
  0
SCALE
  5
68
102
{ACAD_REACTORS
330
47
102
}
330
47
100
AcDbScale
 70
     0
300
1'-0" = 1'-0"
140
12.0
141
12.0
290
     0
  0
ENDSEC
  0
EOF
