  0
SECTION
  2
HEADER
  9
$ACADVER
  1
AC1015
  9
$ACADMAINTVER
 70
     6
  9
$DWGCODEPAGE
  3
ANSI_932
  9
$INSBASE
 10
0.0
 20
0.0
 30
0.0
  9
$EXTMIN
 10
50.99532342782015
 20
135.8489331179744
 30
0.0
  9
$EXTMAX
 10
910.9543268570125
 20
666.2843535508784
 30
0.0
  9
$LIMMIN
 10
0.0
 20
0.0
  9
$LIMMAX
 10
1189.0
 20
841.0
  9
$ORTHOMODE
 70
     0
  9
$REGENMODE
 70
     1
  9
$FILLMODE
 70
     1
  9
$QTEXTMODE
 70
     0
  9
$MIRRTEXT
 70
     1
  9
$LTSCALE
 40
1.0
  9
$ATTMODE
 70
     1
  9
$TEXTSIZE
 40
3.5
  9
$TRACEWID
 40
1.0
  9
$TEXTSTYLE
  7
Standard
  9
$CLAYER
  8
0
  9
$CELTYPE
  6
ByLayer
  9
$CECOLOR
 62
   256
  9
$CELTSCALE
 40
1.0
  9
$DISPSILH
 70
     0
  9
$DIMSCALE
 40
1.0
  9
$DIMASZ
 40
3.302
  9
$DIMEXO
 40
1.0
  9
$DIMDLI
 40
3.75
  9
$DIMRND
 40
0.0
  9
$DIMDLE
 40
0.0
  9
$DIMEXE
 40
1.0
  9
$DIMTP
 40
0.0
  9
$DIMTM
 40
0.0
  9
$DIMTXT
 40
3.5
  9
$DIMCEN
 40
2.5
  9
$DIMTSZ
 40
0.0
  9
$DIMTOL
 70
     0
  9
$DIMLIM
 70
     0
  9
$DIMTIH
 70
     1
  9
$DIMTOH
 70
     1
  9
$DIMSE1
 70
     0
  9
$DIMSE2
 70
     0
  9
$DIMTAD
 70
     1
  9
$DIMZIN
 70
     0
  9
$DIMBLK
  1

  9
$DIMASO
 70
     1
  9
$DIMSHO
 70
     1
  9
$DIMPOST
  1

  9
$DIMAPOST
  1

  9
$DIMALT
 70
     0
  9
$DIMALTD
 70
     3
  9
$DIMALTF
 40
0.0393700787401575
  9
$DIMLFAC
 40
1.0
  9
$DIMTOFL
 70
     1
  9
$DIMTVP
 40
0.0
  9
$DIMTIX
 70
     0
  9
$DIMSOXD
 70
     0
  9
$DIMSAH
 70
     0
  9
$DIMBLK1
  1

  9
$DIMBLK2
  1

  9
$DIMSTYLE
  2
ISO-25
  9
$DIMCLRD
 70
     0
  9
$DIMCLRE
 70
     0
  9
$DIMCLRT
 70
     0
  9
$DIMTFAC
 40
1.0
  9
$DIMGAP
 40
1.524
  9
$DIMJUST
 70
     0
  9
$DIMSD1
 70
     0
  9
$DIMSD2
 70
     0
  9
$DIMTOLJ
 70
     0
  9
$DIMTZIN
 70
     0
  9
$DIMALTZ
 70
     0
  9
$DIMALTTZ
 70
     0
  9
$DIMUPT
 70
     0
  9
$DIMDEC
 70
     2
  9
$DIMTDEC
 70
     2
  9
$DIMALTU
 70
     2
  9
$DIMALTTD
 70
     3
  9
$DIMTXSTY
  7
Standard
  9
$DIMAUNIT
 70
     0
  9
$DIMADEC
 70
     2
  9
$DIMALTRND
 40
0.0
  9
$DIMAZIN
 70
     0
  9
$DIMDSEP
 70
    44
  9
$DIMATFIT
 70
     3
  9
$DIMFRAC
 70
     0
  9
$DIMLDRBLK
  1

  9
$DIMLUNIT
 70
     2
  9
$DIMLWD
 70
    -2
  9
$DIMLWE
 70
    -2
  9
$DIMTMOVE
 70
     0
  9
$LUNITS
 70
     2
  9
$LUPREC
 70
     2
  9
$SKETCHINC
 40
1.0
  9
$FILLETRAD
 40
10.0
  9
$AUNITS
 70
     0
  9
$AUPREC
 70
     2
  9
$MENU
  1
.
  9
$ELEVATION
 40
0.0
  9
$PELEVATION
 40
0.0
  9
$THICKNESS
 40
0.0
  9
$LIMCHECK
 70
     0
  9
$CHAMFERA
 40
0.0
  9
$CHAMFERB
 40
0.0
  9
$CHAMFERC
 40
0.0
  9
$CHAMFERD
 40
0.0
  9
$SKPOLY
 70
     0
  9
$TDCREATE
 40
2458682.533262257
  9
$TDUCREATE
 40
2458682.158262257
  9
$TDUPDATE
 40
2459611.672514595
  9
$TDUUPDATE
 40
2459611.297514595
  9
$TDINDWG
 40
0.0090689583
  9
$TDUSRTIMER
 40
0.0003978588
  9
$USRTIMER
 70
     1
  9
$ANGBASE
 50
0.0
  9
$ANGDIR
 70
     0
  9
$PDMODE
 70
     0
  9
$PDSIZE
 40
-1.0
  9
$PLINEWID
 40
0.0
  9
$SPLFRAME
 70
     0
  9
$SPLINETYPE
 70
     6
  9
$SPLINESEGS
 70
     8
  9
$HANDSEED
  5
D04
  9
$SURFTAB1
 70
     6
  9
$SURFTAB2
 70
     6
  9
$SURFTYPE
 70
     6
  9
$SURFU
 70
     6
  9
$SURFV
 70
     6
  9
$UCSBASE
  2

  9
$UCSNAME
  2

  9
$UCSORG
 10
0.0
 20
0.0
 30
0.0
  9
$UCSXDIR
 10
1.0
 20
0.0
 30
0.0
  9
$UCSYDIR
 10
0.0
 20
1.0
 30
0.0
  9
$UCSORTHOREF
  2

  9
$UCSORTHOVIEW
 70
     1
  9
$UCSORGTOP
 10
0.0
 20
0.0
 30
0.0
  9
$UCSORGBOTTOM
 10
0.0
 20
0.0
 30
0.0
  9
$UCSORGLEFT
 10
0.0
 20
0.0
 30
0.0
  9
$UCSORGRIGHT
 10
0.0
 20
0.0
 30
0.0
  9
$UCSORGFRONT
 10
0.0
 20
0.0
 30
0.0
  9
$UCSORGBACK
 10
0.0
 20
0.0
 30
0.0
  9
$PUCSBASE
  2

  9
$PUCSNAME
  2

  9
$PUCSORG
 10
0.0
 20
0.0
 30
0.0
  9
$PUCSXDIR
 10
1.0
 20
0.0
 30
0.0
  9
$PUCSYDIR
 10
0.0
 20
1.0
 30
0.0
  9
$PUCSORTHOREF
  2

  9
$PUCSORTHOVIEW
 70
     0
  9
$PUCSORGTOP
 10
0.0
 20
0.0
 30
0.0
  9
$PUCSORGBOTTOM
 10
0.0
 20
0.0
 30
0.0
  9
$PUCSORGLEFT
 10
0.0
 20
0.0
 30
0.0
  9
$PUCSORGRIGHT
 10
0.0
 20
0.0
 30
0.0
  9
$PUCSORGFRONT
 10
0.0
 20
0.0
 30
0.0
  9
$PUCSORGBACK
 10
0.0
 20
0.0
 30
0.0
  9
$USERI1
 70
     0
  9
$USERI2
 70
     0
  9
$USERI3
 70
     0
  9
$USERI4
 70
     0
  9
$USERI5
 70
     0
  9
$USERR1
 40
0.0
  9
$USERR2
 40
0.0
  9
$USERR3
 40
0.0
  9
$USERR4
 40
0.0
  9
$USERR5
 40
0.0
  9
$WORLDVIEW
 70
     1
  9
$SHADEDGE
 70
     3
  9
$SHADEDIF
 70
    70
  9
$TILEMODE
 70
     1
  9
$MAXACTVP
 70
    64
  9
$PINSBASE
 10
0.0
 20
0.0
 30
0.0
  9
$PLIMCHECK
 70
     0
  9
$PEXTMIN
 10
1.000000000000000E+20
 20
1.000000000000000E+20
 30
1.000000000000000E+20
  9
$PEXTMAX
 10
-1.000000000000000E+20
 20
-1.000000000000000E+20
 30
-1.000000000000000E+20
  9
$PLIMMIN
 10
0.0
 20
0.0
  9
$PLIMMAX
 10
0.0
 20
0.0
  9
$UNITMODE
 70
     0
  9
$VISRETAIN
 70
     1
  9
$PLINEGEN
 70
     0
  9
$PSLTSCALE
 70
     1
  9
$TREEDEPTH
 70
  3020
  9
$CMLSTYLE
  2
Standard
  9
$CMLJUST
 70
     0
  9
$CMLSCALE
 40
20.0
  9
$PROXYGRAPHICS
 70
     1
  9
$MEASUREMENT
 70
     1
  9
$CELWEIGHT
370
    -1
  9
$ENDCAPS
280
     0
  9
$JOINSTYLE
280
     0
  9
$LWDISPLAY
290
     1
  9
$INSUNITS
 70
     4
  9
$HYPERLINKBASE
  1

  9
$STYLESHEET
  1

  9
$XEDIT
290
     1
  9
$CEPSNTYPE
380
     0
  9
$PSTYLEMODE
290
     1
  9
$FINGERPRINTGUID
  2
{D01C72AB-8BCF-496C-B837-3DD6DB04A4FC}
  9
$VERSIONGUID
  2
{FAEB1C32-E019-11D5-929B-00C0DF256EC4}
  9
$EXTNAMES
290
     1
  9
$PSVPSCALE
 40
0.0
  9
$OLESTARTUP
290
     0
  0
ENDSEC
  0
SECTION
  2
CLASSES
  0
CLASS
  1
ACDBDICTIONARYWDFLT
  2
AcDbDictionaryWithDefault
  3
ObjectDBX Classes
 90
        0
280
     0
281
     0
  0
CLASS
  1
VISUALSTYLE
  2
AcDbVisualStyle
  3
ObjectDBX Classes
 90
     4095
280
     0
281
     0
  0
CLASS
  1
MATERIAL
  2
AcDbMaterial
  3
ObjectDBX Classes
 90
     1153
280
     0
281
     0
  0
CLASS
  1
SCALE
  2
AcDbScale
  3
ObjectDBX Classes
 90
     1153
280
     0
281
     0
  0
CLASS
  1
TABLESTYLE
  2
AcDbTableStyle
  3
ObjectDBX Classes
 90
     4095
280
     0
281
     0
  0
CLASS
  1
MLEADERSTYLE
  2
AcDbMLeaderStyle
  3
ACDB_MLEADERSTYLE_CLASS
 90
     4095
280
     0
281
     0
  0
CLASS
  1
SUN
  2
AcDbSun
  3
SCENEOE
 90
     1153
280
     0
281
     0
  0
CLASS
  1
ACDBPLACEHOLDER
  2
AcDbPlaceHolder
  3
ObjectDBX Classes
 90
        0
280
     0
281
     0
  0
CLASS
  1
LAYOUT
  2
AcDbLayout
  3
ObjectDBX Classes
 90
        0
280
     0
281
     0
  0
CLASS
  1
DICTIONARYVAR
  2
AcDbDictionaryVar
  3
ObjectDBX Classes
 90
        0
280
     0
281
     0
  0
CLASS
  1
SORTENTSTABLE
  2
AcDbSortentsTable
  3
ObjectDBX Classes
 90
        0
280
     0
281
     0
  0
ENDSEC
  0
SECTION
  2
TABLES
  0
TABLE
  2
VPORT
  5
8
330
0
100
AcDbSymbolTable
 70
     1
  0
VPORT
  5
29
330
8
100
AcDbSymbolTableRecord
100
AcDbViewportTableRecord
  2
*Active
 70
     0
 10
0.0
 20
0.0
 11
1.0
 21
1.0
 12
480.9748251424164
 22
401.0666433344264
 13
0.0
 23
0.0
 14
10.0
 24
10.0
 15
10.0
 25
10.0
 16
0.0
 26
0.0
 36
1.0
 17
0.0
 27
0.0
 37
0.0
 40
541.0441288415622
 41
1.972805933250927
 42
50.0
 43
0.0
 44
0.0
 50
0.0
 51
0.0
 71
    16
 72
  2000
 73
     1
 74
     3
 75
     0
 76
     0
 77
     0
 78
     0
281
     0
 65
     1
110
0.0
120
0.0
130
0.0
111
1.0
121
0.0
131
0.0
112
0.0
122
1.0
132
0.0
 79
     1
146
0.0
  0
ENDTAB
  0
TABLE
  2
LTYPE
  5
5
330
0
100
AcDbSymbolTable
 70
     6
  0
LTYPE
  5
14
330
5
100
AcDbSymbolTableRecord
100
AcDbLinetypeTableRecord
  2
ByBlock
 70
     0
  3

 72
    65
 73
     0
 40
0.0
  0
LTYPE
  5
15
330
5
100
AcDbSymbolTableRecord
100
AcDbLinetypeTableRecord
  2
ByLayer
 70
     0
  3

 72
    65
 73
     0
 40
0.0
  0
LTYPE
  5
16
330
5
100
AcDbSymbolTableRecord
100
AcDbLinetypeTableRecord
  2
Continuous
 70
     0
  3
Solid line
 72
    65
 73
     0
 40
0.0
  0
LTYPE
  5
6E
330
5
100
AcDbSymbolTableRecord
100
AcDbLinetypeTableRecord
  2
HIDDEN
 70
     0
  3
Hidden __ __ __ __ __ __ __ __ __ __ __ __ __ __
 72
    65
 73
     2
 40
1.905
 49
1.27
 74
     0
 49
-0.635
 74
     0
  0
LTYPE
  5
6F
330
5
100
AcDbSymbolTableRecord
100
AcDbLinetypeTableRecord
  2
PHANTOM
 70
     0
  3
Phantom ______  __  __  ______  __  __  ______
 72
    65
 73
     6
 40
12.7
 49
6.35
 74
     0
 49
-1.27
 74
     0
 49
1.27
 74
     0
 49
-1.27
 74
     0
 49
1.27
 74
     0
 49
-1.27
 74
     0
  0
LTYPE
  5
70
330
5
100
AcDbSymbolTableRecord
100
AcDbLinetypeTableRecord
  2
CENTER
 70
     0
  3
Center ____ _ ____ _ ____ _ ____ _ ____ _ ____
 72
    65
 73
     4
 40
10.16
 49
6.35
 74
     0
 49
-1.27
 74
     0
 49
1.27
 74
     0
 49
-1.27
 74
     0
  0
LTYPE
  5
71
330
5
100
AcDbSymbolTableRecord
100
AcDbLinetypeTableRecord
  2
CENTERX2
 70
     0
  3
Center (2x) ________  __  ________  __  _____
 72
    65
 73
     4
 40
20.32
 49
12.7
 74
     0
 49
-2.54
 74
     0
 49
2.54
 74
     0
 49
-2.54
 74
     0
  0
LTYPE
  5
72
330
5
100
AcDbSymbolTableRecord
100
AcDbLinetypeTableRecord
  2
DOT2
 70
     0
  3
Dot (.5x) ........................................
 72
    65
 73
     2
 40
0.635
 49
0.0
 74
     0
 49
-0.635
 74
     0
  0
ENDTAB
  0
TABLE
  2
LAYER
  5
2
102
{ACAD_XDICTIONARY
360
A41
102
}
330
0
100
AcDbSymbolTable
 70
     3
  0
LAYER
  5
10
330
2
100
AcDbSymbolTableRecord
100
AcDbLayerTableRecord
  2
0
 70
     0
 62
     7
  6
Continuous
370
    -3
390
F
  0
LAYER
  5
73
330
2
100
AcDbSymbolTableRecord
100
AcDbLayerTableRecord
  2
FORMAT
 70
     0
 62
     7
  6
Continuous
370
    -3
390
F
  0
LAYER
  5
A21
102
{ACAD_XDICTIONARY
360
A22
102
}
330
2
100
AcDbSymbolTableRecord
100
AcDbLayerTableRecord
  2
寸法線
 70
     0
 62
     7
  6
Continuous
370
    -3
390
F
  0
ENDTAB
  0
TABLE
  2
STYLE
  5
3
330
0
100
AcDbSymbolTable
 70
     3
  0
STYLE
  5
11
330
3
100
AcDbSymbolTableRecord
100
AcDbTextStyleTableRecord
  2
Standard
 70
     0
 40
0.0
 41
1.0
 50
0.0
 71
     0
 42
3.5
  3
txt
  4
bigfont
  0
STYLE
  5
E1
330
3
100
AcDbSymbolTableRecord
100
AcDbTextStyleTableRecord
  2
SLDTEXTSTYLE0
 70
     0
 40
0.0
 41
0.75
 50
0.0
 71
     0
 42
3.5
  3
TXT
  4
bigfont
  0
STYLE
  5
135
330
3
100
AcDbSymbolTableRecord
100
AcDbTextStyleTableRecord
  2
SLDTEXTSTYLE1
 70
     0
 40
0.0
 41
0.65625
 50
0.0
 71
     0
 42
3.5
  3
TXT
  4
bigfont
  0
ENDTAB
  0
TABLE
  2
VIEW
  5
6
330
0
100
AcDbSymbolTable
 70
     0
  0
ENDTAB
  0
TABLE
  2
UCS
  5
7
330
0
100
AcDbSymbolTable
 70
     0
  0
ENDTAB
  0
TABLE
  2
APPID
  5
9
330
0
100
AcDbSymbolTable
 70
     5
  0
APPID
  5
12
330
9
100
AcDbSymbolTableRecord
100
AcDbRegAppTableRecord
  2
ACAD
 70
     0
  0
APPID
  5
A2D
330
9
100
AcDbSymbolTableRecord
100
AcDbRegAppTableRecord
  2
ACAD_DSTYLE_DIMJAG
 70
     0
  0
APPID
  5
A2E
330
9
100
AcDbSymbolTableRecord
100
AcDbRegAppTableRecord
  2
ACAD_DSTYLE_DIMTALN
 70
     0
  0
APPID
  5
A37
330
9
100
AcDbSymbolTableRecord
100
AcDbRegAppTableRecord
  2
ACAD_PSEXT
 70
     0
  0
APPID
  5
BA6
330
9
100
AcDbSymbolTableRecord
100
AcDbRegAppTableRecord
  2
PE_URL
 70
     0
  0
ENDTAB
  0
TABLE
  2
DIMSTYLE
  5
A
330
0
100
AcDbSymbolTable
 70
     8
100
AcDbDimStyleTable
  0
DIMSTYLE
105
27
330
A
100
AcDbSymbolTableRecord
100
AcDbDimStyleTableRecord
  2
ISO-25
 70
     0
 41
2.5
 42
0.625
 43
3.75
 44
1.25
 73
     0
 74
     0
 77
     1
 78
     8
140
2.5
141
2.5
143
0.03937007874016
147
0.625
171
     3
172
     1
178
     0
271
     2
272
     2
274
     3
278
    44
283
     0
284
     8
340
11
  0
DIMSTYLE
105
A25
330
A
100
AcDbSymbolTableRecord
100
AcDbDimStyleTableRecord
  2
STANDARD
 70
     0
 41
2.5
 42
1.5
 44
1.0
 73
     0
 74
     0
 77
     3
 78
     8
 79
     2
140
2.500000000000003
141
0.0
147
1.0
171
     0
172
     1
173
     1
176
     8
177
     8
271
     2
178
   256
179
     2
271
     2
272
     2
274
     0
289
     1
340
11
341
A27
343
A27
344
A27
1001
ACAD_DSTYLE_DIMJAG
1070
   388
1040
1.5
1001
ACAD_DSTYLE_DIMTALN
1070
   392
1070
     0
  0
DIMSTYLE
105
A2F
330
A
100
AcDbSymbolTableRecord
100
AcDbDimStyleTableRecord
  2
STANDARD$0
 70
     0
 41
2.5
 42
1.0
 43
4.0
 44
1.0
 73
     0
 74
     0
 77
     1
 78
     8
140
2.5
145
1.0
147
0.9999999999999991
171
     0
172
     1
176
     8
177
     8
271
     2
178
   256
271
     2
272
     2
274
     0
284
     8
289
     1
340
11
341
A30
342
A27
371
    -1
372
    -1
1001
ACAD_DSTYLE_DIMJAG
1070
   388
1040
1.5
1001
ACAD_DSTYLE_DIMTALN
1070
   392
1070
     0
  0
DIMSTYLE
105
A36
330
A
100
AcDbSymbolTableRecord
100
AcDbDimStyleTableRecord
  2
STANDARD-1
 70
     0
 41
4.0
 42
3.0
 43
2.0
 44
2.0
 73
     0
 74
     0
 77
     3
 78
     8
 79
     2
140
5.0
141
0.0
147
2.0
172
     1
176
   252
177
   252
178
     0
179
     2
271
     2
272
     2
288
     1
289
     0
340
11
341
A27
342
A27
1001
ACAD_DSTYLE_DIMJAG
1070
   388
1040
1.5
1001
ACAD_DSTYLE_DIMTALN
1070
   392
1070
     0
  0
DIMSTYLE
105
B99
330
A
100
AcDbSymbolTableRecord
100
AcDbDimStyleTableRecord
  2
SLDDIMSTYLE1
 70
     0
 41
2.5
 44
0.0
 45
0.000000001
 47
0.4
 48
0.4
 71
     1
 73
     0
 74
     0
 77
     3
 78
    12
 79
     3
140
4.0
147
1.0
173
     1
178
     0
271
     1
272
     1
276
     2
284
     8
340
E1
341
B9B
343
B9B
344
B9B
  0
DIMSTYLE
105
BA1
330
A
100
AcDbSymbolTableRecord
100
AcDbDimStyleTableRecord
  2
SLDDIMSTYLE3
 70
     0
 41
2.5
 44
0.0
 45
0.000000001
146
2.5
147
0.0
173
     1
178
     0
271
     0
272
     0
276
     2
340
11
341
B9B
343
B9B
344
B9B
  0
DIMSTYLE
105
BA2
330
A
100
AcDbSymbolTableRecord
100
AcDbDimStyleTableRecord
  2
SLDDIMSTYLE4
 70
     0
 41
2.5
 44
0.0
 45
0.000000001
 47
2.0
 48
2.0
 71
     1
 73
     0
 74
     0
 77
     3
 78
    12
 79
     3
140
4.0
147
1.0
172
     1
173
     1
178
     0
271
     2
272
     2
276
     2
284
     8
289
     0
340
E1
341
B9B
343
B9B
344
B9B
  0
DIMSTYLE
105
BA3
330
A
100
AcDbSymbolTableRecord
100
AcDbDimStyleTableRecord
  2
STANDARD$2
 70
     0
 41
2.5
 42
1.5
 43
7.0
 44
1.0
 45
0.0
 73
     0
 74
     0
 77
     3
 78
     8
 79
     2
140
3.0
141
0.0
146
0.6
147
1.0
171
     0
172
     1
176
     8
177
     8
271
     3
178
   256
179
     3
271
     3
272
     3
274
     0
284
     8
285
     8
286
     8
289
     0
340
11
341
B9B
342
B9B
1001
ACAD_DSTYLE_DIMJAG
1070
   388
1040
1.5
1001
ACAD_DSTYLE_DIMTALN
1070
   392
1070
     0
  0
ENDTAB
  0
TABLE
  2
BLOCK_RECORD
  5
1
330
0
100
AcDbSymbolTable
 70
     6
  0
BLOCK_RECORD
  5
1F
330
1
100
AcDbSymbolTableRecord
100
AcDbBlockTableRecord
  2
*Model_Space
340
22
  0
BLOCK_RECORD
  5
1B
330
1
100
AcDbSymbolTableRecord
100
AcDbBlockTableRecord
  2
*Paper_Space
340
1E
  0
BLOCK_RECORD
  5
23
330
1
100
AcDbSymbolTableRecord
100
AcDbBlockTableRecord
  2
*Paper_Space0
340
26
  0
BLOCK_RECORD
  5
142
330
1
100
AcDbSymbolTableRecord
100
AcDbBlockTableRecord
  2
SW_NOTE_0
340
0
  0
BLOCK_RECORD
  5
A27
330
1
100
AcDbSymbolTableRecord
100
AcDbBlockTableRecord
  2
_OPEN
340
0
  0
BLOCK_RECORD
  5
A30
330
1
100
AcDbSymbolTableRecord
100
AcDbBlockTableRecord
  2
SUN
340
0
  0
BLOCK_RECORD
  5
B96
330
1
100
AcDbSymbolTableRecord
100
AcDbBlockTableRecord
  2
A$C16857
340
0
102
{BLKREFS
331
D02
102
}
  0
BLOCK_RECORD
  5
B9B
330
1
100
AcDbSymbolTableRecord
100
AcDbBlockTableRecord
  2
_OPEN30
340
0
  0
ENDTAB
  0
ENDSEC
  0
SECTION
  2
BLOCKS
  0
BLOCK
  5
20
330
1F
100
AcDbEntity
  8
0
100
AcDbBlockBegin
  2
*Model_Space
 70
     0
 10
0.0
 20
0.0
 30
0.0
  3
*Model_Space
  1

  0
ENDBLK
  5
21
330
1F
100
AcDbEntity
  8
0
100
AcDbBlockEnd
  0
BLOCK
  5
1C
330
1B
100
AcDbEntity
 67
     1
  8
0
100
AcDbBlockBegin
  2
*Paper_Space
 70
     0
 10
0.0
 20
0.0
 30
0.0
  3
*Paper_Space
  1

  0
ENDBLK
  5
1D
330
1B
100
AcDbEntity
 67
     1
  8
0
100
AcDbBlockEnd
  0
BLOCK
  5
24
330
23
100
AcDbEntity
  8
0
100
AcDbBlockBegin
  2
*Paper_Space0
 70
     0
 10
0.0
 20
0.0
 30
0.0
  3
*Paper_Space0
  1

  0
ENDBLK
  5
25
330
23
100
AcDbEntity
  8
0
100
AcDbBlockEnd
  0
BLOCK
  5
143
330
142
100
AcDbEntity
  8
0
100
AcDbBlockBegin
  2
SW_NOTE_0
 70
     0
 10
0.0
 20
0.0
 30
0.0
  3
SW_NOTE_0
  1

  0
MTEXT
  5
145
330
142
100
AcDbEntity
  8
0
  6
Continuous
 62
     0
370
     0
100
AcDbMText
 10
0.0
 20
1.933601609657942
 30
0.0
 40
1.5
 41
0.0
 71
     1
 72
     1
  1
指示なき場合：
  7
SLDTEXTSTYLE0
 73
     1
 44
1.0
  0
MTEXT
  5
146
330
142
100
AcDbEntity
  8
0
  6
Continuous
 62
     0
370
     0
100
AcDbMText
 10
0.0
 20
-0.5663983344627033
 30
0.0
 40
1.5
 41
0.0
 71
     1
 72
     1
  1
寸法はミリメータとする　
  7
SLDTEXTSTYLE0
 73
     1
 44
1.0
  0
MTEXT
  5
147
330
142
100
AcDbEntity
  8
0
  6
Continuous
 62
     0
370
     0
100
AcDbMText
 10
0.0
 20
-3.066398278583349
 30
0.0
 40
1.5
 41
0.0
 71
     1
 72
     1
  1
表面粗さ：
  7
SLDTEXTSTYLE0
 73
     1
 44
1.0
  0
MTEXT
  5
148
330
142
100
AcDbEntity
  8
0
  6
Continuous
 62
     0
370
     0
100
AcDbMText
 10
0.0
 20
-5.566398222703994
 30
0.0
 40
1.5
 41
0.0
 71
     1
 72
     1
  1
　公差　：
  7
SLDTEXTSTYLE0
 73
     1
 44
1.0
  0
MTEXT
  5
149
330
142
100
AcDbEntity
  8
0
  6
Continuous
 62
     0
370
     0
100
AcDbMText
 10
0.0
 20
-8.06639816682464
 30
0.0
 40
1.5
 41
0.0
 71
     1
 72
     1
  1
　寸法　：
  7
SLDTEXTSTYLE0
 73
     1
 44
1.0
  0
MTEXT
  5
14A
330
142
100
AcDbEntity
  8
0
  6
Continuous
 62
     0
370
     0
100
AcDbMText
 10
0.0
 20
-10.56639811094528
 30
0.0
 40
1.5
 41
0.0
 71
     1
 72
     1
  1
　角度　：
  7
SLDTEXTSTYLE0
 73
     1
 44
1.0
  0
ENDBLK
  5
144
330
142
100
AcDbEntity
  8
0
100
AcDbBlockEnd
  0
BLOCK
  5
A28
330
A27
100
AcDbEntity
  8
0
100
AcDbBlockBegin
  2
_OPEN
 70
     0
 10
0.0
 20
0.0
 30
0.0
  3
_OPEN
  1

  0
LINE
  5
A29
330
A27
100
AcDbEntity
  8
0
  6
ByBlock
 62
     0
100
AcDbLine
 10
-1.0
 20
0.1666666666666667
 30
0.0
 11
0.0
 21
0.0
 31
0.0
  0
LINE
  5
A2A
330
A27
100
AcDbEntity
  8
0
  6
ByBlock
 62
     0
100
AcDbLine
 10
0.0
 20
0.0
 30
0.0
 11
-1.0
 21
-0.1666666666666667
 31
0.0
  0
LINE
  5
A2B
330
A27
100
AcDbEntity
  8
0
  6
ByBlock
 62
     0
100
AcDbLine
 10
0.0
 20
0.0
 30
0.0
 11
-1.0
 21
0.0
 31
0.0
  0
ENDBLK
  5
A2C
330
A27
100
AcDbEntity
  8
0
100
AcDbBlockEnd
  0
BLOCK
  5
A31
330
A30
100
AcDbEntity
  8
0
100
AcDbBlockBegin
  2
SUN
 70
     0
 10
0.0
 20
0.0
 30
0.0
  3
SUN
  1

  0
LINE
  5
A32
330
A30
100
AcDbEntity
  8
0
100
AcDbLine
 10
-0.0000000000000568
 20
0.0
 30
0.0
 11
-1.500000000000057
 21
0.0
 31
0.0
  0
LINE
  5
A33
330
A30
100
AcDbEntity
  8
0
100
AcDbLine
 10
-0.0000000000000568
 20
0.0000000000000284
 30
0.0
 11
-1.500000000000057
 21
0.401923788646684
 31
0.0
  0
LINE
  5
A34
330
A30
100
AcDbEntity
  8
0
100
AcDbLine
 10
-0.0000000000000568
 20
0.0000000000000284
 30
0.0
 11
-1.500000000000057
 21
-0.4019237886466556
 31
0.0
  0
ENDBLK
  5
A35
330
A30
100
AcDbEntity
  8
0
100
AcDbBlockEnd
  0
BLOCK
  5
D00
330
B96
100
AcDbEntity
  8
0
100
AcDbBlockBegin
  2
A$C16857
 70
     0
 10
0.0
 20
0.0
 30
0.0
  3
A$C16857
  1

  0
LINE
  5
BAE
330
B96
100
AcDbEntity
  8
0
  6
Continuous
 62
     7
370
     5
100
AcDbLine
 10
9.310642078087767
 20
512.2073207708218
 30
0.0
 11
3.623393744839632
 21
515.4904993491855
 31
0.0
1001
PE_URL
1000

  0
LINE
  5
BAF
330
B96
100
AcDbEntity
  8
0
  6
Continuous
 62
     7
370
     5
100
AcDbLine
 10
9.6580979605842
 20
497.118947896668
 30
0.0
 11
219.6688119729879
 21
375.882343290994
 31
0.0
1001
PE_URL
1000

  0
SPLINE
  5
BB0
330
B96
100
AcDbEntity
  8
0
  6
Continuous
 62
     7
370
     5
100
AcDbSpline
210
0.0
220
0.0
230
1.0
 70
     8
 71
     3
 72
     9
 73
     5
 74
     0
 42
0.000000001
 43
0.00000001
 40
0.0
 40
0.0
 40
0.0
 40
0.0
 40
0.6546498185724299
 40
1.0
 40
1.0
 40
1.0
 40
1.0
 10
7.512664300667893
 20
511.1693702933171
 30
0.0
 10
7.381859061699288
 20
511.1728421331045
 30
0.0
 10
7.182049583016124
 20
511.1781454871871
 30
0.0
 10
7.006898857021952
 20
511.113468359139
 30
0.0
 10
6.946410522023143
 20
511.0911321012372
 30
0.0
1001
PE_URL
1000

  0
LINE
  5
BB1
330
B96
100
AcDbEntity
  8
0
  6
Continuous
 62
     7
370
     5
100
AcDbLine
 10
3.886924501146495
 20
499.1262036855242
 30
0.0
 11
3.74550314490989
 21
499.2078444967065
 31
0.0
1001
PE_URL
1000

  0
LINE
  5
BB2
330
B96
100
AcDbEntity
  8
0
  6
Continuous
 62
     7
370
     5
100
AcDbLine
 10
1.745665679638478
 20
495.7436490471828
 30
0.0
 11
1.887087035875084
 21
495.6620082360005
 31
0.0
1001
PE_URL
1000

  0
LINE
  5
BB3
330
B96
100
AcDbEntity
  8
0
  6
Continuous
 62
     7
370
     5
100
AcDbLine
 10
2.988867762580412
 20
497.9525683576194
 30
0.0
 11
3.360143972311562
 21
497.6182238432066
 31
0.0
1001
PE_URL
1000

  0
LINE
  5
BB4
330
B96
100
AcDbEntity
  8
0
  6
Continuous
 62
     7
370
     5
100
AcDbLine
 10
2.929432175382317
 20
496.872350608488
 30
0.0
 11
2.454253897238232
 21
497.0266623541374
 31
0.0
1001
PE_URL
1000

  0
LINE
  5
BB5
330
B96
100
AcDbEntity
  8
0
  6
Continuous
 62
     7
370
     5
100
AcDbLine
 10
16.19058249379123
 20
506.228954258384
 30
0.0
 11
16.0491611375528
 21
506.3105950695663
 31
0.0
1001
PE_URL
1000

  0
LINE
  5
BB6
330
B96
100
AcDbEntity
  8
0
  6
Continuous
 62
     7
370
     5
100
AcDbLine
 10
14.04932367228139
 20
502.8463996200426
 30
0.0
 11
14.19074502851981
 21
502.7647588088603
 31
0.0
1001
PE_URL
1000

  0
LINE
  5
BB7
330
B96
100
AcDbEntity
  8
0
  6
Continuous
 62
     7
370
     5
100
AcDbLine
 10
15.29252575522514
 20
505.0553189304792
 30
0.0
 11
15.66380196495447
 21
504.7209744160664
 31
0.0
1001
PE_URL
1000

  0
LINE
  5
BB8
330
B96
100
AcDbEntity
  8
0
  6
Continuous
 62
     7
370
     5
100
AcDbLine
 10
15.23309016802705
 20
503.9751011813478
 30
0.0
 11
14.75791188988114
 21
504.1294129269936
 31
0.0
1001
PE_URL
1000

  0
LINE
  5
BB9
330
B96
100
AcDbEntity
  8
0
  6
Continuous
 62
     7
370
     5
100
AcDbLine
 10
8.59743778880329
 20
497.7312539815375
 30
0.0
 11
9.6580979605842
 21
497.1189478976721
 31
0.0
1001
PE_URL
1000

  0
ARC
  5
BBA
330
B96
100
AcDbEntity
  8
0
  6
Continuous
 62
     7
370
     5
100
AcDbCircle
 10
0.2000000000007276
 20
486.2077489680505
 30
0.0
 40
0.1999999999999774
100
AcDbArc
 50
180.0
 51
240.0026882662864
1001
PE_URL
1000

  0
LINE
  5
BBB
330
B96
100
AcDbEntity
  8
0
  6
Continuous
 62
     7
370
     5
100
AcDbLine
 10
0.0
 20
516.9096834949542
 30
0.0
 11
0.0
 21
486.2077489680505
 31
0.0
1001
PE_URL
1000

  0
LINE
  5
BBC
330
B96
100
AcDbEntity
  8
0
  6
Continuous
 62
     7
370
     5
100
AcDbLine
 10
0.1000081267357018
 20
486.0345391955725
 30
0.0
 11
0.8778255860415811
 21
485.5855147340717
 31
0.0
1001
PE_URL
1000

  0
ARC
  5
BBD
330
B96
100
AcDbEntity
  8
0
  6
Continuous
 62
     7
370
     5
100
AcDbCircle
 10
17.87766952966376
 20
527.1147848927376
 30
0.0
 40
0.200000000000055
100
AcDbArc
 50
60.00268826628644
 51
119.9973117337136
1001
PE_URL
1000

  0
LINE
  5
BBE
330
B96
100
AcDbEntity
  8
0
  6
Continuous
 62
     7
370
     5
100
AcDbLine
 10
17.77767765640056
 20
527.287994665212
 30
0.0
 11
16.50488545026565
 21
526.5532273645713
 31
0.0
1001
PE_URL
1000

  0
LINE
  5
BBF
330
B96
100
AcDbEntity
  8
0
  6
Continuous
 62
     7
370
     5
100
AcDbLine
 10
18.75547886223285
 20
526.8389702037111
 30
0.0
 11
17.97766140292697
 21
527.287994665212
 31
0.0
1001
PE_URL
1000

  0
LINE
  5
BC0
330
B96
100
AcDbEntity
  8
0
  6
Continuous
 62
     7
370
     5
100
AcDbLine
 10
7.14723893293376
 20
510.958414718838
 30
0.0
 11
5.36768512355593
 21
512.1344322073255
 31
0.0
1001
PE_URL
1000

  0
LINE
  5
BC1
330
B96
100
AcDbEntity
  8
0
  6
Continuous
 62
     7
370
     5
100
AcDbLine
 10
3.623393744839632
 20
515.4904993491855
 30
0.0
 11
2.562733573060541
 21
516.1028054330545
 31
0.0
1001
PE_URL
1000

  0
LINE
  5
BC2
330
B96
100
AcDbEntity
  8
0
  6
Continuous
 62
     7
370
     5
100
AcDbLine
 10
1.37280033287243
 20
517.8176605680692
 30
0.0
 11
0.1000081267357018
 21
517.0828932674285
 31
0.0
1001
PE_URL
1000

  0
ARC
  5
BC3
330
B96
100
AcDbEntity
  8
0
  6
Continuous
 62
     7
370
     5
100
AcDbCircle
 10
0.2000000000007276
 20
516.9096834949542
 30
0.0
 40
0.1999999999999774
100
AcDbArc
 50
119.9973117337136
 51
180.0
1001
PE_URL
1000

  0
LINE
  5
BC4
330
B96
100
AcDbEntity
  8
0
  6
Continuous
 62
     7
370
     5
100
AcDbLine
 10
18.93832970144467
 20
526.8290685936099
 30
0.0
 11
18.79690834333996
 21
526.7474277813508
 31
0.0
1001
PE_URL
1000

  0
LINE
  5
BC5
330
B96
100
AcDbEntity
  8
0
  6
Continuous
 62
     7
370
     5
100
AcDbLine
 10
18.93832970144467
 20
495.8005177419527
 30
0.0
 11
18.93832970144467
 21
526.8290685936099
 31
0.0
1001
PE_URL
1000

  0
LINE
  5
BC6
330
B96
100
AcDbEntity
  8
0
  6
Continuous
 62
     7
370
     5
100
AcDbLine
 10
18.93832970144467
 20
495.8005177419527
 30
0.0
 11
18.23122292025982
 21
495.3923136860412
 31
0.0
1001
PE_URL
1000

  0
LINE
  5
BC7
330
B96
100
AcDbEntity
  8
0
  6
Continuous
 62
     7
370
     5
100
AcDbLine
 10
228.9490437138465
 20
405.5924639879395
 30
0.0
 11
18.93832970144467
 21
526.8290685936099
 31
0.0
1001
PE_URL
1000

  0
LINE
  5
BC8
330
B96
100
AcDbEntity
  8
0
  6
Continuous
 62
     7
370
     5
100
AcDbLine
 10
228.9490437138465
 20
374.5639131362786
 30
0.0
 11
18.93832970144467
 21
495.8005177419527
 31
0.0
1001
PE_URL
1000

  0
LINE
  5
BC9
330
B96
100
AcDbEntity
  8
0
  6
Continuous
 62
     7
370
     5
100
AcDbLine
 10
228.2419369326617
 20
374.1557090803708
 30
0.0
 11
18.23122292025982
 21
495.3923136860412
 31
0.0
1001
PE_URL
1000

  0
ARC
  5
BCA
330
B96
100
AcDbEntity
  8
0
  6
Continuous
 62
     7
370
     5
100
AcDbCircle
 10
-49.89365025476764
 20
509.0281556681603
 30
0.0
 40
56.55107602077785
100
AcDbArc
 50
335.7930815800563
 51
349.770874972552
1001
PE_URL
1000

  0
LINE
  5
BCB
330
B96
100
AcDbEntity
  8
0
  6
Continuous
 62
     7
370
     5
100
AcDbLine
 10
0.9778174593066069
 20
485.4321347218047
 30
0.0
 11
1.684924240491455
 21
485.8403387777162
 31
0.0
1001
PE_URL
1000

  0
LINE
  5
BCC
330
B96
100
AcDbEntity
  8
0
  6
Continuous
 62
     7
370
     5
100
AcDbLine
 10
0.9778174593066069
 20
485.4321347218047
 30
0.0
 11
0.9778174593066069
 21
485.5954163441693
 31
0.0
1001
PE_URL
1000

  0
LINE
  5
BCD
330
B96
100
AcDbEntity
  8
0
  6
Continuous
 62
     7
370
     5
100
AcDbLine
 10
2.392031021679941
 20
517.2770936852849
 30
0.0
 11
2.392031021679941
 21
516.052083417364
 31
0.0
1001
PE_URL
1000

  0
ARC
  5
BCE
330
B96
100
AcDbEntity
  8
0
  6
Continuous
 62
     7
370
     5
100
AcDbCircle
 10
3.569686116601588
 20
515.4110431935969
 30
0.0
 40
0.0959051093115528
100
AcDbArc
 50
352.7441704496616
 51
55.94364915960391
1001
PE_URL
1000

  0
LINE
  5
BCF
330
B96
100
AcDbEntity
  8
0
  6
Continuous
 62
     7
370
     5
100
AcDbLine
 10
3.66482322781485
 20
515.3989303878934
 30
0.0
 11
3.66482322781485
 21
514.5007354948193
 31
0.0
1001
PE_URL
1000

  0
LINE
  5
BD0
330
B96
100
AcDbEntity
  8
0
  6
Continuous
 62
     7
370
     5
100
AcDbLine
 10
211.6956382528952
 20
364.6037341720421
 30
0.0
 11
1.684924240491455
 21
485.8403387777162
 31
0.0
1001
PE_URL
1000

  0
LINE
  5
BD1
330
B96
100
AcDbEntity
  8
0
  6
Continuous
 62
     7
370
     5
100
AcDbLine
 10
210.9885314717085
 20
364.1955301161306
 30
0.0
 11
0.9778174593066069
 21
485.4321347218047
 31
0.0
1001
PE_URL
1000

  0
LINE
  5
BD2
330
B96
100
AcDbEntity
  8
0
  6
Continuous
 62
     7
370
     5
100
AcDbLine
 10
8.473149339883093
 20
499.7296218369866
 30
0.0
 11
7.207708197371176
 21
500.4601454589265
 31
0.0
1001
PE_URL
1000

  0
LINE
  5
BD3
330
B96
100
AcDbEntity
  8
0
  6
Continuous
 62
     7
370
     5
100
AcDbLine
 10
8.473149339883093
 20
499.7697415609709
 30
0.0
 11
7.242456662601398
 21
500.4802053209187
 31
0.0
1001
PE_URL
1000

  0
LINE
  5
BD4
330
B96
100
AcDbEntity
  8
0
  6
Continuous
 62
     7
370
     5
100
AcDbLine
 10
5.106587006648624
 20
512.0355802179092
 30
0.0
 11
3.66482322781485
 21
512.8678927311612
 31
0.0
1001
PE_URL
1000

  0
LINE
  5
BD5
330
B96
100
AcDbEntity
  8
0
  6
Continuous
 62
     7
370
     5
100
AcDbLine
 10
10.24236446224495
 20
512.7451926542726
 30
0.0
 11
2.392031021679941
 21
517.2770936852849
 31
0.0
1001
PE_URL
1000

  0
LINE
  5
BD6
330
B96
100
AcDbEntity
  8
0
  6
Continuous
 62
     7
370
     5
100
AcDbLine
 10
10.38233764908546
 20
499.8431975961703
 30
0.0
 11
10.38233764908546
 21
497.8834996476417
 31
0.0
1001
PE_URL
1000

  0
ARC
  5
BD7
330
B96
100
AcDbEntity
  8
0
  6
Continuous
 62
     7
370
     5
100
AcDbCircle
 10
9.461207988266324
 20
497.9254161589979
 30
0.0
 40
0.9220828845431447
100
AcDbArc
 50
302.6054783401263
 51
357.394521514352
1001
PE_URL
1000

  0
ARC
  5
BD8
330
B96
100
AcDbEntity
  8
0
  6
Continuous
 62
     7
370
     5
100
AcDbCircle
 10
9.782321547465472
 20
497.3939815244357
 30
0.0
 40
0.3017863415410204
100
AcDbArc
 50
245.6928809537356
 51
305.6175774750865
1001
PE_URL
1000

  0
LINE
  5
BD9
330
B96
100
AcDbEntity
  8
0
  6
Continuous
 62
     7
370
     5
100
AcDbLine
 10
10.38233764908546
 20
497.8834996476417
 30
0.0
 11
220.393051661491
 21
376.6468950419712
 31
0.0
1001
PE_URL
1000

  0
LINE
  5
BDA
330
B96
100
AcDbEntity
  8
0
  6
Continuous
 62
     7
370
     5
100
AcDbLine
 10
219.9687875927793
 20
375.912048121294
 30
0.0
 11
9.95807358037382
 21
497.1486527269644
 31
0.0
1001
PE_URL
1000

  0
LINE
  5
BDB
330
B96
100
AcDbEntity
  8
0
  6
Continuous
 62
     7
370
     5
100
AcDbLine
 10
8.430582727123692
 20
500.4293509915497
 30
0.0
 11
7.834978607826997
 21
500.773185930886
 31
0.0
1001
PE_URL
1000

  0
LWPOLYLINE
  5
BDC
330
B96
100
AcDbEntity
  8
0
  6
Continuous
 62
     7
370
     5
100
AcDbPolyline
 90
       19
 70
   128
 43
0.0
 10
2.745584412274184
 20
495.8426651481732
 10
2.261894886978553
 20
495.6619240015261
 10
1.836545456930253
 20
495.6999566501672
 10
1.520839540882662
 20
495.9521757953644
 10
1.352855931634622
 20
496.3881600858494
 10
1.352855931634622
 20
496.9553233817478
 10
1.520839540882662
 20
497.5852574191358
 10
1.836545456930253
 20
498.2019828562679
 10
2.261894886978553
 20
498.7311135035252
 10
2.745584412274184
 20
499.108828395716
 10
3.229273937569815
 20
499.2895695423631
 10
3.654623367618115
 20
499.251536893722
 10
3.970329283665706
 20
498.9993177485248
 10
4.138312892913746
 20
498.5633334580398
 10
4.138312892913746
 20
497.9961701621414
 10
3.970329283665706
 20
497.3662361247534
 10
3.654623367618115
 20
496.7495106876213
 10
3.229273937569815
 20
496.220380040364
 10
2.745584412274184
 20
495.8426651481732
1001
PE_URL
1000

  0
LINE
  5
BDD
330
B96
100
AcDbEntity
  8
0
  6
Continuous
 62
     7
370
     5
100
AcDbLine
 10
2.929432175382317
 20
498.4800747195568
 30
0.0
 11
2.56173664916605
 21
498.2678086104806
 31
0.0
1001
PE_URL
1000

  0
LINE
  5
BDE
330
B96
100
AcDbEntity
  8
0
  6
Continuous
 62
     7
370
     5
100
AcDbLine
 10
2.56173664916605
 20
498.2678086104806
 30
0.0
 11
2.56173664916605
 21
497.906096104698
 31
0.0
1001
PE_URL
1000

  0
ELLIPSE
  5
BDF
330
B96
100
AcDbEntity
  8
0
  6
Continuous
 62
     7
370
     5
100
AcDbEllipse
 10
2.276769837288157
 20
497.746475645994
 30
0.0
 11
0.1999830001076363
 21
0.3464199758967084
 31
0.0
210
0.0
220
0.0
230
1.0
 40
0.5860215324411342
 41
3.934333415638416
 42
5.490277059489856
1001
PE_URL
1000

  0
LINE
  5
BE0
330
B96
100
AcDbEntity
  8
0
  6
Continuous
 62
     7
370
     5
100
AcDbLine
 10
2.281002203379103
 20
497.4198497825873
 30
0.0
 11
1.967766952968304
 21
497.2390229215325
 31
0.0
1001
PE_URL
1000

  0
LINE
  5
BE1
330
B96
100
AcDbEntity
  8
0
  6
Continuous
 62
     7
370
     5
100
AcDbLine
 10
1.967766952968304
 20
497.2390229215325
 30
0.0
 11
1.967766952968304
 21
496.8144216993514
 31
0.0
1001
PE_URL
1000

  0
LINE
  5
BE2
330
B96
100
AcDbEntity
  8
0
  6
Continuous
 62
     7
370
     5
100
AcDbLine
 10
1.967766952968304
 20
496.8144216993514
 30
0.0
 11
2.281002203379103
 21
496.9952485604063
 31
0.0
1001
PE_URL
1000

  0
ELLIPSE
  5
BE3
330
B96
100
AcDbEntity
  8
0
  6
Continuous
 62
     7
370
     5
100
AcDbEllipse
 10
2.276769837288157
 20
496.6637361111225
 30
0.0
 11
0.2029770344755093
 21
0.3516029848150595
 31
0.0
210
0.0
220
0.0
230
1.0
 40
0.5688689412913749
 41
5.505134574332246
 42
7.061078218188242
1001
PE_URL
1000

  0
LINE
  5
BE4
330
B96
100
AcDbEntity
  8
0
  6
Continuous
 62
     7
370
     5
100
AcDbLine
 10
2.56173664916605
 20
496.8331313301187
 30
0.0
 11
2.56173664916605
 21
496.4714188243324
 31
0.0
1001
PE_URL
1000

  0
LINE
  5
BE5
330
B96
100
AcDbEntity
  8
0
  6
Continuous
 62
     7
370
     5
100
AcDbLine
 10
2.56173664916605
 20
496.4714188243324
 30
0.0
 11
2.929432175382317
 21
496.6836849334086
 31
0.0
1001
PE_URL
1000

  0
LINE
  5
BE6
330
B96
100
AcDbEntity
  8
0
  6
Continuous
 62
     7
370
     5
100
AcDbLine
 10
2.929432175382317
 20
496.6836849334086
 30
0.0
 11
2.929432175382317
 21
497.0453974391949
 31
0.0
1001
PE_URL
1000

  0
ELLIPSE
  5
BE7
330
B96
100
AcDbEntity
  8
0
  6
Continuous
 62
     7
370
     5
100
AcDbEllipse
 10
3.214398987260211
 20
497.2050178978952
 30
0.0
 11
0.1999830001076646
 21
0.3464199758966799
 31
0.0
210
0.0
220
0.0
230
1.0
 40
0.5860215324410879
 41
0.7927407620487732
 42
2.348684405889077
1001
PE_URL
1000

  0
LINE
  5
BE8
330
B96
100
AcDbEntity
  8
0
  6
Continuous
 62
     7
370
     5
100
AcDbLine
 10
3.210166621169265
 20
497.5316437613019
 30
0.0
 11
3.523401871580063
 21
497.7124706223567
 31
0.0
1001
PE_URL
1000

  0
LINE
  5
BE9
330
B96
100
AcDbEntity
  8
0
  6
Continuous
 62
     7
370
     5
100
AcDbLine
 10
3.523401871580063
 20
497.7124706223567
 30
0.0
 11
3.523401871580063
 21
498.1370718445378
 31
0.0
1001
PE_URL
1000

  0
LINE
  5
BEA
330
B96
100
AcDbEntity
  8
0
  6
Continuous
 62
     7
370
     5
100
AcDbLine
 10
3.523401871580063
 20
498.1370718445378
 30
0.0
 11
3.210166621169265
 21
497.956244983483
 31
0.0
1001
PE_URL
1000

  0
ELLIPSE
  5
BEB
330
B96
100
AcDbEntity
  8
0
  6
Continuous
 62
     7
370
     5
100
AcDbEllipse
 10
3.214398987260211
 20
498.2877574327667
 30
0.0
 11
0.2029770344755093
 21
0.3516029848151163
 31
0.0
210
0.0
220
0.0
230
1.0
 40
0.5688689412912452
 41
2.363541920731201
 42
3.91948556459848
1001
PE_URL
1000

  0
LINE
  5
BEC
330
B96
100
AcDbEntity
  8
0
  6
Continuous
 62
     7
370
     5
100
AcDbLine
 10
2.929432175382317
 20
498.1183622137705
 30
0.0
 11
2.929432175382317
 21
498.4800747195568
 31
0.0
1001
PE_URL
1000

  0
ARC
  5
BED
330
B96
100
AcDbEntity
  8
0
  6
Continuous
 62
     7
370
     5
100
AcDbCircle
 10
2.300109453788536
 20
496.4915478098028
 30
0.0
 40
0.9266733093157966
100
AcDbArc
 50
243.531581898086
 51
303.9942420881243
1001
PE_URL
1000

  0
ARC
  5
BEE
330
B96
100
AcDbEntity
  8
0
  6
Continuous
 62
     7
370
     5
100
AcDbCircle
 10
3.299313526453261
 20
498.3163337126261
 30
0.0
 40
1.00058784251238
100
AcDbArc
 50
358.4481460826016
 51
54.03678299639997
1001
PE_URL
1000

  0
LINE
  5
BEF
330
B96
100
AcDbEntity
  8
0
  6
Continuous
 62
     7
370
     5
100
AcDbLine
 10
2.936070397478034
 20
498.0517026550424
 30
0.0
 11
2.56173664916605
 21
498.2678086104806
 31
0.0
1001
PE_URL
1000

  0
LINE
  5
BF0
330
B96
100
AcDbEntity
  8
0
  6
Continuous
 62
     7
370
     5
100
AcDbLine
 10
2.342185590207009
 20
497.0228679590164
 30
0.0
 11
1.967766952968304
 21
497.2390229215325
 31
0.0
1001
PE_URL
1000

  0
LWPOLYLINE
  5
BF1
330
B96
100
AcDbEntity
  8
0
  6
Continuous
 62
     7
370
     5
100
AcDbPolyline
 90
       19
 70
   128
 43
0.0
 10
15.04924240491709
 20
502.945415721033
 10
14.56555287962146
 20
502.7646745743859
 10
14.14020344957498
 20
502.802707223027
 10
13.82449753352739
 20
503.0549263682242
 10
13.65651392427753
 20
503.4909106587093
 10
13.65651392427753
 20
504.0580739546076
 10
13.82449753352739
 20
504.6880079919956
 10
14.14020344957498
 20
505.3047334291277
 10
14.56555287962146
 20
505.833864076385
 10
15.04924240491709
 20
506.2115789685759
 10
15.53293193021273
 20
506.3923201152193
 10
15.95828136026284
 20
506.3542874665818
 10
16.27398727631044
 20
506.1020683213846
 10
16.44197088555848
 20
505.6660840308996
 10
16.44197088555848
 20
505.0989207350012
 10
16.27398727631044
 20
504.4689866976132
 10
15.95828136026284
 20
503.8522612604811
 10
15.53293193021273
 20
503.3231306132238
 10
15.04924240491709
 20
502.945415721033
1001
PE_URL
1000

  0
LINE
  5
BF2
330
B96
100
AcDbEntity
  8
0
  6
Continuous
 62
     7
370
     5
100
AcDbLine
 10
15.23309016802705
 20
505.5828252924166
 30
0.0
 11
14.86539464181078
 21
505.3705591833404
 31
0.0
1001
PE_URL
1000

  0
LINE
  5
BF3
330
B96
100
AcDbEntity
  8
0
  6
Continuous
 62
     7
370
     5
100
AcDbLine
 10
14.86539464181078
 20
505.3705591833404
 30
0.0
 11
14.86539464181078
 21
505.0088466775542
 31
0.0
1001
PE_URL
1000

  0
ELLIPSE
  5
BF4
330
B96
100
AcDbEntity
  8
0
  6
Continuous
 62
     7
370
     5
100
AcDbEllipse
 10
14.58042782993107
 20
504.8492262188538
 30
0.0
 11
0.1999830001076645
 21
0.3464199758967652
 31
0.0
210
0.0
220
0.0
230
1.0
 40
0.5860215324410508
 41
3.934333415644895
 42
5.490277059489386
1001
PE_URL
1000

  0
LINE
  5
BF5
330
B96
100
AcDbEntity
  8
0
  6
Continuous
 62
     7
370
     5
100
AcDbLine
 10
14.58466019602383
 20
504.5226003554471
 30
0.0
 11
14.27142494561303
 21
504.3417734943923
 31
0.0
1001
PE_URL
1000

  0
LINE
  5
BF6
330
B96
100
AcDbEntity
  8
0
  6
Continuous
 62
     7
370
     5
100
AcDbLine
 10
14.27142494561303
 20
504.3417734943923
 30
0.0
 11
14.27142494561303
 21
503.9171722722112
 31
0.0
1001
PE_URL
1000

  0
LINE
  5
BF7
330
B96
100
AcDbEntity
  8
0
  6
Continuous
 62
     7
370
     5
100
AcDbLine
 10
14.27142494561303
 20
503.9171722722112
 30
0.0
 11
14.58466019602383
 21
504.0979991332661
 31
0.0
1001
PE_URL
1000

  0
ELLIPSE
  5
BF8
330
B96
100
AcDbEntity
  8
0
  6
Continuous
 62
     7
370
     5
100
AcDbEllipse
 10
14.58042782993107
 20
503.7664866839823
 30
0.0
 11
0.2029770344755093
 21
0.3516029848150879
 31
0.0
210
0.0
220
0.0
230
1.0
 40
0.5688689412912704
 41
5.505134574332113
 42
7.061078218181944
1001
PE_URL
1000

  0
LINE
  5
BF9
330
B96
100
AcDbEntity
  8
0
  6
Continuous
 62
     7
370
     5
100
AcDbLine
 10
14.86539464181078
 20
503.9358819029785
 30
0.0
 11
14.86539464181078
 21
503.5741693971922
 31
0.0
1001
PE_URL
1000

  0
LINE
  5
BFA
330
B96
100
AcDbEntity
  8
0
  6
Continuous
 62
     7
370
     5
100
AcDbLine
 10
14.86539464181078
 20
503.5741693971922
 30
0.0
 11
15.23309016802705
 21
503.7864355062648
 31
0.0
1001
PE_URL
1000

  0
LINE
  5
BFB
330
B96
100
AcDbEntity
  8
0
  6
Continuous
 62
     7
370
     5
100
AcDbLine
 10
15.23309016802705
 20
503.7864355062648
 30
0.0
 11
15.23309016802705
 21
504.148148012051
 31
0.0
1001
PE_URL
1000

  0
ELLIPSE
  5
BFC
330
B96
100
AcDbEntity
  8
0
  6
Continuous
 62
     7
370
     5
100
AcDbEllipse
 10
15.51805697990312
 20
504.307768470755
 30
0.0
 11
0.1999830001076361
 21
0.3464199758967653
 31
0.0
210
0.0
220
0.0
230
1.0
 40
0.5860215324411333
 41
0.7927407620422066
 42
2.348684405899593
1001
PE_URL
1000

  0
LINE
  5
BFD
330
B96
100
AcDbEntity
  8
0
  6
Continuous
 62
     7
370
     5
100
AcDbLine
 10
15.51382461381399
 20
504.6343943341617
 30
0.0
 11
15.82705986422297
 21
504.8152211952165
 31
0.0
1001
PE_URL
1000

  0
LINE
  5
BFE
330
B96
100
AcDbEntity
  8
0
  6
Continuous
 62
     7
370
     5
100
AcDbLine
 10
15.82705986422297
 20
504.8152211952165
 30
0.0
 11
15.82705986422297
 21
505.2398224173976
 31
0.0
1001
PE_URL
1000

  0
LINE
  5
BFF
330
B96
100
AcDbEntity
  8
0
  6
Continuous
 62
     7
370
     5
100
AcDbLine
 10
15.82705986422297
 20
505.2398224173976
 30
0.0
 11
15.51382461381399
 21
505.0589955563428
 31
0.0
1001
PE_URL
1000

  0
ELLIPSE
  5
C00
330
B96
100
AcDbEntity
  8
0
  6
Continuous
 62
     7
370
     5
100
AcDbEllipse
 10
15.51805697990312
 20
505.3905080056265
 30
0.0
 11
0.2029770344755093
 21
0.351602984815031
 31
0.0
210
0.0
220
0.0
230
1.0
 40
0.5688689412913394
 41
2.363541920759048
 42
3.919485564604952
1001
PE_URL
1000

  0
LINE
  5
C01
330
B96
100
AcDbEntity
  8
0
  6
Continuous
 62
     7
370
     5
100
AcDbLine
 10
15.23309016802705
 20
505.2211127866303
 30
0.0
 11
15.23309016802705
 21
505.5828252924166
 31
0.0
1001
PE_URL
1000

  0
ARC
  5
C02
330
B96
100
AcDbEntity
  8
0
  6
Continuous
 62
     7
370
     5
100
AcDbCircle
 10
14.60376744643327
 20
503.5942983826626
 30
0.0
 40
0.9266733093193324
100
AcDbArc
 50
243.5315818981612
 51
303.994242088474
1001
PE_URL
1000

  0
ARC
  5
C03
330
B96
100
AcDbEntity
  8
0
  6
Continuous
 62
     7
370
     5
100
AcDbCircle
 10
15.60297151909799
 20
505.4190842854823
 30
0.0
 40
1.000587842512095
100
AcDbArc
 50
358.4481460828095
 51
54.03678299642105
1001
PE_URL
1000

  0
LINE
  5
C04
330
B96
100
AcDbEntity
  8
0
  6
Continuous
 62
     7
370
     5
100
AcDbLine
 10
15.23972839012094
 20
505.1544532279022
 30
0.0
 11
14.86539464181078
 21
505.3705591833404
 31
0.0
1001
PE_URL
1000

  0
LINE
  5
C05
330
B96
100
AcDbEntity
  8
0
  6
Continuous
 62
     7
370
     5
100
AcDbLine
 10
14.64584358285174
 20
504.1256185318762
 30
0.0
 11
14.27142494561303
 21
504.3417734943923
 31
0.0
1001
PE_URL
1000

  0
ARC
  5
C06
330
B96
100
AcDbEntity
  8
0
  6
Continuous
 62
     7
370
     5
100
AcDbCircle
 10
17.87766952966376
 20
496.2215489600221
 30
0.0
 40
0.3074043815827758
100
AcDbArc
 50
62.60967223628575
 51
117.3903277629939
1001
PE_URL
1000

  0
ARC
  5
C07
330
B96
100
AcDbEntity
  8
0
  6
Continuous
 62
     7
370
     5
100
AcDbCircle
 10
17.71204766562914
 20
496.5084633474671
 30
0.0
 40
0.3073609615141767
100
AcDbArc
 50
302.6054783399345
 51
357.3945215145759
1001
PE_URL
1000

  0
ARC
  5
C08
330
B96
100
AcDbEntity
  8
0
  6
Continuous
 62
     7
370
     5
100
AcDbCircle
 10
18.0432913937002
 20
496.5084633474671
 30
0.0
 40
0.307360961514278
100
AcDbArc
 50
182.6054784854221
 51
237.3945216594901
1001
PE_URL
1000

  0
LINE
  5
C09
330
B96
100
AcDbEntity
  8
0
  6
Continuous
 62
     7
370
     5
100
AcDbLine
 10
17.73624817342716
 20
496.4944911770162
 30
0.0
 11
17.73624817342716
 21
527.1964257039199
 31
0.0
1001
PE_URL
1000

  0
ARC
  5
C0A
330
B96
100
AcDbEntity
  8
0
  6
Continuous
 62
     7
370
     5
100
AcDbCircle
 10
17.87766952966376
 20
526.9234834869294
 30
0.0
 40
0.3074043815820944
100
AcDbArc
 50
62.609672236361
 51
117.3903277629562
1001
PE_URL
1000

  0
LINE
  5
C0B
330
B96
100
AcDbEntity
  8
0
  6
Continuous
 62
     7
370
     5
100
AcDbLine
 10
18.01909088590219
 20
527.1964257039199
 30
0.0
 11
18.01909088590219
 21
496.4944911770162
 31
0.0
1001
PE_URL
1000

  0
LINE
  5
C0C
330
B96
100
AcDbEntity
  8
0
  6
Continuous
 62
     7
370
     5
100
AcDbLine
 10
17.07413291264857
 20
496.1122601729858
 30
0.0
 11
17.73624817342716
 21
496.4944911770162
 31
0.0
1001
PE_URL
1000

  0
LINE
  5
C0D
330
B96
100
AcDbEntity
  8
0
  6
Continuous
 62
     7
370
     5
100
AcDbLine
 10
17.87766952966376
 20
496.2495422034572
 30
0.0
 11
17.3119841047137
 21
495.9229789587243
 31
0.0
1001
PE_URL
1000

  0
SPLINE
  5
C0E
330
B96
100
AcDbEntity
  8
0
  6
Continuous
 62
     7
370
     5
100
AcDbSpline
210
0.0
220
0.0
230
1.0
 70
     8
 71
     3
 72
    12
 73
     8
 74
     0
 42
0.000000001
 43
0.00000001
 40
0.0
 40
0.0
 40
0.0
 40
0.0
 40
0.2935760330287652
 40
0.5706804492538711
 40
0.760395576382753
 40
0.9510629605766132
 40
1.0
 40
1.0
 40
1.0
 40
1.0
 10
17.07413291264857
 20
496.1122601729858
 30
0.0
 10
17.09003859574295
 20
496.0956783203928
 30
0.0
 10
17.12095754467737
 20
496.0634449701774
 30
0.0
 10
17.1856910270526
 20
496.0095128283701
 30
0.0
 10
17.24731253265963
 20
495.9638587058671
 30
0.0
 10
17.28802913319305
 20
495.9370316181139
 30
0.0
 10
17.30792130772898
 20
495.9253623095956
 30
0.0
 10
17.3119841047137
 20
495.9229789587243
 30
0.0
1001
PE_URL
1000

  0
ARC
  5
C0F
330
B96
100
AcDbEntity
  8
0
  6
Continuous
 62
     7
370
     5
100
AcDbCircle
 10
18.4898651249332
 20
496.0594388859663
 30
0.0
 40
0.3073609615144504
100
AcDbArc
 50
302.6054783398988
 51
357.3945215139004
1001
PE_URL
1000

  0
LINE
  5
C10
330
B96
100
AcDbEntity
  8
0
  6
Continuous
 62
     7
370
     5
100
AcDbLine
 10
18.65548698896964
 20
495.8005177419527
 30
0.0
 11
17.87766952966376
 21
496.2495422034572
 31
0.0
1001
PE_URL
1000

  0
LINE
  5
C11
330
B96
100
AcDbEntity
  8
0
  6
Continuous
 62
     7
370
     5
100
AcDbLine
 10
18.01909088590219
 20
496.4944911770162
 30
0.0
 11
18.79690834520625
 21
496.0454667155118
 31
0.0
1001
PE_URL
1000

  0
LWPOLYLINE
  5
C12
330
B96
100
AcDbEntity
  8
0
  6
Continuous
 62
     7
370
     5
100
AcDbPolyline
 90
       19
 70
   128
 43
0.0
 10
16.60487732352885
 20
505.4765462678097
 10
16.51106105857434
 20
506.0367887829834
 10
16.24092788984126
 20
506.4211398286261
 10
15.82705986422297
 20
506.5832409962113
 10
15.31937557364836
 20
506.5035404925711
 10
14.77910923618583
 20
506.1916513747001
 10
14.27142494561303
 20
505.6851920732061
 10
13.85755691999475
 20
505.0452490543921
 10
13.58742375126349
 20
504.3490088908784
 10
13.49360748630716
 20
503.6804484217992
 10
13.58742375126349
 20
503.1202059066254
 10
13.85755691999475
 20
502.7358548609827
 10
14.27142494561303
 20
502.5737536933975
 10
14.77910923618583
 20
502.6534541970377
 10
15.31937557365018
 20
502.9653433149088
 10
15.82705986422297
 20
503.4718026164028
 10
16.24092788984126
 20
504.1117456352167
 10
16.51106105857434
 20
504.8079857987304
 10
16.60487732352885
 20
505.4765462678097
1001
PE_URL
1000

  0
LWPOLYLINE
  5
C13
330
B96
100
AcDbEntity
  8
0
  6
Continuous
 62
     7
370
     5
100
AcDbPolyline
 90
       19
 70
   128
 43
0.0
 10
4.301219330882304
 20
498.3737956949499
 10
4.207403065925973
 20
498.9340382101273
 10
3.93726989719471
 20
499.3183892557663
 10
3.523401871576425
 20
499.4804904233515
 10
3.015717581003628
 20
499.4007899197113
 10
2.475451243541102
 20
499.0889008018403
 10
1.967766952966485
 20
498.5824415003462
 10
1.5538989273482
 20
497.9424984815323
 10
1.283765758616937
 20
497.2462583180222
 10
1.189949493660606
 20
496.5776978489394
 10
1.283765758616937
 20
496.0174553337656
 10
1.5538989273482
 20
495.6331042881266
 10
1.967766952966485
 20
495.4710031205414
 10
2.475451243541102
 20
495.5507036241779
 10
3.015717581003628
 20
495.8625927420489
 10
3.523401871576425
 20
496.3690520435466
 10
3.93726989719471
 20
497.0089950623606
 10
4.207403065925973
 20
497.7052352258706
 10
4.301219330882304
 20
498.3737956949499
1001
PE_URL
1000

  0
LWPOLYLINE
  5
C14
330
B96
100
AcDbEntity
  8
0
  6
Continuous
 62
     7
370
     5
100
AcDbPolyline
 90
        9
 70
   128
 43
0.0
 10
12.40690924085902
 20
504.6861925017274
 10
12.52570432047105
 20
504.7431657185825
 10
12.64112246472178
 20
504.7753079371887
 10
12.74988273289819
 20
504.781705464864
 10
12.84889344480143
 20
504.7621764419146
 10
12.93534006656591
 20
504.717276011268
 10
13.00676521818241
 20
504.6482805376672
 10
13.06113852834824
 20
504.5571513250306
 10
13.09691435094464
 20
504.4464788633177
1001
PE_URL
1000

  0
LINE
  5
C15
330
B96
100
AcDbEntity
  8
0
  6
Continuous
 62
     7
370
     5
100
AcDbLine
 10
12.40690924085902
 20
504.6861925017274
 30
0.0
 11
11.44299782086637
 21
504.1297382834291
 31
0.0
1001
PE_URL
1000

  0
ARC
  5
C16
330
B96
100
AcDbEntity
  8
0
  6
Continuous
 62
     7
370
     5
100
AcDbCircle
 10
13.92732578140931
 20
500.2459211232544
 30
0.0
 40
4.610414422716001
100
AcDbArc
 50
122.6054783400231
 51
177.3945215143519
1001
PE_URL
1000

  0
LINE
  5
C17
330
B96
100
AcDbEntity
  8
0
  6
Continuous
 62
     7
370
     5
100
AcDbLine
 10
9.321677477308185
 20
500.4555036800357
 30
0.0
 11
9.321677477308185
 21
498.4958057325148
 31
0.0
1001
PE_URL
1000

  0
LWPOLYLINE
  5
C18
330
B96
100
AcDbEntity
  8
0
  6
Continuous
 62
     7
370
     5
100
AcDbPolyline
 90
        9
 70
   128
 43
0.0
 10
9.321677477308185
 20
498.4958057325148
 10
9.289382298056807
 20
498.289676138038
 10
9.197413408595821
 20
498.0776406854729
 10
9.059772238639198
 20
497.8919798503612
 10
8.89741340859473
 20
497.7609588118339
 10
8.735054578550262
 20
497.7045243352968
 10
8.597413408593638
 20
497.7312680582199
 10
8.505444519132652
 20
497.8371184912266
 10
8.473149339883093
 20
498.005960865421
1001
PE_URL
1000

  0
LINE
  5
C19
330
B96
100
AcDbEntity
  8
0
  6
Continuous
 62
     7
370
     5
100
AcDbLine
 10
8.473149339883093
 20
498.005960865421
 30
0.0
 11
8.473149339883093
 21
499.9656588129419
 31
0.0
1001
PE_URL
1000

  0
ARC
  5
C1A
330
B96
100
AcDbEntity
  8
0
  6
Continuous
 62
     7
370
     5
100
AcDbCircle
 10
7.179926237602558
 20
500.1754404036456
 30
0.0
 40
1.310127592285462
100
AcDbArc
 50
350.7859630094677
 51
129.2032852356179
1001
PE_URL
1000

  0
LINE
  5
C1B
330
B96
100
AcDbEntity
  8
0
  6
Continuous
 62
     7
370
     5
100
AcDbLine
 10
6.351828996323093
 20
501.1906690808664
 30
0.0
 11
5.387917576332256
 21
500.6342148625645
 31
0.0
1001
PE_URL
1000

  0
ARC
  5
C1C
330
B96
100
AcDbEntity
  8
0
  6
Continuous
 62
     7
370
     5
100
AcDbCircle
 10
6.239536768905964
 20
499.3193324593103
 30
0.0
 40
1.566579389480796
100
AcDbArc
 50
122.9302050311024
 51
169.7595468855919
1001
PE_URL
1000

  0
ARC
  5
C1D
330
B96
100
AcDbEntity
  8
0
  6
Continuous
 62
     7
370
     5
100
AcDbCircle
 10
-51.17548660632929
 20
509.714334987917
 30
0.0
 40
56.78186532277844
100
AcDbArc
 50
336.0580318825264
 51
349.737151002812
1001
PE_URL
1000

  0
LINE
  5
C1E
330
B96
100
AcDbEntity
  8
0
  6
Continuous
 62
     7
370
     5
100
AcDbLine
 10
0.0585786437641218
 20
486.2893897792328
 30
0.0
 11
0.7206939045408944
 21
486.6716207832633
 31
0.0
1001
PE_URL
1000

  0
LINE
  5
C1F
330
B96
100
AcDbEntity
  8
0
  6
Continuous
 62
     7
370
     5
100
AcDbLine
 10
0.0585786437641218
 20
516.9913243061364
 30
0.0
 11
0.0585786437641218
 21
486.2893897792328
 31
0.0
1001
PE_URL
1000

  0
LINE
  5
C20
330
B96
100
AcDbEntity
  8
0
  6
Continuous
 62
     7
370
     5
100
AcDbLine
 10
1.331370849899031
 20
517.7260916067771
 30
0.0
 11
0.0585786437641218
 21
516.9913243061364
 31
0.0
1001
PE_URL
1000

  0
LINE
  5
C21
330
B96
100
AcDbEntity
  8
0
  6
Continuous
 62
     7
370
     5
100
AcDbLine
 10
1.331370849899031
 20
517.7260916067771
 30
0.0
 11
1.331370849899031
 21
515.4397773334949
 31
0.0
1001
PE_URL
1000

  0
LINE
  5
C22
330
B96
100
AcDbEntity
  8
0
  6
Continuous
 62
     7
370
     5
100
AcDbLine
 10
1.331370849899031
 20
515.4397773334949
 30
0.0
 11
2.462741699797334
 21
516.0929038229533
 31
0.0
1001
PE_URL
1000

  0
ARC
  5
C23
330
B96
100
AcDbEntity
  8
0
  6
Continuous
 62
     7
370
     5
100
AcDbCircle
 10
2.517948182548935
 20
516.0252219111408
 30
0.0
 40
0.0873418394857013
100
AcDbArc
 50
350.7859630083365
 51
129.203285236135
1001
PE_URL
1000

  0
LINE
  5
C24
330
B96
100
AcDbEntity
  8
0
  6
Continuous
 62
     7
370
     5
100
AcDbLine
 10
2.60416305603394
 20
516.0112364717588
 30
0.0
 11
2.60416305603394
 21
510.5909616207919
 31
0.0
1001
PE_URL
1000

  0
LINE
  5
C25
330
B96
100
AcDbEntity
  8
0
  6
Continuous
 62
     7
370
     5
100
AcDbLine
 10
2.60416305603394
 20
510.5909616207919
 30
0.0
 11
5.264318287096103
 21
512.1266365479223
 31
0.0
1001
PE_URL
1000

  0
ELLIPSE
  5
C26
330
B96
100
AcDbEntity
  8
0
  6
Continuous
 62
     7
370
     5
100
AcDbEllipse
 10
5.264145934444969
 20
511.9631293449183
 30
0.0
 11
0.1001137647703843
 21
0.1734208491336062
 31
0.0
210
0.0
220
0.0
230
1.0
 40
0.5766787367376153
 41
5.498315064882726
 42
7.067893416475341
1001
PE_URL
1000

  0
LINE
  5
C27
330
B96
100
AcDbEntity
  8
0
  6
Continuous
 62
     7
370
     5
100
AcDbLine
 10
5.405653493264253
 20
512.0450189462699
 30
0.0
 11
5.405653493264253
 21
509.9530188449698
 31
0.0
1001
PE_URL
1000

  0
LINE
  5
C28
330
B96
100
AcDbEntity
  8
0
  6
Continuous
 62
     7
370
     5
100
AcDbLine
 10
5.405653493264253
 20
509.9530188449698
 30
0.0
 11
12.38917332392703
 21
513.9845190303186
 31
0.0
1001
PE_URL
1000

  0
LINE
  5
C29
330
B96
100
AcDbEntity
  8
0
  6
Continuous
 62
     7
370
     5
100
AcDbLine
 10
12.38917332392703
 20
513.9845190303186
 30
0.0
 11
12.38917332392703
 21
516.0765191316186
 31
0.0
1001
PE_URL
1000

  0
ELLIPSE
  5
C2A
330
B96
100
AcDbEntity
  8
0
  6
Continuous
 62
     7
370
     5
100
AcDbEllipse
 10
12.53068088274449
 20
516.158010680012
 30
0.0
 11
0.09999184349462099
 21
0.1732097896633036
 31
0.0
210
0.0
220
0.0
230
1.0
 40
0.5780852101870841
 41
0.7859256885180679
 42
2.35550404014778
1001
PE_URL
1000

  0
LINE
  5
C2B
330
B96
100
AcDbEntity
  8
0
  6
Continuous
 62
     7
370
     5
100
AcDbLine
 10
12.53050853009518
 20
516.3213188888822
 30
0.0
 11
15.19066376115552
 21
517.8569938160126
 31
0.0
1001
PE_URL
1000

  0
LINE
  5
C2C
330
B96
100
AcDbEntity
  8
0
  6
Continuous
 62
     7
370
     5
100
AcDbLine
 10
15.19066376115552
 20
517.8569938160126
 30
0.0
 11
15.19066376115552
 21
523.2772686669796
 31
0.0
1001
PE_URL
1000

  0
ARC
  5
C2D
330
B96
100
AcDbEntity
  8
0
  6
Continuous
 62
     7
370
     5
100
AcDbCircle
 10
15.49770698142856
 20
523.2632964965287
 30
0.0
 40
0.3073609615145069
100
AcDbArc
 50
122.6054783399345
 51
177.3945215145798
1001
PE_URL
1000

  0
LINE
  5
C2E
330
B96
100
AcDbEntity
  8
0
  6
Continuous
 62
     7
370
     5
100
AcDbLine
 10
15.33208511739213
 20
523.5222176405423
 30
0.0
 11
16.46345596729043
 21
524.175344129997
 31
0.0
1001
PE_URL
1000

  0
LINE
  5
C2F
330
B96
100
AcDbEntity
  8
0
  6
Continuous
 62
     7
370
     5
100
AcDbLine
 10
16.46345596729043
 20
524.175344129997
 30
0.0
 11
16.46345596729043
 21
526.4616584032792
 31
0.0
1001
PE_URL
1000

  0
LINE
  5
C30
330
B96
100
AcDbEntity
  8
0
  6
Continuous
 62
     7
370
     5
100
AcDbLine
 10
17.73624817342716
 20
527.1964257039199
 30
0.0
 11
16.46345596729043
 21
526.4616584032792
 31
0.0
1001
PE_URL
1000

  0
ARC
  5
C31
330
B96
100
AcDbEntity
  8
0
  6
Continuous
 62
     7
370
     5
100
AcDbCircle
 10
31.08266353162071
 20
507.9134530606843
 30
0.0
 40
18.31685245000903
100
AcDbArc
 50
190.9106425523157
 51
220.1117595593439
1001
PE_URL
1000

  0
LINE
  5
C32
330
B96
100
AcDbEntity
  8
0
  6
Continuous
 62
     7
370
     5
100
AcDbLine
 10
18.79690834520625
 20
496.0454667155118
 30
0.0
 11
18.79690834520625
 21
526.7474012424154
 31
0.0
1001
PE_URL
1000

  0
LINE
  5
C33
330
B96
100
AcDbEntity
  8
0
  6
Continuous
 62
     7
370
     5
100
AcDbLine
 10
18.79690834520625
 20
526.7474012424154
 30
0.0
 11
18.01909088590219
 21
527.1964257039199
 31
0.0
1001
PE_URL
1000

  0
LINE
  5
C34
330
B96
100
AcDbEntity
  8
0
  6
Continuous
 62
     7
370
     5
100
AcDbLine
 10
18.79690834520625
 20
495.7188769307704
 30
0.0
 11
18.65548698896964
 21
495.8005177419527
 31
0.0
1001
PE_URL
1000

  0
LINE
  5
C35
330
B96
100
AcDbEntity
  8
0
  6
Continuous
 62
     7
370
     5
100
AcDbLine
 10
18.79690834520625
 20
495.7188769307704
 30
0.0
 11
18.23122292025619
 21
495.3923136860412
 31
0.0
1001
PE_URL
1000

  0
LINE
  5
C36
330
B96
100
AcDbEntity
  8
0
  6
Continuous
 62
     7
370
     5
100
AcDbLine
 10
18.23122292025619
 20
495.3923136860412
 30
0.0
 11
17.3119841047137
 21
495.9229789587243
 31
0.0
1001
PE_URL
1000

  0
LINE
  5
C37
330
B96
100
AcDbEntity
  8
0
  6
Continuous
 62
     7
370
     5
100
AcDbLine
 10
18.79690834520625
 20
495.7188769307704
 30
0.0
 11
18.79690834520625
 21
496.0454667155118
 31
0.0
1001
PE_URL
1000

  0
LINE
  5
C38
330
B96
100
AcDbEntity
  8
0
  6
Continuous
 62
     7
370
     5
100
AcDbLine
 10
18.79690834520625
 20
526.7474012424154
 30
0.0
 11
18.79690834520625
 21
526.7474277824276
 31
0.0
1001
PE_URL
1000

  0
LINE
  5
C39
330
B96
100
AcDbEntity
  8
0
  6
Continuous
 62
     7
370
     5
100
AcDbLine
 10
1.684924240495093
 20
485.8403387777162
 30
0.0
 11
0.7656854249526077
 21
486.3710040504029
 31
0.0
1001
PE_URL
1000

  0
SPLINE
  5
C3A
330
B96
100
AcDbEntity
  8
0
  6
Continuous
 62
     7
370
     5
100
AcDbSpline
210
0.0
220
0.0
230
1.0
 70
     8
 71
     3
 72
    12
 73
     8
 74
     0
 42
0.000000001
 43
0.00000001
 40
0.0
 40
0.0
 40
0.0
 40
0.0
 40
0.1692436807762024
 40
0.3380318917986933
 40
0.517958565672525
 40
0.728131191903236
 40
1.0
 40
1.0
 40
1.0
 40
1.0
 10
0.7656854249526077
 20
486.3710040504029
 30
0.0
 10
0.7526299749133614
 20
486.3808944998909
 30
0.0
 10
0.7265542097538855
 20
486.4006487816278
 30
0.0
 10
0.7017516449304821
 20
486.4506460616813
 30
0.0
 10
0.6893899685037468
 20
486.5117300902839
 30
0.0
 10
0.6916339556519233
 20
486.5891673118513
 30
0.0
 10
0.7102145487460803
 20
486.641887101805
 30
0.0
 10
0.7206939045408944
 20
486.6716207832633
 30
0.0
1001
PE_URL
1000

  0
LINE
  5
C3B
330
B96
100
AcDbEntity
  8
0
  6
Continuous
 62
     7
370
     5
100
AcDbLine
 10
5.758572638025726
 20
498.9855321976302
 30
0.0
 11
4.697912466244816
 21
499.5978382814956
 31
0.0
1001
PE_URL
1000

  0
ARC
  5
C3C
330
B96
100
AcDbEntity
  8
0
  6
Continuous
 62
     7
370
     5
100
AcDbCircle
 10
-50.23367725595381
 20
509.1335288178871
 30
0.0
 40
56.90442762733388
100
AcDbArc
 50
335.836694069666
 51
349.7272624848466
1001
PE_URL
1000

  0
LINE
  5
C3D
330
B96
100
AcDbEntity
  8
0
  6
Continuous
 62
     7
370
     5
100
AcDbLine
 10
10.38233764908546
 20
499.8431975961703
 30
0.0
 11
9.321677477308185
 21
500.4555036800357
 31
0.0
1001
PE_URL
1000

  0
LINE
  5
C3E
330
B96
100
AcDbEntity
  8
0
  6
Continuous
 62
     7
370
     5
100
AcDbLine
 10
12.50365799264728
 20
503.5174321995601
 30
0.0
 11
11.44299782086637
 21
504.1297382834291
 31
0.0
1001
PE_URL
1000

  0
ARC
  5
C3F
330
B96
100
AcDbEntity
  8
0
  6
Continuous
 62
     7
370
     5
100
AcDbCircle
 10
14.9879859531884
 20
499.633615039389
 30
0.0
 40
4.610414422715947
100
AcDbArc
 50
122.6054783400231
 51
177.3945215143519
1001
PE_URL
1000

  0
LINE
  5
C40
330
B96
100
AcDbEntity
  8
0
  6
Continuous
 62
     7
370
     5
100
AcDbLine
 10
10.38233764908546
 20
497.8834996486457
 30
0.0
 11
9.321677477308185
 21
498.4958057325148
 31
0.0
1001
PE_URL
1000

  0
LWPOLYLINE
  5
C41
330
B96
100
AcDbEntity
  8
0
  6
Continuous
 62
     7
370
     5
100
AcDbPolyline
 90
        7
 70
   128
 43
0.0
 10
9.6580979605842
 20
497.1189478976721
 10
9.795714750331172
 20
497.0922182514314
 10
9.95807358037382
 20
497.1486527279685
 10
10.12043241041829
 20
497.2796737664958
 10
10.25807358037491
 20
497.4653346016039
 10
10.35004246983772
 20
497.6773700541726
 10
10.38233764908546
 20
497.8834996486457
1001
PE_URL
1000

  0
LINE
  5
C42
330
B96
100
AcDbEntity
  8
0
  6
Continuous
 62
     7
370
     5
100
AcDbLine
 10
12.50365799264728
 20
503.5174321995601
 30
0.0
 11
13.21588830287692
 21
503.9285940058307
 31
0.0
1001
PE_URL
1000

  0
LINE
  5
C43
330
B96
100
AcDbEntity
  8
0
  6
Continuous
 62
     7
370
     5
100
AcDbLine
 10
0.7656854249526077
 20
486.3710040504029
 30
0.0
 11
0.2000000000007276
 21
486.0444408056701
 31
0.0
1001
PE_URL
1000

  0
ARC
  5
C44
330
B96
100
AcDbEntity
  8
0
  6
Continuous
 62
     7
370
     5
100
AcDbCircle
 10
0.3656218640371662
 20
486.3033619496837
 30
0.0
 40
0.3073609615146143
100
AcDbArc
 50
182.6054784850795
 51
237.3945216594186
1001
PE_URL
1000

  0
LINE
  5
C45
330
B96
100
AcDbEntity
  8
0
  6
Continuous
 62
     7
370
     5
100
AcDbLine
 10
7.412489168104003
 20
500.5783629969974
 30
0.0
 11
6.351828996323093
 21
501.1906690808664
 31
0.0
1001
PE_URL
1000

  0
ARC
  5
C46
330
B96
100
AcDbEntity
  8
0
  6
Continuous
 62
     7
370
     5
100
AcDbCircle
 10
8.428369769988421
 20
498.9590006501439
 30
0.0
 40
1.911634852081371
100
AcDbArc
 50
94.2956406839724
 51
122.1014349615677
1001
PE_URL
1000

  0
LINE
  5
C47
330
B96
100
AcDbEntity
  8
0
  6
Continuous
 62
     7
370
     5
100
AcDbLine
 10
0.9778174593066069
 20
485.5954163441693
 30
0.0
 11
1.119238815543213
 21
485.513775532987
 31
0.0
1001
PE_URL
1000

  0
LINE
  5
C48
330
B96
100
AcDbEntity
  8
0
  6
Continuous
 62
     7
370
     5
100
AcDbLine
 10
0.2000000000007276
 20
486.0444408056701
 30
0.0
 11
0.9778174593066069
 21
485.5954163441693
 31
0.0
1001
PE_URL
1000

  0
LINE
  5
C49
330
B96
100
AcDbEntity
  8
0
  6
Continuous
 62
     7
370
     5
100
AcDbLine
 10
1.684924240495093
 20
485.8403387777162
 30
0.0
 11
1.119238815543213
 21
485.513775532987
 31
0.0
1001
PE_URL
1000

  0
ARC
  5
C4A
330
B96
100
AcDbEntity
  8
0
  6
Continuous
 62
     7
370
     5
100
AcDbCircle
 10
0.9192334483359446
 20
485.6771926099918
 30
0.0
 40
0.1005954471805212
100
AcDbArc
 50
245.6928809528066
 51
305.617577476366
1001
PE_URL
1000

  0
LINE
  5
C4B
330
B96
100
AcDbEntity
  8
0
  6
Continuous
 62
     7
370
     5
100
AcDbLine
 10
5.387917576332256
 20
500.6342148625645
 30
0.0
 11
6.448577748111347
 21
500.0219087786991
 31
0.0
1001
PE_URL
1000

  0
LINE
  5
C4C
330
B96
100
AcDbEntity
  8
0
  6
Continuous
 62
     7
370
     5
100
AcDbLine
 10
6.448577748111347
 20
500.0219087786991
 30
0.0
 11
7.412489168104003
 21
500.5783629969974
 31
0.0
1001
PE_URL
1000

  0
ARC
  5
C4D
330
B96
100
AcDbEntity
  8
0
  6
Continuous
 62
     7
370
     5
100
AcDbCircle
 10
7.300196940685055
 20
498.7070263754449
 30
0.0
 40
1.566579389480834
100
AcDbArc
 50
122.9302050311024
 51
169.7595468855919
1001
PE_URL
1000

  0
ARC
  5
C4E
330
B96
100
AcDbEntity
  8
0
  6
Continuous
 62
     7
370
     5
100
AcDbCircle
 10
16.55859307857281
 20
526.4737712089536
 30
0.0
 40
0.0959051093751204
100
AcDbArc
 50
124.0563508655465
 51
187.2558295268826
1001
PE_URL
1000

  0
ARC
  5
C4F
330
B96
100
AcDbEntity
  8
0
  6
Continuous
 62
     7
370
     5
100
AcDbCircle
 10
18.69890796463915
 20
526.7582185898445
 30
0.0
 40
0.0985955860926724
100
AcDbArc
 50
353.7011525115767
 51
54.98666709382896
1001
PE_URL
1000

  0
LINE
  5
C50
330
B96
100
AcDbEntity
  8
0
  6
Continuous
 62
     7
370
     5
100
AcDbLine
 10
3.66482322781485
 20
515.3989303878934
 30
0.0
 11
2.60416305603394
 21
516.0112364717588
 31
0.0
1001
PE_URL
1000

  0
LINE
  5
C51
330
B96
100
AcDbEntity
  8
0
  6
Continuous
 62
     7
370
     5
100
AcDbLine
 10
3.66482322781485
 20
515.3989303878934
 30
0.0
 11
3.66482322781485
 21
511.2032677046573
 31
0.0
1001
PE_URL
1000

  0
ARC
  5
C52
330
B96
100
AcDbEntity
  8
0
  6
Continuous
 62
     7
370
     5
100
AcDbCircle
 10
3.566822847313233
 20
515.409747735348
 30
0.0
 40
0.0985955860283339
100
AcDbArc
 50
353.7011524925617
 51
54.9866671158756
1001
PE_URL
1000

  0
ARC
  5
C53
330
B96
100
AcDbEntity
  8
0
  6
Continuous
 62
     7
370
     5
100
AcDbCircle
 10
1.417585723384036
 20
517.7400770461554
 30
0.0
 40
0.0873418394857182
100
AcDbArc
 50
50.79671476398063
 51
189.2140369880344
1001
PE_URL
1000

  0
LINE
  5
C54
330
B96
100
AcDbEntity
  8
0
  6
Continuous
 62
     7
370
     5
100
AcDbLine
 10
2.392031021679941
 20
517.2770936852849
 30
0.0
 11
1.472792206137456
 21
517.8077589579716
 31
0.0
1001
PE_URL
1000

  0
LINE
  5
C55
330
B96
100
AcDbEntity
  8
0
  6
Continuous
 62
     7
370
     5
100
AcDbLine
 10
8.473149339883093
 20
499.1625571270288
 30
0.0
 11
6.716562536301353
 21
500.1766131039458
 31
0.0
1001
PE_URL
1000

  0
LINE
  5
C56
330
B96
100
AcDbEntity
  8
0
  6
Continuous
 62
     7
370
     5
100
AcDbLine
 10
8.460573797723555
 20
500.2247350504458
 30
0.0
 11
7.642787633491025
 21
500.6968329541687
 31
0.0
1001
PE_URL
1000

  0
LINE
  5
C57
330
B96
100
AcDbEntity
  8
0
  6
Continuous
 62
     7
370
     5
100
AcDbLine
 10
8.191237593448022
 20
511.5611023169895
 30
0.0
 11
3.66482322781485
 21
514.1741457100743
 31
0.0
1001
PE_URL
1000

  0
LINE
  5
C58
330
B96
100
AcDbEntity
  8
0
  6
Continuous
 62
     7
370
     5
100
AcDbLine
 10
3.66482322781485
 20
514.5007354948193
 30
0.0
 11
8.474103292739528
 21
511.7243972093584
 31
0.0
1001
PE_URL
1000

  0
LINE
  5
C59
330
B96
100
AcDbEntity
  8
0
  6
Continuous
 62
     7
370
     5
100
AcDbLine
 10
9.252047179530564
 20
512.1734946558954
 30
0.0
 11
3.66482322781485
 21
515.3989303878934
 31
0.0
1001
PE_URL
1000

  0
LINE
  5
C5A
330
B96
100
AcDbEntity
  8
0
  6
Continuous
 62
     7
370
     5
100
AcDbLine
 10
12.23358853252284
 20
503.3415911655266
 30
0.0
 11
13.59061431682312
 21
502.5581968552669
 31
0.0
1001
PE_URL
1000

  0
LINE
  5
C5B
330
B96
100
AcDbEntity
  8
0
  6
Continuous
 62
     7
370
     5
100
AcDbLine
 10
14.55399849521564
 20
500.0243841373576
 30
0.0
 11
11.06547520923232
 21
502.0382657636783
 31
0.0
1001
PE_URL
1000

  0
LINE
  5
C5C
330
B96
100
AcDbEntity
  8
0
  6
Continuous
 62
     7
370
     5
100
AcDbLine
 10
3.210166621169265
 20
497.956244983483
 30
0.0
 11
3.497483437757182
 21
497.6975082289955
 31
0.0
1001
PE_URL
1000

  0
LINE
  5
C5D
330
B96
100
AcDbEntity
  8
0
  6
Continuous
 62
     7
370
     5
100
AcDbLine
 10
2.929432175382317
 20
496.7137240652537
 30
0.0
 11
2.56173664916605
 21
496.8331313301187
 31
0.0
1001
PE_URL
1000

  0
LINE
  5
C5E
330
B96
100
AcDbEntity
  8
0
  6
Continuous
 62
     7
370
     5
100
AcDbLine
 10
2.929432190836451
 20
497.0455058111784
 30
0.0
 11
2.281002203379103
 21
497.4198497825873
 31
0.0
1001
PE_URL
1000

  0
LINE
  5
C5F
330
B96
100
AcDbEntity
  8
0
  6
Continuous
 62
     7
370
     5
100
AcDbLine
 10
2.56173664916605
 20
497.906096104698
 30
0.0
 11
3.21026049028842
 21
497.5316979507934
 31
0.0
1001
PE_URL
1000

  0
LINE
  5
C60
330
B96
100
AcDbEntity
  8
0
  6
Continuous
 62
     7
370
     5
100
AcDbLine
 10
15.51382461381399
 20
505.0589955563428
 30
0.0
 11
15.80114143040191
 21
504.8002588018553
 31
0.0
1001
PE_URL
1000

  0
LINE
  5
C61
330
B96
100
AcDbEntity
  8
0
  6
Continuous
 62
     7
370
     5
100
AcDbLine
 10
15.23309016802705
 20
503.8164746381099
 30
0.0
 11
14.86539464181078
 21
503.9358819029785
 31
0.0
1001
PE_URL
1000

  0
LINE
  5
C62
330
B96
100
AcDbEntity
  8
0
  6
Continuous
 62
     7
370
     5
100
AcDbLine
 10
15.23309018348118
 20
504.1482563840345
 30
0.0
 11
14.58466019602383
 21
504.5226003554471
 31
0.0
1001
PE_URL
1000

  0
LINE
  5
C63
330
B96
100
AcDbEntity
  8
0
  6
Continuous
 62
     7
370
     5
100
AcDbLine
 10
14.86539464181078
 20
505.0088466775542
 30
0.0
 11
15.51391848293315
 21
504.6344485236532
 31
0.0
1001
PE_URL
1000

  0
LINE
  5
C64
330
B96
100
AcDbEntity
  8
0
  6
Continuous
 62
     7
370
     5
100
AcDbLine
 10
13.13738291290974
 20
504.2644990268509
 30
0.0
 11
12.40690924085902
 21
504.6861925017274
 31
0.0
1001
PE_URL
1000

  0
ARC
  5
C65
330
B96
100
AcDbEntity
  8
0
  6
Continuous
 62
     7
370
     5
100
AcDbCircle
 10
0.1414159890300652
 20
486.1262170714963
 30
0.0
 40
0.1005954471801243
100
AcDbArc
 50
245.6928809535148
 51
305.6175774760501
1001
PE_URL
1000

  0
ARC
  5
C66
330
B96
100
AcDbEntity
  8
0
  6
Continuous
 62
     7
370
     5
100
AcDbCircle
 10
0.1000914124979317
 20
486.1977676926708
 30
0.0
 40
0.100587855698629
100
AcDbArc
 50
114.3746582932506
 51
174.3052007488762
1001
PE_URL
1000

  0
ARC
  5
C67
330
B96
100
AcDbEntity
  8
0
  6
Continuous
 62
     7
370
     5
100
AcDbCircle
 10
0.1000914124979317
 20
516.8997022195745
 30
0.0
 40
0.1005878556988072
100
AcDbArc
 50
114.3746582916433
 51
174.3052007478452
1001
PE_URL
1000

  0
ARC
  5
C68
330
B96
100
AcDbEntity
  8
0
  6
Continuous
 62
     7
370
     5
100
AcDbCircle
 10
17.83138528440577
 20
527.2085385097325
 30
0.0
 40
0.0959051090913412
100
AcDbArc
 50
124.0563507622316
 51
187.2558296328095
1001
PE_URL
1000

  0
ARC
  5
C69
330
B96
100
AcDbEntity
  8
0
  6
Continuous
 62
     7
370
     5
100
AcDbCircle
 10
17.92109050533145
 20
527.2072430513454
 30
0.0
 40
0.0985955860926887
100
AcDbArc
 50
353.701152513707
 51
54.98666709382896
1001
PE_URL
1000

  0
LINE
  5
C6A
330
B96
100
AcDbEntity
  8
0
  6
Continuous
 62
     7
370
     5
100
AcDbLine
 10
7.095288414046081
 20
510.9284243226484
 30
0.0
 11
5.405653493264253
 21
512.0450189462699
 31
0.0
1001
PE_URL
1000

  0
ARC
  5
C6B
330
B96
100
AcDbEntity
  8
0
  6
Continuous
 62
     7
370
     5
100
AcDbCircle
 10
0.1537157550446864
 20
517.0034371118109
 30
0.0
 40
0.0959051093750886
100
AcDbArc
 50
124.0563508655465
 51
187.2558295268826
1001
PE_URL
1000

  0
LINE
  5
C6C
330
B96
100
AcDbEntity
  8
0
  6
Continuous
 62
     7
370
     5
100
AcDbLine
 10
219.6688119729861
 20
375.8823432909976
 30
0.0
 11
429.6795259853898
 21
254.6457386853235
 31
0.0
1001
PE_URL
1000

  0
LINE
  5
C6D
330
B96
100
AcDbEntity
  8
0
  6
Continuous
 62
     7
370
     5
100
AcDbLine
 10
438.9597577262484
 20
284.355859382269
 30
0.0
 11
228.9490437138465
 21
405.5924639879395
 31
0.0
1001
PE_URL
1000

  0
LINE
  5
C6E
330
B96
100
AcDbEntity
  8
0
  6
Continuous
 62
     7
370
     5
100
AcDbLine
 10
438.9597577262484
 20
253.3273085306082
 30
0.0
 11
228.9490437138465
 21
374.5639131362823
 31
0.0
1001
PE_URL
1000

  0
LINE
  5
C6F
330
B96
100
AcDbEntity
  8
0
  6
Continuous
 62
     7
370
     5
100
AcDbLine
 10
438.2526509450636
 20
252.9191044747004
 30
0.0
 11
228.2419369326617
 21
374.1557090803708
 31
0.0
1001
PE_URL
1000

  0
LINE
  5
C70
330
B96
100
AcDbEntity
  8
0
  6
Continuous
 62
     7
370
     5
100
AcDbLine
 10
421.706352265297
 20
243.3671295663717
 30
0.0
 11
211.6956382528933
 21
364.6037341720457
 31
0.0
1001
PE_URL
1000

  0
LINE
  5
C71
330
B96
100
AcDbEntity
  8
0
  6
Continuous
 62
     7
370
     5
100
AcDbLine
 10
420.9992454841104
 20
242.9589255104602
 30
0.0
 11
210.9885314717085
 21
364.1955301161343
 31
0.0
1001
PE_URL
1000

  0
LINE
  5
C72
330
B96
100
AcDbEntity
  8
0
  6
Continuous
 62
     7
370
     5
100
AcDbLine
 10
220.3930516614873
 20
376.6468950419712
 30
0.0
 11
430.4037656738928
 21
255.4102904363008
 31
0.0
1001
PE_URL
1000

  0
LINE
  5
C73
330
B96
100
AcDbEntity
  8
0
  6
Continuous
 62
     7
370
     5
100
AcDbLine
 10
429.9795016051812
 20
254.6754435156236
 30
0.0
 11
219.9687875927757
 21
375.912048121294
 31
0.0
1001
PE_URL
1000

  0
LINE
  5
C74
330
B96
100
AcDbEntity
  8
0
  6
Continuous
 62
     7
370
     5
100
AcDbLine
 10
429.679525985388
 20
254.6457386853272
 30
0.0
 11
639.6902399977917
 21
133.4091340796531
 31
0.0
1001
PE_URL
1000

  0
LINE
  5
C75
330
B96
100
AcDbEntity
  8
0
  6
Continuous
 62
     7
370
     5
100
AcDbLine
 10
648.9704717386503
 20
163.1192547765986
 30
0.0
 11
438.9597577262484
 21
284.355859382269
 31
0.0
1001
PE_URL
1000

  0
LINE
  5
C76
330
B96
100
AcDbEntity
  8
0
  6
Continuous
 62
     7
370
     5
100
AcDbLine
 10
648.9704717386503
 20
132.0907039249378
 30
0.0
 11
438.9597577262484
 21
253.3273085306118
 31
0.0
1001
PE_URL
1000

  0
LINE
  5
C77
330
B96
100
AcDbEntity
  8
0
  6
Continuous
 62
     7
370
     5
100
AcDbLine
 10
648.2633649574655
 20
131.6824998690299
 30
0.0
 11
438.2526509450636
 21
252.9191044747004
 31
0.0
1001
PE_URL
1000

  0
LINE
  5
C78
330
B96
100
AcDbEntity
  8
0
  6
Continuous
 62
     7
370
     5
100
AcDbLine
 10
631.7170662776989
 20
122.1305249607012
 30
0.0
 11
421.7063522652952
 21
243.3671295663753
 31
0.0
1001
PE_URL
1000

  0
LINE
  5
C79
330
B96
100
AcDbEntity
  8
0
  6
Continuous
 62
     7
370
     5
100
AcDbLine
 10
631.0099594965122
 20
121.7223209047897
 30
0.0
 11
420.9992454841104
 21
242.9589255104638
 31
0.0
1001
PE_URL
1000

  0
LINE
  5
C7A
330
B96
100
AcDbEntity
  8
0
  6
Continuous
 62
     7
370
     5
100
AcDbLine
 10
430.4037656738892
 20
255.4102904363008
 30
0.0
 11
640.4144796862947
 21
134.1736858306303
 31
0.0
1001
PE_URL
1000

  0
LINE
  5
C7B
330
B96
100
AcDbEntity
  8
0
  6
Continuous
 62
     7
370
     5
100
AcDbLine
 10
639.9902156175831
 20
133.4388389099531
 30
0.0
 11
429.9795016051776
 21
254.6754435156236
 31
0.0
1001
PE_URL
1000

  0
LINE
  5
C7C
330
B96
100
AcDbEntity
  8
0
  6
Continuous
 62
     7
370
     5
100
AcDbLine
 10
639.6902399977898
 20
133.4091340796567
 30
0.0
 11
849.7009540101935
 21
12.17252947398265
 31
0.0
1001
PE_URL
1000

  0
LINE
  5
C7D
330
B96
100
AcDbEntity
  8
0
  6
Continuous
 62
     7
370
     5
100
AcDbLine
 10
858.9811857510522
 20
41.88265017092817
 30
0.0
 11
648.9704717386503
 21
163.1192547765986
 31
0.0
1001
PE_URL
1000

  0
LINE
  5
C7E
330
B96
100
AcDbEntity
  8
0
  6
Continuous
 62
     7
370
     5
100
AcDbLine
 10
858.9811857510522
 20
10.85409931926733
 30
0.0
 11
648.9704717386503
 21
132.0907039249414
 31
0.0
1001
PE_URL
1000

  0
LINE
  5
C7F
330
B96
100
AcDbEntity
  8
0
  6
Continuous
 62
     7
370
     5
100
AcDbLine
 10
858.9811857510522
 20
10.85409931926733
 30
0.0
 11
858.2740789698673
 21
10.44589526335949
 31
0.0
1001
PE_URL
1000

  0
LINE
  5
C80
330
B96
100
AcDbEntity
  8
0
  6
Continuous
 62
     7
370
     5
100
AcDbLine
 10
858.2740789698673
 20
10.44589526335949
 30
0.0
 11
648.2633649574655
 21
131.6824998690299
 31
0.0
1001
PE_URL
1000

  0
ARC
  5
C81
330
B96
100
AcDbEntity
  8
0
  6
Continuous
 62
     7
370
     5
100
AcDbCircle
 10
790.3069891186624
 20
24.02390015616584
 30
0.0
 40
56.3834526283863
100
AcDbArc
 50
335.780943415865
 51
350.1611132572258
1001
PE_URL
1000

  0
LINE
  5
C82
330
B96
100
AcDbEntity
  8
0
  6
Continuous
 62
     7
370
     5
100
AcDbLine
 10
841.7277802901008
 20
0.8939203550307866
 30
0.0
 11
631.7170662776971
 21
122.1305249607049
 31
0.0
1001
PE_URL
1000

  0
LINE
  5
C83
330
B96
100
AcDbEntity
  8
0
  6
Continuous
 62
     7
370
     5
100
AcDbLine
 10
841.0206735089141
 20
0.4857162991193036
 30
0.0
 11
841.7277802901008
 21
0.8939203550307866
 31
0.0
1001
PE_URL
1000

  0
LINE
  5
C84
330
B96
100
AcDbEntity
  8
0
  6
Continuous
 62
     7
370
     5
100
AcDbLine
 10
841.0206735089141
 20
0.4857162991193036
 30
0.0
 11
631.0099594965122
 21
121.7223209047934
 31
0.0
1001
PE_URL
1000

  0
LINE
  5
C85
330
B96
100
AcDbEntity
  8
0
  6
Continuous
 62
     7
370
     5
100
AcDbLine
 10
640.4144796862911
 20
134.1736858306303
 30
0.0
 11
850.4251936986966
 21
12.93708122495991
 31
0.0
1001
PE_URL
1000

  0
ARC
  5
C86
330
B96
100
AcDbEntity
  8
0
  6
Continuous
 62
     7
370
     5
100
AcDbCircle
 10
849.5040640378757
 20
12.97899773631616
 30
0.0
 40
0.9220828845432182
100
AcDbArc
 50
302.6054783399464
 51
357.394521514352
1001
PE_URL
1000

  0
LINE
  5
C87
330
B96
100
AcDbEntity
  8
0
  6
Continuous
 62
     7
370
     5
100
AcDbLine
 10
850.000929629985
 20
12.20223430428268
 30
0.0
 11
639.9902156175795
 21
133.4388389099531
 31
0.0
1001
PE_URL
1000

  0
LINE
  5
C88
330
B96
100
AcDbEntity
  8
0
  6
Continuous
 62
     7
370
     5
100
AcDbLine
 10
850.4251936986966
 20
14.97696028397513
 30
0.0
 11
850.4251936986966
 21
12.93708122495991
 31
0.0
1001
PE_URL
1000

  0
ARC
  5
C89
330
B96
100
AcDbEntity
  8
0
  6
Continuous
 62
     7
370
     5
100
AcDbCircle
 10
849.825177597073
 20
12.44756310175035
 30
0.0
 40
0.3017863415410929
100
AcDbArc
 50
245.692880953775
 51
305.6175774757438
1001
PE_URL
1000

  0
LINE
  5
C8A
330
B96
100
AcDbEntity
  8
0
  6
Continuous
 62
     7
370
     5
100
AcDbLine
 10
858.2740789698637
 20
10.44589526335585
 30
0.0
 11
858.8397643948156
 21
10.77245850808868
 31
0.0
1001
PE_URL
1000

  0
LINE
  5
C8B
330
B96
100
AcDbEntity
  8
0
  6
Continuous
 62
     7
370
     5
100
AcDbLine
 10
850.42629461664
 20
14.97632473757585
 30
0.0
 11
850.4251936986966
 21
14.8967791734849
 31
0.0
1001
PE_URL
1000

  0
LINE
  5
C8C
330
B96
100
AcDbEntity
  8
0
  6
Continuous
 62
     7
370
     5
100
AcDbLine
 10
850.4251936986966
 20
14.8967791734849
 30
0.0
 11
850.4251936986966
 21
12.93708122596399
 31
0.0
1001
PE_URL
1000

  0
LWPOLYLINE
  5
C8D
330
B96
100
AcDbEntity
  8
0
  6
Continuous
 62
     7
370
     5
100
AcDbPolyline
 90
        7
 70
   128
 43
0.0
 10
850.4251936986966
 20
12.93708122596399
 10
850.392898519447
 20
12.73095163148719
 10
850.3009296299842
 20
12.51891617892215
 10
850.1632884600276
 20
12.33325534381038
 10
850.000929629985
 20
12.20223430528313
 10
849.8385707999405
 20
12.14579982874602
 10
849.7009540101935
 20
12.17252947498673
1001
PE_URL
1000

  0
ARC
  5
C8E
330
B96
100
AcDbEntity
  8
0
  6
Continuous
 62
     7
370
     5
100
AcDbCircle
 10
789.8091787936555
 20
24.18711039520167
 30
0.0
 40
56.90442762733316
100
AcDbArc
 50
335.8366940696696
 51
349.7272624848501
1001
PE_URL
1000

  0
LINE
  5
C8F
330
B96
100
AcDbEntity
  8
0
  6
Continuous
 62
     7
370
     5
100
AcDbLine
 10
841.1620948651525
 20
0.5673571103016002
 30
0.0
 11
841.7277802901026
 21
0.8939203550344246
 31
0.0
1001
PE_URL
1000

  0
ARC
  5
C90
102
{ACAD_REACTORS
102
}
330
B96
100
AcDbEntity
  8
0
  6
Continuous
 62
     7
370
     5
100
AcDbCircle
 10
859.7590032103562
 20
10.40510139778235
 30
0.0
 40
0.2000000000000069
100
AcDbArc
 50
299.9973117336571
 51
0.0
1001
PE_URL
1000

  0
LINE
  5
C91
102
{ACAD_REACTORS
102
}
330
B96
100
AcDbEntity
  8
0
  6
Continuous
 62
     7
370
     5
100
AcDbLine
 10
859.2322092604463
 20
9.870055871479053
 30
0.0
 11
859.8589950836194
 21
10.23189162530798
 31
0.0
1001
PE_URL
1000

  0
LINE
  5
C92
102
{ACAD_REACTORS
102
}
330
B96
100
AcDbEntity
  8
0
  6
Continuous
 62
     7
370
     5
100
AcDbLine
 10
859.9590032103533
 20
10.40510139778235
 30
0.0
 11
859.9590032103533
 21
41.10703592468599
 31
0.0
1001
PE_URL
1000

  0
LINE
  5
C93
102
{ACAD_REACTORS
102
}
330
B96
100
AcDbEntity
  8
0
  6
Continuous
 62
     7
370
     5
100
AcDbLine
 10
842.1813255539546
 20
0.0267902275245433
 30
0.0
 11
842.8083215300303
 21
0.3887473000377213
 31
0.0
1001
PE_URL
1000

  0
LINE
  5
C94
102
{ACAD_REACTORS
102
}
330
B96
100
AcDbEntity
  8
0
  6
Continuous
 62
     7
370
     5
100
AcDbLine
 10
841.2035243481241
 20
0.4758146890253556
 30
0.0
 11
841.9813418074282
 21
0.0267902275245433
 31
0.0
1001
PE_URL
1000

  0
ARC
  5
C95
102
{ACAD_REACTORS
102
}
330
B96
100
AcDbEntity
  8
0
  6
Continuous
 62
     7
370
     5
100
AcDbCircle
 10
842.0813336806914
 20
0.1999999999989086
 30
0.0
 40
0.2000000000000138
100
AcDbArc
 50
240.0026882663429
 51
299.9973117336571
1001
PE_URL
1000

  0
LINE
  5
C96
102
{ACAD_REACTORS
102
}
330
B96
100
AcDbEntity
  8
0
  6
Continuous
 62
     7
370
     5
100
AcDbLine
 10
859.8589950836194
 20
41.28024569716399
 30
0.0
 11
859.0811776243081
 21
41.7292701586648
 31
0.0
1001
PE_URL
1000

  0
ARC
  5
C97
102
{ACAD_REACTORS
102
}
330
B96
100
AcDbEntity
  8
0
  6
Continuous
 62
     7
370
     5
100
AcDbCircle
 10
859.7590032103562
 20
41.10703592468599
 30
0.0
 40
0.1999999999999815
100
AcDbArc
 50
0.0
 51
60.00268826739317
1001
PE_URL
1000

  0
LINE
  5
C98
102
{ACAD_REACTORS
102
}
330
B96
100
AcDbEntity
  8
0
  6
Continuous
 62
     7
370
     5
100
AcDbLine
 10
841.7277802900953
 20
0.8939203550344246
 30
0.0
 11
841.0206735089105
 21
0.4857162991229416
 31
0.0
1001
PE_URL
1000

  0
LINE
  5
C99
102
{ACAD_REACTORS
102
}
330
B96
100
AcDbEntity
  8
0
  6
Continuous
 62
     7
370
     5
100
AcDbLine
 10
858.9811857510522
 20
10.85409931927461
 30
0.0
 11
858.27407896986
 21
10.44589526335949
 31
0.0
1001
PE_URL
1000

  0
LINE
  5
C9A
102
{ACAD_REACTORS
102
}
330
B96
100
AcDbEntity
  8
0
  6
Continuous
 62
     7
370
     5
100
AcDbLine
 10
858.9811857510522
 20
41.88265017092817
 30
0.0
 11
858.9811857510522
 21
10.85409931927461
 31
0.0
1001
PE_URL
1000

  0
LINE
  5
C9B
102
{ACAD_REACTORS
102
}
330
B96
100
AcDbEntity
  8
0
  6
Continuous
 62
     7
370
     5
100
AcDbLine
 10
858.27407896986
 20
10.44589526335949
 30
0.0
 11
858.8397643948138
 21
10.77245850808868
 31
0.0
1001
PE_URL
1000

  0
LINE
  5
C9C
102
{ACAD_REACTORS
102
}
330
B96
100
AcDbEntity
  8
0
  6
Continuous
 62
     7
370
     5
100
AcDbLine
 10
841.1620948651489
 20
0.5673571103052382
 30
0.0
 11
841.7277802900953
 21
0.8939203550344246
 31
0.0
1001
PE_URL
1000

  0
ARC
  5
C9D
102
{ACAD_REACTORS
102
}
330
B96
100
AcDbEntity
  8
0
  6
Continuous
 62
     7
370
     5
100
AcDbCircle
 10
859.036392233802
 20
41.65168663675104
 30
0.0
 40
0.0873418394856921
100
AcDbArc
 50
350.7859630083365
 51
129.2032852342249
1001
PE_URL
1000

  0
LINE
  5
C9E
102
{ACAD_REACTORS
102
}
330
B96
100
AcDbEntity
  8
0
  6
Continuous
 62
     7
370
     5
100
AcDbLine
 10
859.1226071072906
 20
10.93576667046909
 30
0.0
 11
859.1226071072906
 21
41.6377011973691
 31
0.0
1001
PE_URL
1000

  0
ARC
  5
C9F
102
{ACAD_REACTORS
102
}
330
B96
100
AcDbEntity
  8
0
  6
Continuous
 62
     7
370
     5
100
AcDbCircle
 10
858.8155638870103
 20
10.94973884091996
 30
0.0
 40
0.3073609615145076
100
AcDbArc
 50
302.605478340617
 51
357.3945215145798
1001
PE_URL
1000

  0
LINE
  5
CA0
102
{ACAD_REACTORS
102
}
330
B96
100
AcDbEntity
  8
0
  6
Continuous
 62
     7
370
     5
100
AcDbLine
 10
858.9811857510522
 20
10.85409931927461
 30
0.0
 11
858.9811857510522
 21
10.69081769691002
 31
0.0
1001
PE_URL
1000

  0
LINE
  5
CA1
102
{ACAD_REACTORS
102
}
330
B96
100
AcDbEntity
  8
0
  6
Continuous
 62
     7
370
     5
100
AcDbLine
 10
859.1226071072906
 20
10.93576667046909
 30
0.0
 11
859.9004245665874
 21
10.48674220896464
 31
0.0
1001
PE_URL
1000

  0
ARC
  5
CA2
102
{ACAD_REACTORS
102
}
330
B96
100
AcDbEntity
  8
0
  6
Continuous
 62
     7
370
     5
100
AcDbCircle
 10
859.5933813463216
 20
10.50071437941551
 30
0.0
 40
0.3073609615144102
100
AcDbArc
 50
302.6054783393054
 51
357.3945215145779
1001
PE_URL
1000

  0
LINE
  5
CA3
102
{ACAD_REACTORS
102
}
330
B96
100
AcDbEntity
  8
0
  6
Continuous
 62
     7
370
     5
100
AcDbLine
 10
859.7590032103562
 20
10.24179323540557
 30
0.0
 11
858.9811857510522
 21
10.69081769691002
 31
0.0
1001
PE_URL
1000

  0
LINE
  5
CA4
102
{ACAD_REACTORS
102
}
330
B96
100
AcDbEntity
  8
0
  6
Continuous
 62
     7
370
     5
100
AcDbLine
 10
858.9811857510522
 20
10.69081769691002
 30
0.0
 11
858.8397643948138
 21
10.77245850808868
 31
0.0
1001
PE_URL
1000

  0
LINE
  5
CA5
102
{ACAD_REACTORS
102
}
330
B96
100
AcDbEntity
  8
0
  6
Continuous
 62
     7
370
     5
100
AcDbLine
 10
859.1933177854098
 20
9.91522999067638
 30
0.0
 11
859.7590032103562
 21
10.24179323540557
 31
0.0
1001
PE_URL
1000

  0
LINE
  5
CA6
102
{ACAD_REACTORS
102
}
330
B96
100
AcDbEntity
  8
0
  6
Continuous
 62
     7
370
     5
100
AcDbLine
 10
859.9004245665874
 20
41.18867673586828
 30
0.0
 11
859.1226071072906
 21
41.6377011973691
 31
0.0
1001
PE_URL
1000

  0
LINE
  5
CA7
102
{ACAD_REACTORS
102
}
330
B96
100
AcDbEntity
  8
0
  6
Continuous
 62
     7
370
     5
100
AcDbLine
 10
859.9004245665874
 20
10.48674220896464
 30
0.0
 11
859.9004245665874
 21
41.18867673586828
 31
0.0
1001
PE_URL
1000

  0
SPLINE
  5
CA8
102
{ACAD_REACTORS
102
}
330
B96
100
AcDbEntity
  8
0
  6
Continuous
 62
     7
370
     5
100
AcDbSpline
210
0.0
220
0.0
230
1.0
 70
     8
 71
     3
 72
    12
 73
     8
 74
     0
 42
0.000000001
 43
0.00000001
 40
0.0
 40
0.0
 40
0.0
 40
0.0
 40
0.1083575554968377
 40
0.2158039789773047
 40
0.3886590225097131
 40
0.6796131254043007
 40
1.0
 40
1.0
 40
1.0
 40
1.0
 10
859.1933177854098
 20
9.91522999067638
 30
0.0
 10
859.2033547826013
 20
9.909003075192231
 30
0.0
 10
859.2233443802124
 20
9.896601603673844
 30
0.0
 10
859.2383110924729
 20
9.881025981439961
 30
0.0
 10
859.2372705526523
 20
9.867918710840968
 30
0.0
 10
859.2043749436725
 20
9.864708391693057
 30
0.0
 10
859.1571188142716
 20
9.874782733082611
 30
0.0
 10
859.1323531856633
 20
9.880062416383225
 30
0.0
1001
PE_URL
1000

  0
SPLINE
  5
CA9
102
{ACAD_REACTORS
102
}
330
B96
100
AcDbEntity
  8
0
  6
Continuous
 62
     7
370
     5
100
AcDbSpline
210
0.0
220
0.0
230
1.0
 70
     8
 71
     3
 72
    12
 73
     8
 74
     0
 42
0.000000001
 43
0.00000001
 40
0.0
 40
0.0
 40
0.0
 40
0.0
 40
0.4480832962971862
 40
0.6390739768471705
 40
0.8319772733508926
 40
0.9300724225915848
 40
1.0
 40
1.0
 40
1.0
 40
1.0
 10
842.9908264178612
 20
0.561757359029798
 30
0.0
 10
842.9488260933449
 20
0.5110033720502543
 30
0.0
 10
842.88892358271
 20
0.4386160445883434
 30
0.0
 10
842.7864054918336
 20
0.3733871394524613
 30
0.0
 10
842.7213341179759
 20
0.3506619803247304
 30
0.0
 10
842.6732419339987
 20
0.3513407241462119
 30
0.0
 10
842.6547253318076
 20
0.3597537537480093
 30
0.0
 10
842.6470191056451
 20
0.3632550823476777
 30
0.0
1001
PE_URL
1000

  0
LINE
  5
CAA
102
{ACAD_REACTORS
102
}
330
B96
100
AcDbEntity
  8
0
  6
Continuous
 62
     7
370
     5
100
AcDbLine
 10
841.7277802900953
 20
0.8939203550344246
 30
0.0
 11
842.6470191056451
 21
0.3632550823476777
 31
0.0
1001
PE_URL
1000

  0
LINE
  5
CAB
102
{ACAD_REACTORS
102
}
330
B96
100
AcDbEntity
  8
0
  6
Continuous
 62
     7
370
     5
100
AcDbLine
 10
841.3035162213873
 20
0.4857162991229416
 30
0.0
 11
842.0813336806914
 21
0.0366918376184913
 31
0.0
1001
PE_URL
1000

  0
LINE
  5
CAC
102
{ACAD_REACTORS
102
}
330
B96
100
AcDbEntity
  8
0
  6
Continuous
 62
     7
370
     5
100
AcDbLine
 10
841.1620948651489
 20
0.5673571103052382
 30
0.0
 11
841.3035162213873
 21
0.4857162991229416
 31
0.0
1001
PE_URL
1000

  0
LINE
  5
CAD
102
{ACAD_REACTORS
102
}
330
B96
100
AcDbEntity
  8
0
  6
Continuous
 62
     7
370
     5
100
AcDbLine
 10
842.0813336806914
 20
0.0366918376184913
 30
0.0
 11
842.6470191056451
 21
0.3632550823476777
 31
0.0
1001
PE_URL
1000

  0
ARC
  5
CAE
102
{ACAD_REACTORS
102
}
330
B96
100
AcDbEntity
  8
0
  6
Continuous
 62
     7
370
     5
100
AcDbCircle
 10
841.2483097386303
 20
0.5533982109391218
 30
0.0
 40
0.0873418394856935
100
AcDbArc
 50
170.7859630083365
 51
309.2032852398395
1001
PE_URL
1000

  0
ARC
  5
CAF
102
{ACAD_REACTORS
102
}
330
B96
100
AcDbEntity
  8
0
  6
Continuous
 62
     7
370
     5
100
AcDbCircle
 10
859.8175872213269
 20
10.32356950122812
 30
0.0
 40
0.1005954471805595
100
AcDbArc
 50
234.3824225234761
 51
294.3071190449966
1001
PE_URL
1000

  0
ARC
  5
CB0
102
{ACAD_REACTORS
102
}
330
B96
100
AcDbEntity
  8
0
  6
Continuous
 62
     7
370
     5
100
AcDbCircle
 10
859.8589117978572
 20
10.39512012240266
 30
0.0
 40
0.1005878556989047
100
AcDbArc
 50
5.69479925110453
 51
65.62534171102577
1001
PE_URL
1000

  0
ARC
  5
CB1
102
{ACAD_REACTORS
102
}
330
B96
100
AcDbEntity
  8
0
  6
Continuous
 62
     7
370
     5
100
AcDbCircle
 10
859.8589117978572
 20
41.0970546493063
 30
0.0
 40
0.1005878556987673
100
AcDbArc
 50
5.694799251110954
 51
65.62534171114375
1001
PE_URL
1000

  0
ARC
  5
CB2
102
{ACAD_REACTORS
102
}
330
B96
100
AcDbEntity
  8
0
  6
Continuous
 62
     7
370
     5
100
AcDbCircle
 10
842.139917691662
 20
0.1184681034446839
 30
0.0
 40
0.1005954471806202
100
AcDbArc
 50
234.3824225252374
 51
294.3071190451736
1001
PE_URL
1000

  0
ARC
  5
CB3
102
{ACAD_REACTORS
102
}
330
B96
100
AcDbEntity
  8
0
  6
Continuous
 62
     7
370
     5
100
AcDbCircle
 10
842.0227496697207
 20
0.1184681034446839
 30
0.0
 40
0.1005954471803726
100
AcDbArc
 50
245.6928809552395
 51
305.6175774746046
1001
PE_URL
1000

  0
ARC
  5
CB4
102
{ACAD_REACTORS
102
}
330
B96
100
AcDbEntity
  8
0
  6
Continuous
 62
     7
370
     5
100
AcDbCircle
 10
859.8052874554287
 20
41.20078954159726
 30
0.0
 40
0.0959051092612276
100
AcDbArc
 50
352.7441704305035
 51
55.94364917316268
1001
PE_URL
1000

  0
ARC
  5
CB5
102
{ACAD_REACTORS
102
}
330
B96
100
AcDbEntity
  8
0
  6
Continuous
 62
     7
370
     5
100
AcDbCircle
 10
859.7590033279066
 20
10.40510148503563
 30
0.0
 40
0.1999999999999632
100
AcDbArc
 50
299.9973117335725
 51
0.0
1001
PE_URL
1000

  0
LINE
  5
CB6
102
{ACAD_REACTORS
102
}
330
B96
100
AcDbEntity
  8
0
  6
Continuous
 62
     7
370
     5
100
AcDbLine
 10
859.9590034291923
 20
10.405101555496
 30
0.0
 11
859.9590034291923
 21
41.10703536621622
 31
0.0
1001
PE_URL
1000

  0
LINE
  5
CB7
102
{ACAD_REACTORS
102
}
330
B96
100
AcDbEntity
  8
0
  6
Continuous
 62
     7
370
     5
100
AcDbLine
 10
853.860207018015
 20
6.768865049134547
 30
0.0
 11
859.8589952961647
 21
10.23189180952068
 31
0.0
1001
PE_URL
1000

  0
LINE
  5
CB8
102
{ACAD_REACTORS
102
}
330
B96
100
AcDbEntity
  8
0
  6
Continuous
 62
     7
370
     5
100
AcDbLine
 10
842.1813255030811
 20
0.0267902596624481
 30
0.0
 11
848.1801137812381
 21
3.489817020048577
 31
0.0
1001
PE_URL
1000

  0
LINE
  5
CB9
102
{ACAD_REACTORS
102
}
330
B96
100
AcDbEntity
  8
0
  6
Continuous
 62
     7
370
     5
100
AcDbLine
 10
841.2035247811964
 20
0.4758149622812198
 30
0.0
 11
841.9813422465759
 21
0.0267904972733959
 31
0.0
1001
PE_URL
1000

  0
ARC
  5
CBA
102
{ACAD_REACTORS
102
}
330
B96
100
AcDbEntity
  8
0
  6
Continuous
 62
     7
370
     5
100
AcDbCircle
 10
842.0813337982418
 20
0.2000000872521923
 30
0.0
 40
0.200000000000126
100
AcDbArc
 50
240.0026882663429
 51
299.9973117326633
1001
PE_URL
1000

  0
LINE
  5
CBB
102
{ACAD_REACTORS
102
}
330
B96
100
AcDbEntity
  8
0
  6
Continuous
 62
     7
370
     5
100
AcDbLine
 10
859.8589948845784
 20
41.28024612222544
 30
0.0
 11
859.0811774191916
 21
41.72927058723326
 31
0.0
1001
PE_URL
1000

  0
ARC
  5
CBC
102
{ACAD_REACTORS
102
}
330
B96
100
AcDbEntity
  8
0
  6
Continuous
 62
     7
370
     5
100
AcDbCircle
 10
859.7590033279066
 20
41.10703601193563
 30
0.0
 40
0.2000000000000124
100
AcDbArc
 50
0.0
 51
60.00268826739317
1001
PE_URL
1000

  0
LINE
  5
CBD
102
{ACAD_REACTORS
102
}
330
B96
100
AcDbEntity
  8
0
  6
Continuous
 62
     7
370
     5
100
AcDbLine
 10
858.9811857600744
 20
10.85409934387462
 30
0.0
 11
858.9811857600744
 21
41.88264919780522
 31
0.0
1001
PE_URL
1000

  0
LINE
  5
CBE
102
{ACAD_REACTORS
102
}
330
B96
100
AcDbEntity
  8
0
  6
Continuous
 62
     7
370
     5
100
AcDbLine
 10
858.2740788629835
 20
10.4458952210498
 30
0.0
 11
858.9811857600744
 21
10.85409934387462
 31
0.0
1001
PE_URL
1000

  0
LINE
  5
CBF
102
{ACAD_REACTORS
102
}
330
B96
100
AcDbEntity
  8
0
  6
Continuous
 62
     7
370
     5
100
AcDbLine
 10
841.020673734989
 20
0.4857164490258583
 30
0.0
 11
841.7277806320799
 21
0.8939205718506855
 31
0.0
1001
PE_URL
1000

  0
LINE
  5
CC0
102
{ACAD_REACTORS
102
}
330
B96
100
AcDbEntity
  8
0
  6
Continuous
 62
     7
370
     5
100
AcDbLine
 10
841.1620948509899
 20
0.5673571215247648
 30
0.0
 11
858.8397646440735
 21
10.77245867137572
 31
0.0
1001
PE_URL
1000

  0
LINE
  5
CC1
102
{ACAD_REACTORS
102
}
330
B96
100
AcDbEntity
  8
0
  6
Continuous
 62
     7
370
     5
100
AcDbLine
 10
858.9811859967394
 20
10.8540994874802
 30
0.0
 11
858.9811859967394
 21
10.69081786225615
 31
0.0
1001
PE_URL
1000

  0
LINE
  5
CC2
102
{ACAD_REACTORS
102
}
330
B96
100
AcDbEntity
  8
0
  6
Continuous
 62
     7
370
     5
100
AcDbLine
 10
858.9811859967394
 20
10.69081786225615
 30
0.0
 11
858.8397646440735
 21
10.77245867137572
 31
0.0
1001
PE_URL
1000

  0
LINE
  5
CC3
102
{ACAD_REACTORS
102
}
330
B96
100
AcDbEntity
  8
0
  6
Continuous
 62
     7
370
     5
100
AcDbLine
 10
847.5260558958271
 20
3.832989557597102
 30
0.0
 11
853.182910414007
 21
7.098622159997831
 31
0.0
1001
PE_URL
1000

  0
LINE
  5
CC4
102
{ACAD_REACTORS
102
}
330
B96
100
AcDbEntity
  8
0
  6
Continuous
 62
     7
370
     5
100
AcDbLine
 10
847.5260558958271
 20
3.832989557597102
 30
0.0
 11
848.0818674194106
 21
3.50072624744098
 31
0.0
1001
PE_URL
1000

  0
LINE
  5
CC5
102
{ACAD_REACTORS
102
}
330
B96
100
AcDbEntity
  8
0
  6
Continuous
 62
     7
370
     5
100
AcDbLine
 10
842.0813336690353
 20
0.0366918473973783
 30
0.0
 11
848.0818674194106
 21
3.50072624744098
 31
0.0
1001
PE_URL
1000

  0
LINE
  5
CC6
102
{ACAD_REACTORS
102
}
330
B96
100
AcDbEntity
  8
0
  6
Continuous
 62
     7
370
     5
100
AcDbLine
 10
841.3035162036558
 20
0.4857163124052022
 30
0.0
 11
842.0813336690353
 21
0.0366918473973783
 31
0.0
1001
PE_URL
1000

  0
LINE
  5
CC7
102
{ACAD_REACTORS
102
}
330
B96
100
AcDbEntity
  8
0
  6
Continuous
 62
     7
370
     5
100
AcDbLine
 10
841.1620948509899
 20
0.5673571215247648
 30
0.0
 11
841.3035162036558
 21
0.4857163124052022
 31
0.0
1001
PE_URL
1000

  0
LINE
  5
CC8
102
{ACAD_REACTORS
102
}
330
B96
100
AcDbEntity
  8
0
  6
Continuous
 62
     7
370
     5
100
AcDbLine
 10
859.7590034621189
 20
10.24179339724833
 30
0.0
 11
858.9811859967394
 21
10.69081786225615
 31
0.0
1001
PE_URL
1000

  0
LINE
  5
CC9
102
{ACAD_REACTORS
102
}
330
B96
100
AcDbEntity
  8
0
  6
Continuous
 62
     7
370
     5
100
AcDbLine
 10
853.7584697117436
 20
6.777758997204728
 30
0.0
 11
859.7590034621189
 21
10.24179339724833
 31
0.0
1001
PE_URL
1000

  0
LINE
  5
CCA
102
{ACAD_REACTORS
102
}
330
B96
100
AcDbEntity
  8
0
  6
Continuous
 62
     7
370
     5
100
AcDbLine
 10
853.182910414007
 20
7.098622159997831
 30
0.0
 11
853.7584697117436
 21
6.777758997204728
 31
0.0
1001
PE_URL
1000

  0
ARC
  5
CCB
102
{ACAD_REACTORS
102
}
330
B96
100
AcDbEntity
  8
0
  6
Continuous
 62
     7
370
     5
100
AcDbCircle
 10
859.5933809644866
 20
10.50071461407242
 30
0.0
 40
0.3073613642652838
100
AcDbArc
 50
302.6055705216268
 51
357.3944846940787
1001
PE_URL
1000

  0
ARC
  5
CCC
102
{ACAD_REACTORS
102
}
330
B96
100
AcDbEntity
  8
0
  6
Continuous
 62
     7
370
     5
100
AcDbCircle
 10
858.8155634991072
 20
10.94973907908025
 30
0.0
 40
0.3073613642651473
100
AcDbArc
 50
302.6055705215911
 51
357.3944846940777
1001
PE_URL
1000

  0
LINE
  5
CCD
102
{ACAD_REACTORS
102
}
330
B96
100
AcDbEntity
  8
0
  6
Continuous
 62
     7
370
     5
100
AcDbLine
 10
859.1226071127403
 20
10.93576669300273
 30
0.0
 11
859.9004245781198
 21
10.48674222799491
 31
0.0
1001
PE_URL
1000

  0
ARC
  5
CCE
102
{ACAD_REACTORS
102
}
330
B96
100
AcDbEntity
  8
0
  6
Continuous
 62
     7
370
     5
100
AcDbCircle
 10
859.0363932821801
 20
41.65168747174357
 30
0.0
 40
0.0873410548013013
100
AcDbArc
 50
350.7848636094997
 51
129.2043846356816
1001
PE_URL
1000

  0
LINE
  5
CCF
102
{ACAD_REACTORS
102
}
330
B96
100
AcDbEntity
  8
0
  6
Continuous
 62
     7
370
     5
100
AcDbLine
 10
859.1226071127403
 20
10.93576669300273
 30
0.0
 11
859.1226071127403
 21
41.63770050372295
 31
0.0
1001
PE_URL
1000

  0
LINE
  5
CD0
102
{ACAD_REACTORS
102
}
330
B96
100
AcDbEntity
  8
0
  6
Continuous
 62
     7
370
     5
100
AcDbLine
 10
859.9004245781198
 20
41.18867603871513
 30
0.0
 11
859.1226071127403
 21
41.63770050372295
 31
0.0
1001
PE_URL
1000

  0
LINE
  5
CD1
102
{ACAD_REACTORS
102
}
330
B96
100
AcDbEntity
  8
0
  6
Continuous
 62
     7
370
     5
100
AcDbLine
 10
859.9004245781198
 20
10.48674222799491
 30
0.0
 11
859.9004245781198
 21
41.18867603871513
 31
0.0
1001
PE_URL
1000

  0
ELLIPSE
  5
CD2
102
{ACAD_REACTORS
102
}
330
B96
100
AcDbEntity
  8
0
  6
Continuous
 62
     7
370
     5
100
AcDbEllipse
 10
853.758469763643
 20
6.941067192428818
 30
0.0
 11
-0.1026525863727556
 21
0.1716643463722676
 31
0.0
210
0.0
220
0.0
230
1.0
 40
0.5873687162543133
 41
2.347239087449793
 42
3.132555986706519
1001
PE_URL
1000

  0
ELLIPSE
  5
CD3
102
{ACAD_REACTORS
102
}
330
B96
100
AcDbEntity
  8
0
  6
Continuous
 62
     7
370
     5
100
AcDbEllipse
 10
848.0818673625054
 20
3.664034379859004
 30
0.0
 11
-0.09741494644129034
 21
0.1746892004041456
 31
0.0
210
0.0
220
0.0
230
1.0
 40
0.567218392760024
 41
2.364703013104653
 42
3.935499339883648
1001
PE_URL
1000

  0
LINE
  5
CD4
102
{ACAD_REACTORS
102
}
330
B96
100
AcDbEntity
  8
0
  6
Continuous
 62
     7
370
     5
100
AcDbLine
 10
848.2208202282727
 20
3.580968524687705
 30
0.0
 11
848.2208202282727
 21
4.234068516330808
 31
0.0
1001
PE_URL
1000

  0
ARC
  5
CD5
102
{ACAD_REACTORS
102
}
330
B96
100
AcDbEntity
  8
0
  6
Continuous
 62
     7
370
     5
100
AcDbCircle
 10
841.2483099658657
 20
0.5533984178346145
 30
0.0
 40
0.0873418346895923
100
AcDbArc
 50
170.7860017443357
 51
309.2030804322254
1001
PE_URL
1000

  0
ARC
  5
CD6
102
{ACAD_REACTORS
102
}
330
B96
100
AcDbEntity
  8
0
  6
Continuous
 62
     7
370
     5
100
AcDbCircle
 10
859.8175874251265
 20
10.32356954988245
 30
0.0
 40
0.1005953272404012
100
AcDbArc
 50
234.3824071873511
 51
294.3071553674524
1001
PE_URL
1000

  0
ARC
  5
CD7
102
{ACAD_REACTORS
102
}
330
B96
100
AcDbEntity
  8
0
  6
Continuous
 62
     7
370
     5
100
AcDbCircle
 10
859.8589125019153
 20
10.39512036722044
 30
0.0
 40
0.1005873642274767
100
AcDbArc
 50
5.694777306321264
 51
65.6256479411495
1001
PE_URL
1000

  0
ARC
  5
CD8
102
{ACAD_REACTORS
102
}
330
B96
100
AcDbEntity
  8
0
  6
Continuous
 62
     7
370
     5
100
AcDbCircle
 10
859.8589125019153
 20
41.09705417794066
 30
0.0
 40
0.1005873642277259
100
AcDbArc
 50
5.694777306308413
 51
65.62564794097254
1001
PE_URL
1000

  0
ARC
  5
CD9
102
{ACAD_REACTORS
102
}
330
B96
100
AcDbEntity
  8
0
  6
Continuous
 62
     7
370
     5
100
AcDbCircle
 10
842.1399176320501
 20
0.1184680000314984
 30
0.0
 40
0.1005953272402008
100
AcDbArc
 50
234.3824071839335
 51
294.3071553622916
1001
PE_URL
1000

  0
ARC
  5
CDA
102
{ACAD_REACTORS
102
}
330
B96
100
AcDbEntity
  8
0
  6
Continuous
 62
     7
370
     5
100
AcDbCircle
 10
842.022750240003
 20
0.1184665288110409
 30
0.0
 40
0.100593820275212
100
AcDbArc
 50
245.6923804617095
 51
305.6178335831319
1001
PE_URL
1000

  0
ARC
  5
CDB
102
{ACAD_REACTORS
102
}
330
B96
100
AcDbEntity
  8
0
  6
Continuous
 62
     7
370
     5
100
AcDbCircle
 10
859.8081222185374
 20
41.20207224119986
 30
0.0
 40
0.0932694152698403
100
AcDbArc
 50
351.7420983450592
 51
56.94541256733022
1001
PE_URL
1000

  0
ARC
  5
CDC
102
{ACAD_REACTORS
102
}
330
B96
100
AcDbEntity
  8
0
  6
Continuous
 62
     7
370
     5
100
AcDbCircle
 10
859.759003210349
 20
10.40510139778235
 30
0.0
 40
0.2000000000000124
100
AcDbArc
 50
299.9973117326068
 51
0.0
1001
PE_URL
1000

  0
LINE
  5
CDD
102
{ACAD_REACTORS
102
}
330
B96
100
AcDbEntity
  8
0
  6
Continuous
 62
     7
370
     5
100
AcDbLine
 10
859.959003210346
 20
10.40510139778235
 30
0.0
 11
859.959003210346
 21
41.10703592468963
 31
0.0
1001
PE_URL
1000

  0
LINE
  5
CDE
102
{ACAD_REACTORS
102
}
330
B96
100
AcDbEntity
  8
0
  6
Continuous
 62
     7
370
     5
100
AcDbLine
 10
853.8602068839846
 20
6.768864910261982
 30
0.0
 11
859.8589950836122
 21
10.23189162530798
 31
0.0
1001
PE_URL
1000

  0
LINE
  5
CDF
102
{ACAD_REACTORS
102
}
330
B96
100
AcDbEntity
  8
0
  6
Continuous
 62
     7
370
     5
100
AcDbLine
 10
842.1813255539473
 20
0.0267902275245433
 30
0.0
 11
848.1801137535749
 21
3.489816942570542
 31
0.0
1001
PE_URL
1000

  0
LINE
  5
CE0
102
{ACAD_REACTORS
102
}
330
B96
100
AcDbEntity
  8
0
  6
Continuous
 62
     7
370
     5
100
AcDbLine
 10
841.2035243481168
 20
0.4758146890253556
 30
0.0
 11
841.9813418074209
 21
0.0267902275245433
 31
0.0
1001
PE_URL
1000

  0
ARC
  5
CE1
102
{ACAD_REACTORS
102
}
330
B96
100
AcDbEntity
  8
0
  6
Continuous
 62
     7
370
     5
100
AcDbCircle
 10
842.0813336806841
 20
0.1999999999989086
 30
0.0
 40
0.1999999999999708
100
AcDbArc
 50
240.0026882663429
 51
299.9973117335725
1001
PE_URL
1000

  0
LINE
  5
CE2
102
{ACAD_REACTORS
102
}
330
B96
100
AcDbEntity
  8
0
  6
Continuous
 62
     7
370
     5
100
AcDbLine
 10
859.8589950836122
 20
41.28024569716399
 30
0.0
 11
859.0811776243081
 21
41.7292701586648
 31
0.0
1001
PE_URL
1000

  0
ARC
  5
CE3
102
{ACAD_REACTORS
102
}
330
B96
100
AcDbEntity
  8
0
  6
Continuous
 62
     7
370
     5
100
AcDbCircle
 10
859.759003210349
 20
41.10703592468963
 30
0.0
 40
0.20000000000002
100
AcDbArc
 50
0.0
 51
60.00268826739317
1001
PE_URL
1000

  0
LINE
  5
CE4
102
{ACAD_REACTORS
102
}
330
B96
100
AcDbEntity
  8
0
  6
Continuous
 62
     7
370
     5
100
AcDbLine
 10
841.1620948651416
 20
0.5673571103052382
 30
0.0
 11
858.8397643948065
 21
10.77245850809231
 31
0.0
1001
PE_URL
1000

  0
ARC
  5
CE5
102
{ACAD_REACTORS
102
}
330
B96
100
AcDbEntity
  8
0
  6
Continuous
 62
     7
370
     5
100
AcDbCircle
 10
858.8155638870103
 20
10.94973884091996
 30
0.0
 40
0.307360961513707
100
AcDbArc
 50
302.6054783397381
 51
357.3945215145721
1001
PE_URL
1000

  0
LINE
  5
CE6
102
{ACAD_REACTORS
102
}
330
B96
100
AcDbEntity
  8
0
  6
Continuous
 62
     7
370
     5
100
AcDbLine
 10
858.9811857510449
 20
10.69081769691002
 30
0.0
 11
858.9811857510449
 21
41.71936854856722
 31
0.0
1001
PE_URL
1000

  0
ARC
  5
CE7
102
{ACAD_REACTORS
102
}
330
B96
100
AcDbEntity
  8
0
  6
Continuous
 62
     7
370
     5
100
AcDbCircle
 10
859.0363922337947
 20
41.65168663675468
 30
0.0
 40
0.0873418394857385
100
AcDbArc
 50
350.7859630083365
 51
129.2032852323727
1001
PE_URL
1000

  0
LINE
  5
CE8
102
{ACAD_REACTORS
102
}
330
B96
100
AcDbEntity
  8
0
  6
Continuous
 62
     7
370
     5
100
AcDbLine
 10
859.1226071072833
 20
10.93576667046909
 30
0.0
 11
859.1226071072833
 21
41.63770119737273
 31
0.0
1001
PE_URL
1000

  0
LINE
  5
CE9
102
{ACAD_REACTORS
102
}
330
B96
100
AcDbEntity
  8
0
  6
Continuous
 62
     7
370
     5
100
AcDbLine
 10
847.5260558958271
 20
3.832989557597102
 30
0.0
 11
853.1829101453131
 21
7.098622004888966
 31
0.0
1001
PE_URL
1000

  0
LINE
  5
CEA
102
{ACAD_REACTORS
102
}
330
B96
100
AcDbEntity
  8
0
  6
Continuous
 62
     7
370
     5
100
AcDbLine
 10
847.5260558958271
 20
3.832989557597102
 30
0.0
 11
848.081867244955
 21
3.500726130228941
 31
0.0
1001
PE_URL
1000

  0
LINE
  5
CEB
102
{ACAD_REACTORS
102
}
330
B96
100
AcDbEntity
  8
0
  6
Continuous
 62
     7
370
     5
100
AcDbLine
 10
842.0813336806841
 20
0.0366918376221292
 30
0.0
 11
848.081867244955
 21
3.500726130228941
 31
0.0
1001
PE_URL
1000

  0
LINE
  5
CEC
102
{ACAD_REACTORS
102
}
330
B96
100
AcDbEntity
  8
0
  6
Continuous
 62
     7
370
     5
100
AcDbLine
 10
841.30351622138
 20
0.4857162991265795
 30
0.0
 11
842.0813336806841
 21
0.0366918376221292
 31
0.0
1001
PE_URL
1000

  0
LINE
  5
CED
102
{ACAD_REACTORS
102
}
330
B96
100
AcDbEntity
  8
0
  6
Continuous
 62
     7
370
     5
100
AcDbLine
 10
841.1620948651416
 20
0.5673571103052382
 30
0.0
 11
841.30351622138
 21
0.4857162991265795
 31
0.0
1001
PE_URL
1000

  0
LINE
  5
CEE
102
{ACAD_REACTORS
102
}
330
B96
100
AcDbEntity
  8
0
  6
Continuous
 62
     7
370
     5
100
AcDbLine
 10
858.9811857510449
 20
10.69081769691002
 30
0.0
 11
858.8397643948065
 21
10.77245850809231
 31
0.0
1001
PE_URL
1000

  0
LINE
  5
CEF
102
{ACAD_REACTORS
102
}
330
B96
100
AcDbEntity
  8
0
  6
Continuous
 62
     7
370
     5
100
AcDbLine
 10
859.759003210349
 20
10.2417932354092
 30
0.0
 11
858.9811857510449
 21
10.69081769691002
 31
0.0
1001
PE_URL
1000

  0
LINE
  5
CF0
102
{ACAD_REACTORS
102
}
330
B96
100
AcDbEntity
  8
0
  6
Continuous
 62
     7
370
     5
100
AcDbLine
 10
853.7584696460854
 20
6.777758942802393
 30
0.0
 11
859.759003210349
 21
10.2417932354092
 31
0.0
1001
PE_URL
1000

  0
LINE
  5
CF1
102
{ACAD_REACTORS
102
}
330
B96
100
AcDbEntity
  8
0
  6
Continuous
 62
     7
370
     5
100
AcDbLine
 10
853.1829101453131
 20
7.098622004888966
 30
0.0
 11
853.7584696460854
 21
6.777758942802393
 31
0.0
1001
PE_URL
1000

  0
LINE
  5
CF2
102
{ACAD_REACTORS
102
}
330
B96
100
AcDbEntity
  8
0
  6
Continuous
 62
     7
370
     5
100
AcDbLine
 10
859.1226071072833
 20
10.93576667046909
 30
0.0
 11
859.9004245665874
 21
10.48674220896828
 31
0.0
1001
PE_URL
1000

  0
ARC
  5
CF3
102
{ACAD_REACTORS
102
}
330
B96
100
AcDbEntity
  8
0
  6
Continuous
 62
     7
370
     5
100
AcDbCircle
 10
859.5933813463143
 20
10.50071437941915
 30
0.0
 40
0.3073609615149109
100
AcDbArc
 50
302.6054783394661
 51
357.3945215139042
1001
PE_URL
1000

  0
LINE
  5
CF4
102
{ACAD_REACTORS
102
}
330
B96
100
AcDbEntity
  8
0
  6
Continuous
 62
     7
370
     5
100
AcDbLine
 10
859.9004245665874
 20
41.18867673586828
 30
0.0
 11
859.1226071072833
 21
41.63770119737273
 31
0.0
1001
PE_URL
1000

  0
LINE
  5
CF5
102
{ACAD_REACTORS
102
}
330
B96
100
AcDbEntity
  8
0
  6
Continuous
 62
     7
370
     5
100
AcDbLine
 10
859.9004245665874
 20
10.48674220896828
 30
0.0
 11
859.9004245665874
 21
41.18867673586828
 31
0.0
1001
PE_URL
1000

  0
ELLIPSE
  5
CF6
102
{ACAD_REACTORS
102
}
330
B96
100
AcDbEntity
  8
0
  6
Continuous
 62
     7
370
     5
100
AcDbEllipse
 10
853.7584696460854
 20
6.941067105175534
 30
0.0
 11
-0.1026525863727556
 21
0.1716643463722676
 31
0.0
210
0.0
220
0.0
230
1.0
 40
0.5873687162543133
 41
2.347239087449792
 42
3.132555986800128
1001
PE_URL
1000

  0
ELLIPSE
  5
CF7
102
{ACAD_REACTORS
102
}
330
B96
100
AcDbEntity
  8
0
  6
Continuous
 62
     7
370
     5
100
AcDbEllipse
 10
848.081867244955
 20
3.66403429260572
 30
0.0
 11
-0.09741494644129034
 21
0.1746892004041456
 31
0.0
210
0.0
220
0.0
230
1.0
 40
0.5672183927595275
 41
2.364703013104216
 42
3.935499339906362
1001
PE_URL
1000

  0
LINE
  5
CF8
102
{ACAD_REACTORS
102
}
330
B96
100
AcDbEntity
  8
0
  6
Continuous
 62
     7
370
     5
100
AcDbLine
 10
848.220820082237
 20
3.580968435764589
 30
0.0
 11
848.220820082237
 21
4.234068385210776
 31
0.0
1001
PE_URL
1000

  0
ARC
  5
CF9
102
{ACAD_REACTORS
102
}
330
B96
100
AcDbEntity
  8
0
  6
Continuous
 62
     7
370
     5
100
AcDbCircle
 10
841.2483097386303
 20
0.5533982109427598
 30
0.0
 40
0.0873418394856741
100
AcDbArc
 50
170.7859630107519
 51
309.2032852342249
1001
PE_URL
1000

  0
ARC
  5
CFA
102
{ACAD_REACTORS
102
}
330
B96
100
AcDbEntity
  8
0
  6
Continuous
 62
     7
370
     5
100
AcDbCircle
 10
859.8175872213196
 20
10.32356950123176
 30
0.0
 40
0.1005954471807688
100
AcDbArc
 50
234.3824225233182
 51
294.3071190452326
1001
PE_URL
1000

  0
ARC
  5
CFB
102
{ACAD_REACTORS
102
}
330
B96
100
AcDbEntity
  8
0
  6
Continuous
 62
     7
370
     5
100
AcDbCircle
 10
859.8589117978499
 20
10.3951201224063
 30
0.0
 40
0.1005878556989259
100
AcDbArc
 50
5.694799249023252
 51
65.62534170592365
1001
PE_URL
1000

  0
ARC
  5
CFC
102
{ACAD_REACTORS
102
}
330
B96
100
AcDbEntity
  8
0
  6
Continuous
 62
     7
370
     5
100
AcDbCircle
 10
859.8589117978499
 20
41.0970546493063
 30
0.0
 40
0.1005878556988379
100
AcDbArc
 50
5.694799251110954
 51
65.62534170621856
1001
PE_URL
1000

  0
ARC
  5
CFD
102
{ACAD_REACTORS
102
}
330
B96
100
AcDbEntity
  8
0
  6
Continuous
 62
     7
370
     5
100
AcDbCircle
 10
842.1399176916548
 20
0.1184681034446839
 30
0.0
 40
0.100595447180329
100
AcDbArc
 50
234.3824225219252
 51
294.3071190445244
1001
PE_URL
1000

  0
ARC
  5
CFE
102
{ACAD_REACTORS
102
}
330
B96
100
AcDbEntity
  8
0
  6
Continuous
 62
     7
370
     5
100
AcDbCircle
 10
842.0227496697207
 20
0.1184681034446839
 30
0.0
 40
0.1005954471799664
100
AcDbArc
 50
245.6928809506098
 51
305.6175774706607
1001
PE_URL
1000

  0
ARC
  5
CFF
102
{ACAD_REACTORS
102
}
330
B96
100
AcDbEntity
  8
0
  6
Continuous
 62
     7
370
     5
100
AcDbCircle
 10
859.805287454963
 20
41.20078954139353
 30
0.0
 40
0.0959051096936088
100
AcDbArc
 50
352.7441705860842
 51
55.94364901804659
1001
PE_URL
1000

  0
ENDBLK
  5
D01
330
B96
100
AcDbEntity
  8
0
100
AcDbBlockEnd
  0
BLOCK
  5
B9C
330
B9B
100
AcDbEntity
  8
0
100
AcDbBlockBegin
  2
_OPEN30
 70
     0
 10
0.0
 20
0.0
 30
0.0
  3
_OPEN30
  1

  0
LINE
  5
B9D
330
B9B
100
AcDbEntity
  8
0
  6
ByBlock
 62
     0
100
AcDbLine
 10
-1.0
 20
0.26794919
 30
0.0
 11
0.0
 21
0.0
 31
0.0
  0
LINE
  5
B9E
330
B9B
100
AcDbEntity
  8
0
  6
ByBlock
 62
     0
100
AcDbLine
 10
0.0
 20
0.0
 30
0.0
 11
-1.0
 21
-0.26794919
 31
0.0
  0
LINE
  5
B9F
330
B9B
100
AcDbEntity
  8
0
  6
ByBlock
 62
     0
100
AcDbLine
 10
0.0
 20
0.0
 30
0.0
 11
-1.0
 21
0.0
 31
0.0
  0
ENDBLK
  5
BA0
330
B9B
100
AcDbEntity
  8
0
100
AcDbBlockEnd
  0
ENDSEC
  0
SECTION
  2
ENTITIES
  0
MTEXT
  5
A46
330
1F
100
AcDbEntity
  8
寸法線
100
AcDbMText
 10
397.0814959062242
 20
147.515599784641
 30
0.0
 40
11.66666666666667
 41
273.3522079092452
 71
     1
 72
     5
  1
{MPP-10/1200/FW/R}
 73
     1
 44
1.0
1001
ACAD
1000
ACAD_MTEXT_DEFINED_HEIGHT_BEGIN
1070
    46
1040
11.66666666666667
1000
ACAD_MTEXT_DEFINED_HEIGHT_END
  0
INSERT
  5
D02
330
1F
100
AcDbEntity
  8
0
100
AcDbBlockReference
  2
A$C16857
 10
50.99532342782021
 20
138.9695686581408
 30
0.0
  0
ENDSEC
  0
SECTION
  2
OBJECTS
  0
DICTIONARY
  5
C
330
0
100
AcDbDictionary
281
     1
  3
ACAD_DETAILVIEWSTYLE
350
697
  3
ACAD_GROUP
350
D
  3
ACAD_LAYOUT
350
1A
  3
ACAD_MLINESTYLE
350
17
  3
ACAD_PLOTSETTINGS
350
19
  3
ACAD_PLOTSTYLENAME
350
E
  3
ACAD_SCALELIST
350
47
  3
ACAD_SECTIONVIEWSTYLE
350
698
  3
AcDbVariableDictionary
350
692
  3
APPDATA
350
31F
  3
DWGPROPS
350
D03
  0
DICTIONARY
  5
A41
330
2
100
AcDbDictionary
280
     1
281
     1
  3
ACAD_LAYERSTATES
360
A42
  0
DICTIONARY
  5
A22
330
A21
100
AcDbDictionary
280
     1
281
     1
  3
ADSK_XREC_LAYER_RECONCILED
360
A23
  0
DICTIONARY
  5
697
102
{ACAD_REACTORS
330
C
102
}
330
C
100
AcDbDictionary
281
     1
  0
DICTIONARY
  5
D
102
{ACAD_REACTORS
330
C
102
}
330
C
100
AcDbDictionary
281
     1
  0
DICTIONARY
  5
1A
102
{ACAD_REACTORS
330
C
102
}
330
C
100
AcDbDictionary
281
     1
  3
Layout1
350
1E
  3
Layout2
350
26
  3
Model
350
22
  0
DICTIONARY
  5
17
102
{ACAD_REACTORS
330
C
102
}
330
C
100
AcDbDictionary
281
     1
  3
Standard
350
18
  0
DICTIONARY
  5
19
102
{ACAD_REACTORS
330
C
102
}
330
C
100
AcDbDictionary
281
     1
  0
ACDBDICTIONARYWDFLT
  5
E
102
{ACAD_REACTORS
330
C
102
}
330
C
100
AcDbDictionary
281
     1
  3
Normal
350
F
100
AcDbDictionaryWithDefault
340
F
  0
DICTIONARY
  5
47
102
{ACAD_REACTORS
330
C
102
}
330
C
100
AcDbDictionary
281
     1
  3
A0
350
48
  3
A1
350
49
  3
A2
350
4A
  3
A3
350
4B
  3
A4
350
4C
  3
A5
350
4D
  3
A6
350
4E
  3
A7
350
4F
  3
A8
350
50
  3
A9
350
51
  3
B0
350
52
  3
B1
350
53
  3
B2
350
54
  3
B3
350
55
  3
B4
350
56
  3
B5
350
57
  3
B6
350
58
  3
B7
350
59
  3
B8
350
5A
  3
B9
350
5B
  3
C0
350
5C
  3
C1
350
5D
  3
C2
350
5E
  3
C3
350
5F
  3
C4
350
60
  3
C5
350
61
  3
C6
350
62
  3
C7
350
63
  3
C8
350
64
  3
C9
350
65
  3
D0
350
66
  3
D1
350
67
  3
D2
350
68
  0
DICTIONARY
  5
698
102
{ACAD_REACTORS
330
C
102
}
330
C
100
AcDbDictionary
281
     1
  0
DICTIONARY
  5
692
102
{ACAD_REACTORS
330
C
102
}
330
C
100
AcDbDictionary
281
     1
  0
DICTIONARY
  5
31F
102
{ACAD_REACTORS
330
C
102
}
330
C
100
AcDbDictionary
281
     1
  0
XRECORD
  5
D03
102
{ACAD_REACTORS
330
C
102
}
330
C
100
AcDbXrecord
280
     1
  1
DWGPROPS COOKIE
  2

  3

  4

  6

  7

  8
ModuleX
  9

300
=
301
=
302
=
303
=
304
=
305
=
306
=
307
=
308
=
309
=
 40
0.0
 41
2458682.158262257
 42
2459611.297514595
  1

 90
        0
  0
DICTIONARY
  5
A42
102
{ACAD_REACTORS
330
A41
102
}
330
A41
100
AcDbDictionary
281
     1
  0
XRECORD
  5
A23
102
{ACAD_REACTORS
330
A22
102
}
330
A22
100
AcDbXrecord
280
     1
290
     1
  0
LAYOUT
  5
1E
102
{ACAD_REACTORS
330
1A
102
}
330
1A
100
AcDbPlotSettings
  1

  2
none_device
  4

  6

 40
0.0
 41
0.0
 42
0.0
 43
0.0
 44
0.0
 45
0.0
 46
0.0
 47
0.0
 48
0.0
 49
0.0
140
0.0
141
0.0
142
1.0
143
1.0
 70
   688
 72
     1
 73
     0
 74
     5
  7

 75
    16
147
1.0
148
0.0
149
0.0
100
AcDbLayout
  1
Layout1
 70
     1
 71
     1
 10
0.0
 20
0.0
 11
420.0
 21
297.0
 12
0.0
 22
0.0
 32
0.0
 14
1.000000000000000E+20
 24
1.000000000000000E+20
 34
1.000000000000000E+20
 15
-1.000000000000000E+20
 25
-1.000000000000000E+20
 35
-1.000000000000000E+20
146
0.0
 13
0.0
 23
0.0
 33
0.0
 16
1.0
 26
0.0
 36
0.0
 17
0.0
 27
1.0
 37
0.0
 76
     0
330
1B
  0
LAYOUT
  5
26
102
{ACAD_REACTORS
330
1A
102
}
330
1A
100
AcDbPlotSettings
  1

  2
none_device
  4

  6

 40
0.0
 41
0.0
 42
0.0
 43
0.0
 44
0.0
 45
0.0
 46
0.0
 47
0.0
 48
0.0
 49
0.0
140
0.0
141
0.0
142
1.0
143
1.0
 70
   688
 72
     1
 73
     0
 74
     5
  7

 75
    16
147
1.0
148
0.0
149
0.0
100
AcDbLayout
  1
Layout2
 70
     1
 71
     2
 10
0.0
 20
0.0
 11
0.0
 21
0.0
 12
0.0
 22
0.0
 32
0.0
 14
0.0
 24
0.0
 34
0.0
 15
0.0
 25
0.0
 35
0.0
146
0.0
 13
0.0
 23
0.0
 33
0.0
 16
1.0
 26
0.0
 36
0.0
 17
0.0
 27
1.0
 37
0.0
 76
     0
330
23
  0
LAYOUT
  5
22
102
{ACAD_REACTORS
330
1A
102
}
330
1A
100
AcDbPlotSettings
  1

  2
none_device
  4
Letter_(8.50_x_11.00_Inches)
  6

 40
6.35
 41
6.35
 42
6.35000508
 43
6.35000508
 44
215.9
 45
279.4
 46
0.0
 47
0.0
 48
0.0
 49
0.0
140
0.0
141
0.0
142
1.0
143
1.0
 70
  1712
 72
     1
 73
     0
 74
     0
  7

 75
     0
147
1.0
148
0.0
149
0.0
100
AcDbLayout
  1
Model
 70
     1
 71
     0
 10
0.0
 20
0.0
 11
1189.0
 21
841.0
 12
0.0
 22
0.0
 32
0.0
 14
50.99532342782015
 24
135.8489331179744
 34
0.0
 15
910.9543268570125
 25
666.2843535508784
 35
0.0
146
0.0
 13
0.0
 23
0.0
 33
0.0
 16
1.0
 26
0.0
 36
0.0
 17
0.0
 27
1.0
 37
0.0
 76
     0
330
1F
331
29
  0
MLINESTYLE
  5
18
102
{ACAD_REACTORS
330
17
102
}
330
17
100
AcDbMlineStyle
  2
Standard
 70
     0
  3

 62
   256
 51
90.0
 52
90.0
 71
     2
 49
0.5
 62
   256
  6
BYLAYER
 49
-0.5
 62
   256
  6
BYLAYER
  0
ACDBPLACEHOLDER
  5
F
102
{ACAD_REACTORS
330
E
102
}
330
E
  0
SCALE
  5
48
102
{ACAD_REACTORS
330
47
102
}
330
47
100
AcDbScale
 70
     0
300
1:1
140
1.0
141
1.0
290
     1
  0
SCALE
  5
49
102
{ACAD_REACTORS
330
47
102
}
330
47
100
AcDbScale
 70
     0
300
1:2
140
1.0
141
2.0
290
     0
  0
SCALE
  5
4A
102
{ACAD_REACTORS
330
47
102
}
330
47
100
AcDbScale
 70
     0
300
1:4
140
1.0
141
4.0
290
     0
  0
SCALE
  5
4B
102
{ACAD_REACTORS
330
47
102
}
330
47
100
AcDbScale
 70
     0
300
1:5
140
1.0
141
5.0
290
     0
  0
SCALE
  5
4C
102
{ACAD_REACTORS
330
47
102
}
330
47
100
AcDbScale
 70
     0
300
1:8
140
1.0
141
8.0
290
     0
  0
SCALE
  5
4D
102
{ACAD_REACTORS
330
47
102
}
330
47
100
AcDbScale
 70
     0
300
1:10
140
1.0
141
10.0
290
     0
  0
SCALE
  5
4E
102
{ACAD_REACTORS
330
47
102
}
330
47
100
AcDbScale
 70
     0
300
1:16
140
1.0
141
16.0
290
     0
  0
SCALE
  5
4F
102
{ACAD_REACTORS
330
47
102
}
330
47
100
AcDbScale
 70
     0
300
1:20
140
1.0
141
20.0
290
     0
  0
SCALE
  5
50
102
{ACAD_REACTORS
330
47
102
}
330
47
100
AcDbScale
 70
     0
300
1:30
140
1.0
141
30.0
290
     0
  0
SCALE
  5
51
102
{ACAD_REACTORS
330
47
102
}
330
47
100
AcDbScale
 70
     0
300
1:40
140
1.0
141
40.0
290
     0
  0
SCALE
  5
52
102
{ACAD_REACTORS
330
47
102
}
330
47
100
AcDbScale
 70
     0
300
1:50
140
1.0
141
50.0
290
     0
  0
SCALE
  5
53
102
{ACAD_REACTORS
330
47
102
}
330
47
100
AcDbScale
 70
     0
300
1:100
140
1.0
141
100.0
290
     0
  0
SCALE
  5
54
102
{ACAD_REACTORS
330
47
102
}
330
47
100
AcDbScale
 70
     0
300
2:1
140
2.0
141
1.0
290
     0
  0
SCALE
  5
55
102
{ACAD_REACTORS
330
47
102
}
330
47
100
AcDbScale
 70
     0
300
4:1
140
4.0
141
1.0
290
     0
  0
SCALE
  5
56
102
{ACAD_REACTORS
330
47
102
}
330
47
100
AcDbScale
 70
     0
300
8:1
140
8.0
141
1.0
290
     0
  0
SCALE
  5
57
102
{ACAD_REACTORS
330
47
102
}
330
47
100
AcDbScale
 70
     0
300
10:1
140
10.0
141
1.0
290
     0
  0
SCALE
  5
58
102
{ACAD_REACTORS
330
47
102
}
330
47
100
AcDbScale
 70
     0
300
100:1
140
100.0
141
1.0
290
     0
  0
SCALE
  5
59
102
{ACAD_REACTORS
330
47
102
}
330
47
100
AcDbScale
 70
     0
300
1/128" = 1'-0"
140
0.0078125
141
12.0
290
     0
  0
SCALE
  5
5A
102
{ACAD_REACTORS
330
47
102
}
330
47
100
AcDbScale
 70
     0
300
1/64" = 1'-0"
140
0.015625
141
12.0
290
     0
  0
SCALE
  5
5B
102
{ACAD_REACTORS
330
47
102
}
330
47
100
AcDbScale
 70
     0
300
1/32" = 1'-0"
140
0.03125
141
12.0
290
     0
  0
SCALE
  5
5C
102
{ACAD_REACTORS
330
47
102
}
330
47
100
AcDbScale
 70
     0
300
1/16" = 1'-0"
140
0.0625
141
12.0
290
     0
  0
SCALE
  5
5D
102
{ACAD_REACTORS
330
47
102
}
330
47
100
AcDbScale
 70
     0
300
3/32" = 1'-0"
140
0.09375
141
12.0
290
     0
  0
SCALE
  5
5E
102
{ACAD_REACTORS
330
47
102
}
330
47
100
AcDbScale
 70
     0
300
1/8" = 1'-0"
140
0.125
141
12.0
290
     0
  0
SCALE
  5
5F
102
{ACAD_REACTORS
330
47
102
}
330
47
100
AcDbScale
 70
     0
300
3/16" = 1'-0"
140
0.1875
141
12.0
290
     0
  0
SCALE
  5
60
102
{ACAD_REACTORS
330
47
102
}
330
47
100
AcDbScale
 70
     0
300
1/4" = 1'-0"
140
0.25
141
12.0
290
     0
  0
SCALE
  5
61
102
{ACAD_REACTORS
330
47
102
}
330
47
100
AcDbScale
 70
     0
300
3/8" = 1'-0"
140
0.375
141
12.0
290
     0
  0
SCALE
  5
62
102
{ACAD_REACTORS
330
47
102
}
330
47
100
AcDbScale
 70
     0
300
1/2" = 1'-0"
140
0.5
141
12.0
290
     0
  0
SCALE
  5
63
102
{ACAD_REACTORS
330
47
102
}
330
47
100
AcDbScale
 70
     0
300
3/4" = 1'-0"
140
0.75
141
12.0
290
     0
  0
SCALE
  5
64
102
{ACAD_REACTORS
330
47
102
}
330
47
100
AcDbScale
 70
     0
300
1" = 1'-0"
140
1.0
141
12.0
290
     0
  0
SCALE
  5
65
102
{ACAD_REACTORS
330
47
102
}
330
47
100
AcDbScale
 70
     0
300
1-1/2" = 1'-0"
140
1.5
141
12.0
290
     0
  0
SCALE
  5
66
102
{ACAD_REACTORS
330
47
102
}
330
47
100
AcDbScale
 70
     0
300
3" = 1'-0"
140
3.0
141
12.0
290
     0
  0
SCALE
  5
67
102
{ACAD_REACTORS
330
47
102
}
330
47
100
AcDbScale
 70
     0
300
6" = 1'-0"
140
6.0
141
12.0
290
     0
  0
SCALE
  5
68
102
{ACAD_REACTORS
330
47
102
}
330
47
100
AcDbScale
 70
     0
300
1'-0" = 1'-0"
140
12.0
141
12.0
290
     0
  0
ENDSEC
  0
EOF
