  0
SECTION
  2
HEADER
  9
$ACADVER
  1
AC1015
  9
$ACADMAINTVER
 70
     6
  9
$DWGCODEPAGE
  3
ANSI_932
  9
$INSBASE
 10
0.0
 20
0.0
 30
0.0
  9
$EXTMIN
 10
3755.880316270192
 20
-16604.39094232373
 30
0.0
  9
$EXTMAX
 10
3855.840316270192
 20
-16495.32086189193
 30
0.0
  9
$LIMMIN
 10
0.0
 20
0.0
  9
$LIMMAX
 10
420.0
 20
297.0
  9
$ORTHOMODE
 70
     0
  9
$REGENMODE
 70
     1
  9
$FILLMODE
 70
     1
  9
$QTEXTMODE
 70
     0
  9
$MIRRTEXT
 70
     1
  9
$LTSCALE
 40
5.0
  9
$ATTMODE
 70
     0
  9
$TEXTSIZE
 40
3.5
  9
$TRACEWID
 40
1.0
  9
$TEXTSTYLE
  7
STANDARD
  9
$CLAYER
  8
0
  9
$CELTYPE
  6
BYLAYER
  9
$CECOLOR
 62
   256
  9
$CELTSCALE
 40
1.0
  9
$DISPSILH
 70
     0
  9
$DIMSCALE
 40
1.0
  9
$DIMASZ
 40
3.5
  9
$DIMEXO
 40
1.0
  9
$DIMDLI
 40
3.0
  9
$DIMRND
 40
0.0
  9
$DIMDLE
 40
0.0
  9
$DIMEXE
 40
1.0
  9
$DIMTP
 40
0.0
  9
$DIMTM
 40
0.0
  9
$DIMTXT
 40
2.5
  9
$DIMCEN
 40
0.0
  9
$DIMTSZ
 40
0.0
  9
$DIMTOL
 70
     0
  9
$DIMLIM
 70
     0
  9
$DIMTIH
 70
     0
  9
$DIMTOH
 70
     0
  9
$DIMSE1
 70
     0
  9
$DIMSE2
 70
     0
  9
$DIMTAD
 70
     3
  9
$DIMZIN
 70
     8
  9
$DIMBLK
  1

  9
$DIMASO
 70
     1
  9
$DIMSHO
 70
     0
  9
$DIMPOST
  1

  9
$DIMAPOST
  1

  9
$DIMALT
 70
     0
  9
$DIMALTD
 70
     0
  9
$DIMALTF
 40
25.4
  9
$DIMLFAC
 40
1.0
  9
$DIMTOFL
 70
     0
  9
$DIMTVP
 40
0.0
  9
$DIMTIX
 70
     0
  9
$DIMSOXD
 70
     0
  9
$DIMSAH
 70
     1
  9
$DIMBLK1
  1
OPEN
  9
$DIMBLK2
  1
OPEN
  9
$DIMSTYLE
  2
ｺﾋﾟｰ - STANDARD
  9
$DIMCLRD
 70
     8
  9
$DIMCLRE
 70
     8
  9
$DIMCLRT
 70
   256
  9
$DIMTFAC
 40
1.0
  9
$DIMGAP
 40
1.0
  9
$DIMJUST
 70
     0
  9
$DIMSD1
 70
     0
  9
$DIMSD2
 70
     0
  9
$DIMTOLJ
 70
     1
  9
$DIMTZIN
 70
     0
  9
$DIMALTZ
 70
     0
  9
$DIMALTTZ
 70
     0
  9
$DIMUPT
 70
     0
  9
$DIMDEC
 70
     2
  9
$DIMTDEC
 70
     2
  9
$DIMALTU
 70
     2
  9
$DIMALTTD
 70
     0
  9
$DIMTXSTY
  7
STANDARD
  9
$DIMAUNIT
 70
     0
  9
$DIMADEC
 70
     2
  9
$DIMALTRND
 40
0.0
  9
$DIMAZIN
 70
     2
  9
$DIMDSEP
 70
    46
  9
$DIMATFIT
 70
     3
  9
$DIMFRAC
 70
     0
  9
$DIMLDRBLK
  1
OPEN
  9
$DIMLUNIT
 70
     2
  9
$DIMLWD
 70
    -2
  9
$DIMLWE
 70
    -2
  9
$DIMTMOVE
 70
     0
  9
$LUNITS
 70
     2
  9
$LUPREC
 70
     2
  9
$SKETCHINC
 40
0.1
  9
$FILLETRAD
 40
2.0
  9
$AUNITS
 70
     0
  9
$AUPREC
 70
     1
  9
$MENU
  1
FM
  9
$ELEVATION
 40
0.0
  9
$PELEVATION
 40
0.0
  9
$THICKNESS
 40
0.0
  9
$LIMCHECK
 70
     0
  9
$CHAMFERA
 40
0.0
  9
$CHAMFERB
 40
0.0
  9
$CHAMFERC
 40
0.0
  9
$CHAMFERD
 40
0.0
  9
$SKPOLY
 70
     0
  9
$TDCREATE
 40
2448636.619629618
  9
$TDUCREATE
 40
2448636.244629618
  9
$TDUPDATE
 40
2458075.665921459
  9
$TDUUPDATE
 40
2458075.290921459
  9
$TDINDWG
 40
91.8130510532
  9
$TDUSRTIMER
 40
2458075.28947478
  9
$USRTIMER
 70
     1
  9
$ANGBASE
 50
0.0
  9
$ANGDIR
 70
     0
  9
$PDMODE
 70
     3
  9
$PDSIZE
 40
0.0
  9
$PLINEWID
 40
0.0
  9
$SPLFRAME
 70
     0
  9
$SPLINETYPE
 70
     6
  9
$SPLINESEGS
 70
     8
  9
$HANDSEED
  5
37C5FD
  9
$SURFTAB1
 70
     6
  9
$SURFTAB2
 70
     6
  9
$SURFTYPE
 70
     6
  9
$SURFU
 70
     6
  9
$SURFV
 70
     6
  9
$UCSBASE
  2

  9
$UCSNAME
  2

  9
$UCSORG
 10
0.0
 20
0.0
 30
0.0
  9
$UCSXDIR
 10
1.0
 20
0.0
 30
0.0
  9
$UCSYDIR
 10
0.0
 20
1.0
 30
0.0
  9
$UCSORTHOREF
  2

  9
$UCSORTHOVIEW
 70
     0
  9
$UCSORGTOP
 10
0.0
 20
0.0
 30
0.0
  9
$UCSORGBOTTOM
 10
0.0
 20
0.0
 30
0.0
  9
$UCSORGLEFT
 10
0.0
 20
0.0
 30
0.0
  9
$UCSORGRIGHT
 10
0.0
 20
0.0
 30
0.0
  9
$UCSORGFRONT
 10
0.0
 20
0.0
 30
0.0
  9
$UCSORGBACK
 10
0.0
 20
0.0
 30
0.0
  9
$PUCSBASE
  2

  9
$PUCSNAME
  2

  9
$PUCSORG
 10
0.0
 20
0.0
 30
0.0
  9
$PUCSXDIR
 10
1.0
 20
0.0
 30
0.0
  9
$PUCSYDIR
 10
0.0
 20
1.0
 30
0.0
  9
$PUCSORTHOREF
  2

  9
$PUCSORTHOVIEW
 70
     0
  9
$PUCSORGTOP
 10
0.0
 20
0.0
 30
0.0
  9
$PUCSORGBOTTOM
 10
0.0
 20
0.0
 30
0.0
  9
$PUCSORGLEFT
 10
0.0
 20
0.0
 30
0.0
  9
$PUCSORGRIGHT
 10
0.0
 20
0.0
 30
0.0
  9
$PUCSORGFRONT
 10
0.0
 20
0.0
 30
0.0
  9
$PUCSORGBACK
 10
0.0
 20
0.0
 30
0.0
  9
$USERI1
 70
     0
  9
$USERI2
 70
     0
  9
$USERI3
 70
     0
  9
$USERI4
 70
     0
  9
$USERI5
 70
     0
  9
$USERR1
 40
0.0
  9
$USERR2
 40
0.0
  9
$USERR3
 40
0.0
  9
$USERR4
 40
0.0
  9
$USERR5
 40
0.0
  9
$WORLDVIEW
 70
     0
  9
$SHADEDGE
 70
     3
  9
$SHADEDIF
 70
    70
  9
$TILEMODE
 70
     1
  9
$MAXACTVP
 70
    16
  9
$PINSBASE
 10
0.0
 20
0.0
 30
0.0
  9
$PLIMCHECK
 70
     0
  9
$PEXTMIN
 10
1.049999952316284
 20
0.7999999523162842
 30
0.0
  9
$PEXTMAX
 10
9.44999957084656
 20
7.199999570846558
 30
0.0
  9
$PLIMMIN
 10
-0.2500002402958907
 20
-0.2499999962453767
  9
$PLIMMAX
 10
10.74999951940822
 20
8.249999763458733
  9
$UNITMODE
 70
     0
  9
$VISRETAIN
 70
     0
  9
$PLINEGEN
 70
     0
  9
$PSLTSCALE
 70
     0
  9
$TREEDEPTH
 70
  3020
  9
$CMLSTYLE
  2
STANDARD
  9
$CMLJUST
 70
     0
  9
$CMLSCALE
 40
1.0
  9
$PROXYGRAPHICS
 70
     1
  9
$MEASUREMENT
 70
     0
  9
$CELWEIGHT
370
    -1
  9
$ENDCAPS
280
     0
  9
$JOINSTYLE
280
     0
  9
$LWDISPLAY
290
     0
  9
$INSUNITS
 70
     0
  9
$HYPERLINKBASE
  1

  9
$STYLESHEET
  1
spax form.ctb
  9
$XEDIT
290
     1
  9
$CEPSNTYPE
380
     0
  9
$PSTYLEMODE
290
     1
  9
$FINGERPRINTGUID
  2
{BBAEEBA6-8B94-11D3-9160-00E0294F7E09}
  9
$VERSIONGUID
  2
{2964571D-4079-4CCD-B9B4-881809C88FC7}
  9
$EXTNAMES
290
     1
  9
$PSVPSCALE
 40
0.0
  9
$OLESTARTUP
290
     0
  0
ENDSEC
  0
SECTION
  2
CLASSES
  0
CLASS
  1
LWPOLYLINE
  2
AcDbPolyline
  3
ObjectDBX Classes
 90
        0
280
     0
281
     1
  0
CLASS
  1
ACDBDICTIONARYWDFLT
  2
AcDbDictionaryWithDefault
  3
ObjectDBX Classes
 90
        0
280
     0
281
     0
  0
CLASS
  1
ACDBPLACEHOLDER
  2
AcDbPlaceHolder
  3
ObjectDBX Classes
 90
        0
280
     0
281
     0
  0
CLASS
  1
LAYOUT
  2
AcDbLayout
  3
ObjectDBX Classes
 90
        0
280
     0
281
     0
  0
CLASS
  1
DICTIONARYVAR
  2
AcDbDictionaryVar
  3
ObjectDBX Classes
 90
        0
280
     0
281
     0
  0
CLASS
  1
MATERIAL
  2
AcDbMaterial
  3
ObjectDBX Classes
 90
     1153
280
     0
281
     0
  0
CLASS
  1
VISUALSTYLE
  2
AcDbVisualStyle
  3
ObjectDBX Classes
 90
     4095
280
     0
281
     0
  0
CLASS
  1
TABLESTYLE
  2
AcDbTableStyle
  3
ObjectDBX Classes
 90
     4095
280
     0
281
     0
  0
CLASS
  1
SCALE
  2
AcDbScale
  3
ObjectDBX Classes
 90
     1153
280
     0
281
     0
  0
CLASS
  1
MLEADERSTYLE
  2
AcDbMLeaderStyle
  3
ACDB_MLEADERSTYLE_CLASS
 90
     4095
280
     0
281
     0
  0
CLASS
  1
CELLSTYLEMAP
  2
AcDbCellStyleMap
  3
ObjectDBX Classes
 90
     1152
280
     0
281
     0
  0
CLASS
  1
SORTENTSTABLE
  2
AcDbSortentsTable
  3
ObjectDBX Classes
 90
        0
280
     0
281
     0
  0
CLASS
  1
DIMASSOC
  2
AcDbDimAssoc
  3
"AcDbDimAssoc|Product Desc:     AcDim ARX App For Dimension|Company:          Autodesk, Inc.|WEB Address:      www.autodesk.com"
 90
        0
280
     0
281
     0
  0
CLASS
  1
ACDB_RADIMOBJECTCONTEXTDATA_CLASS
  2
AcDbRadialDimensionObjectContextData
  3
ObjectDBX Classes
 90
     1153
280
     0
281
     0
  0
CLASS
  1
ACDB_DMDIMOBJECTCONTEXTDATA_CLASS
  2
AcDbDiametricDimensionObjectContextData
  3
ObjectDBX Classes
 90
     1153
280
     0
281
     0
  0
CLASS
  1
MULTILEADER
  2
AcDbMLeader
  3
ACDB_MLEADER_CLASS
 90
     1025
280
     0
281
     1
  0
CLASS
  1
RASTERVARIABLES
  2
AcDbRasterVariables
  3
ISM
 90
        0
280
     0
281
     0
  0
CLASS
  1
SUN
  2
AcDbSun
  3
SCENEOE
 90
     1153
280
     0
281
     0
  0
CLASS
  1
AEC_VARS_DWG_SETUP
  2
AecDbVarsDwgSetup
  3
AecBase60
 90
      129
280
     0
281
     0
  0
CLASS
  1
AEC_DISP_REP_2D_SECTION
  2
AecDbDispRep2dSection
  3
AecBase60
 90
      129
280
     0
281
     0
  0
CLASS
  1
AEC_DISP_PROPS_2D_SECTION
  2
AecDbDispProps2dSection
  3
AecBase60
 90
      129
280
     0
281
     0
  0
CLASS
  1
AEC_DISP_REP_CLIP_VOLUME_MODEL
  2
AecDbDispRepClipVolModel
  3
AecBase60
 90
      129
280
     0
281
     0
  0
CLASS
  1
AEC_DISP_PROPS_CLIP_VOLUME
  2
AecDbDispPropsClipVol
  3
AecBase60
 90
      129
280
     0
281
     0
  0
CLASS
  1
AEC_DISP_REP_CLIP_VOLUME_PLAN
  2
AecDbDispRepClipVolPlan
  3
AecBase60
 90
      129
280
     0
281
     0
  0
CLASS
  1
AEC_DISP_REP_CLIP_VOLUME_RESULT
  2
AecDbDispRepClipVolResult
  3
AecBase60
 90
      129
280
     0
281
     0
  0
CLASS
  1
AEC_DISP_REP_CLIP_VOLUME_RESULT_SUBDIV
  2
AecDbDispRepClipVolResSubDiv
  3
AecBase60
 90
      129
280
     0
281
     0
  0
CLASS
  1
AEC_DISP_PROPS_CLIP_VOLUME_RESULT
  2
AecDbDispPropsClipVolResSubDiv
  3
AecBase60
 90
      129
280
     0
281
     0
  0
CLASS
  1
AEC_DISP_REP_DISPLAYTHEME
  2
AecDbDispRepDisplayTheme
  3
AecBase60
 90
      129
280
     0
281
     0
  0
CLASS
  1
AEC_DISP_PROPS_DISPLAYTHEME
  2
AecDbDispPropsDisplayTheme
  3
AecBase60
 90
      129
280
     0
281
     0
  0
CLASS
  1
AEC_DISP_REP_ENT_REF
  2
AecDbDispRepEntRef
  3
AecBase60
 90
      129
280
     0
281
     0
  0
CLASS
  1
AEC_DISP_PROPS_ENT_REF
  2
AecDbDispPropsEntRef
  3
AecBase60
 90
      129
280
     0
281
     0
  0
CLASS
  1
AEC_DISP_REP_LAYOUT_CURVE
  2
AecDbDispRepLayoutCurve
  3
AecBase60
 90
      129
280
     0
281
     0
  0
CLASS
  1
AEC_DISP_PROPS_LAYOUT_CURVE
  2
AecDbDispPropsLayoutCurve
  3
AecBase60
 90
      129
280
     0
281
     0
  0
CLASS
  1
AEC_DISP_REP_LAYOUT_GRID2D
  2
AecDbDispRepLayoutGrid2d
  3
AecBase60
 90
      129
280
     0
281
     0
  0
CLASS
  1
AEC_DISP_PROPS_LAYOUT_GRID2D
  2
AecDbDispPropsLayoutGrid2d
  3
AecBase60
 90
      129
280
     0
281
     0
  0
CLASS
  1
AEC_DISP_REP_LAYOUT_GRID3D
  2
AecDbDispRepLayoutGrid3d
  3
AecBase60
 90
      129
280
     0
281
     0
  0
CLASS
  1
AEC_DISP_PROPS_LAYOUT_GRID3D
  2
AecDbDispPropsLayoutGrid3d
  3
AecBase60
 90
      129
280
     0
281
     0
  0
CLASS
  1
AEC_DISP_REP_MASKBLOCK_REF
  2
AecDbDispRepMaskBlockRef
  3
AecBase60
 90
      129
280
     0
281
     0
  0
CLASS
  1
AEC_DISP_PROPS_MASKBLOCK
  2
AecDbDispPropsMaskBlock
  3
AecBase60
 90
      129
280
     0
281
     0
  0
CLASS
  1
AEC_DISP_REP_MASKBLOCK_REF_RCP
  2
AecDbDispRepMaskBlockRefRcp
  3
AecArchBase60
 90
      129
280
     0
281
     0
  0
CLASS
  1
AEC_DISP_REP_MASS_ELEM_MODEL
  2
AecDbDispRepMassElemModel
  3
AecBase60
 90
      129
280
     0
281
     0
  0
CLASS
  1
AEC_DISP_PROPS_MASS_ELEM_MODEL
  2
AecDbDispPropsMassElem
  3
AecBase60
 90
      129
280
     0
281
     0
  0
CLASS
  1
AEC_DISP_REP_MASS_ELEM_SCHEM
  2
AecDbDispRepMassElemSchem
  3
AecBase60
 90
      129
280
     0
281
     0
  0
CLASS
  1
AEC_DISPREPAECDBDISPREPMASSELEMPLAN50
  2
AecDbDispRepMassElemPlan50
  3
AecArchDACHBase60
 90
      129
280
     0
281
     0
  0
CLASS
  1
AEC_DISPROPSMASSELEMPLANCOMMON
  2
AecDbDispPropsMassElemPlanCommon
  3
AecArchDACHBase60
 90
      129
280
     0
281
     0
  0
CLASS
  1
AEC_DISPREPAECDBDISPREPMASSELEMPLAN100
  2
AecDbDispRepMassElemPlan100
  3
AecArchDACHBase60
 90
      129
280
     0
281
     0
  0
CLASS
  1
AEC_DISP_REP_MASS_ELEM_RCP
  2
AecDbDispRepMassElemRcp
  3
AecArchBase60
 90
      129
280
     0
281
     0
  0
CLASS
  1
AEC_DISP_REP_MASS_GROUP_MODEL
  2
AecDbDispRepMassGroupModel
  3
AecBase60
 90
      129
280
     0
281
     0
  0
CLASS
  1
AEC_DISP_PROPS_MASS_GROUP
  2
AecDbDispPropsMassGroup
  3
AecBase60
 90
      129
280
     0
281
     0
  0
CLASS
  1
AEC_DISP_REP_MASS_GROUP_PLAN
  2
AecDbDispRepMassGroupPlan
  3
AecBase60
 90
      129
280
     0
281
     0
  0
CLASS
  1
AEC_DISPREPAECDBDISPREPMASSGROUPPLAN50
  2
AecDbDispRepMassGroupPlan50
  3
AecArchDACHBase60
 90
      129
280
     0
281
     0
  0
CLASS
  1
AEC_DISPROPSMASSGROUPPLANCOMMON
  2
AecDbDispPropsMassGroupPlanCommon
  3
AecArchDACHBase60
 90
      129
280
     0
281
     0
  0
CLASS
  1
AEC_DISPREPAECDBDISPREPMASSGROUPPLAN100
  2
AecDbDispRepMassGroupPlan100
  3
AecArchDACHBase60
 90
      129
280
     0
281
     0
  0
CLASS
  1
AEC_DISP_REP_MASS_GROUP_RCP
  2
AecDbDispRepMassGroupRcp
  3
AecArchBase60
 90
      129
280
     0
281
     0
  0
CLASS
  1
AEC_DISP_REP_MVBLOCK_REF
  2
AecDbDispRepMvBlockRef
  3
AecBase60
 90
      129
280
     0
281
     0
  0
CLASS
  1
AEC_DISP_REP_MVBLOCK_REF_MODEL
  2
AecDbDispRepMvBlockRefModel
  3
AecBase60
 90
      129
280
     0
281
     0
  0
CLASS
  1
AEC_AECDBDISPREPMVBLOCKREFPLAN100
  2
AecDbDispRepMvBlockRefPlan100
  3
AecBase60
 90
      129
280
     0
281
     0
  0
CLASS
  1
AEC_AECDBDISPREPMVBLOCKREFPLAN50
  2
AecDbDispRepMvBlockRefPlan50
  3
AecBase60
 90
      129
280
     0
281
     0
  0
CLASS
  1
AEC_DISP_REP_POLYGON_MODEL
  2
AecDbDispRepPolygonModel
  3
AecBase60
 90
      129
280
     0
281
     0
  0
CLASS
  1
AEC_DISP_PROPS_POLYGON_MODEL
  2
AecDbDispPropsPolygonModel
  3
AecBase60
 90
      129
280
     0
281
     0
  0
CLASS
  1
AEC_DISP_REP_POLYGON_TRUECOLOUR
  2
AecDbDispRepPolygonTrueColour
  3
AecBase60
 90
      129
280
     0
281
     0
  0
CLASS
  1
AEC_DISP_PROPS_POLYGON_TRUECOLOUR
  2
AecDbDispPropsPolygonTrueColour
  3
AecBase60
 90
      129
280
     0
281
     0
  0
CLASS
  1
AEC_DISP_REP_SLICE
  2
AecDbDispRepSlice
  3
AecBase60
 90
      129
280
     0
281
     0
  0
CLASS
  1
AEC_DISP_PROPS_SLICE
  2
AecDbDispPropsSlice
  3
AecBase60
 90
      129
280
     0
281
     0
  0
CLASS
  1
AEC_DISP_REP_ANCHOR
  2
AecDbDispRepAnchor
  3
AecBase60
 90
      129
280
     0
281
     0
  0
CLASS
  1
AEC_DISP_REP_ANCHOR_ENT_TO_NODE
  2
AecDbDispRepAnchorEntToNode
  3
AecBase60
 90
      129
280
     0
281
     0
  0
CLASS
  1
AEC_DISP_PROPS_ENT
  2
AecDbDispPropsEnt
  3
AecBase60
 90
      129
280
     0
281
     0
  0
CLASS
  1
AEC_DISP_REP_MATERIAL
  2
AecDbDispRepMaterial
  3
AecBase60
 90
      129
280
     0
281
     0
  0
CLASS
  1
AEC_DISP_PROPS_MATERIAL
  2
AecDbDispPropsMaterial
  3
AecBase60
 90
      129
280
     0
281
     0
  0
CLASS
  1
AEC_DISP_REP_EDITINPLACEPROFILE
  2
AecDbDispRepEditInPlaceProfile
  3
AecBase60
 90
      129
280
     0
281
     0
  0
CLASS
  1
AEC_DISP_PROPS_EDITINPLACEPROFILE_MODEL
  2
AecDbDispPropsEditInPlaceProfile
  3
AecBase60
 90
      129
280
     0
281
     0
  0
ENDSEC
  0
SECTION
  2
TABLES
  0
TABLE
  2
VPORT
  5
8
102
{ACAD_XDICTIONARY
360
372198
102
}
330
0
100
AcDbSymbolTable
 70
     1
  0
VPORT
  5
35C3FF
330
8
100
AcDbSymbolTableRecord
100
AcDbViewportTableRecord
  2
*Active
 70
     0
 10
0.0
 20
0.0
 11
1.0
 21
1.0
 12
3805.860316270192
 22
-16549.85590210783
 13
0.0
 23
0.0
 14
1.0
 24
1.0
 15
20.0
 25
20.0
 16
0.0
 26
0.0
 36
1.0
 17
0.0
 27
0.0
 37
0.0
 40
111.2514820404289
 41
2.237265415549598
 42
50.0
 43
0.0
 44
0.0
 50
0.0
 51
0.0
 71
    16
 72
   100
 73
     1
 74
     0
 75
     0
 76
     0
 77
     0
 78
     1
281
     0
 65
     1
110
0.0
120
0.0
130
0.0
111
1.0
121
0.0
131
0.0
112
0.0
122
1.0
132
0.0
 79
     0
146
0.0
  0
ENDTAB
  0
TABLE
  2
LTYPE
  5
5
330
0
100
AcDbSymbolTable
 70
     1
  0
LTYPE
  5
12
330
5
100
AcDbSymbolTableRecord
100
AcDbLinetypeTableRecord
  2
BYBLOCK
 70
     0
  3

 72
    65
 73
     0
 40
0.0
  0
LTYPE
  5
13
330
5
100
AcDbSymbolTableRecord
100
AcDbLinetypeTableRecord
  2
BYLAYER
 70
     0
  3

 72
    65
 73
     0
 40
0.0
  0
LTYPE
  5
14
330
5
100
AcDbSymbolTableRecord
100
AcDbLinetypeTableRecord
  2
CONTINUOUS
 70
     0
  3
Solid line
 72
    65
 73
     0
 40
0.0
  0
ENDTAB
  0
TABLE
  2
LAYER
  5
2
102
{ACAD_XDICTIONARY
360
67DE7
102
}
330
0
100
AcDbSymbolTable
 70
     4
  0
LAYER
  5
F
102
{ACAD_XDICTIONARY
360
66C5B
102
}
330
2
100
AcDbSymbolTableRecord
100
AcDbLayerTableRecord
  2
0
 70
     0
 62
     7
  6
CONTINUOUS
370
    -3
390
616
  0
LAYER
  5
36
330
2
100
AcDbSymbolTableRecord
100
AcDbLayerTableRecord
  2
DEFPOINTS
 70
     0
 62
     7
  6
CONTINUOUS
290
     0
370
    -3
390
616
  0
LAYER
  5
280
102
{ACAD_XDICTIONARY
360
66C61
102
}
330
2
100
AcDbSymbolTableRecord
100
AcDbLayerTableRecord
  2
実線
 70
     0
 62
     4
  6
CONTINUOUS
370
    -3
390
616
  0
LAYER
  5
2F4
102
{ACAD_XDICTIONARY
360
66C67
102
}
330
2
100
AcDbSymbolTableRecord
100
AcDbLayerTableRecord
  2
文字
 70
     0
 62
     7
  6
CONTINUOUS
370
    -3
390
616
  0
ENDTAB
  0
TABLE
  2
STYLE
  5
3
330
0
100
AcDbSymbolTable
 70
     1
  0
STYLE
  5
10
330
3
100
AcDbSymbolTableRecord
100
AcDbTextStyleTableRecord
  2
STANDARD
 70
     0
 40
0.0
 41
1.0
 50
0.0
 71
     0
 42
3.5
  3
MONOTXT
  4
BIGFONT
  0
ENDTAB
  0
TABLE
  2
VIEW
  5
6
330
0
100
AcDbSymbolTable
 70
     0
  0
ENDTAB
  0
TABLE
  2
UCS
  5
7
330
0
100
AcDbSymbolTable
 70
     0
  0
ENDTAB
  0
TABLE
  2
APPID
  5
9
330
0
100
AcDbSymbolTable
 70
    21
  0
APPID
  5
11
330
9
100
AcDbSymbolTableRecord
100
AcDbRegAppTableRecord
  2
ACAD
 70
     0
  0
APPID
  5
66C55
330
9
100
AcDbSymbolTableRecord
100
AcDbRegAppTableRecord
  2
ACAD_MLEADERVER
 70
     0
  0
APPID
  5
66CC8
330
9
100
AcDbSymbolTableRecord
100
AcDbRegAppTableRecord
  2
ACAD_PSEXT
 70
     0
  0
APPID
  5
67DE4
330
9
100
AcDbSymbolTableRecord
100
AcDbRegAppTableRecord
  2
ACAD_DSTYLE_DIMJAG
 70
     0
  0
APPID
  5
67DE5
330
9
100
AcDbSymbolTableRecord
100
AcDbRegAppTableRecord
  2
ACAD_DSTYLE_DIMBREAK
 70
     0
  0
APPID
  5
67DE6
330
9
100
AcDbSymbolTableRecord
100
AcDbRegAppTableRecord
  2
ACAD_DSTYLE_DIMTALN
 70
     0
  0
APPID
  5
68101
330
9
100
AcDbSymbolTableRecord
100
AcDbRegAppTableRecord
  2
ACAD_EXEMPT_FROM_CAD_STANDARDS
 70
     0
  0
APPID
  5
74C21
330
9
100
AcDbSymbolTableRecord
100
AcDbRegAppTableRecord
  2
ACAD_DSTYLE_DIMRADIAL_EXTENSION
 70
     0
  0
APPID
  5
86ADD
330
9
100
AcDbSymbolTableRecord
100
AcDbRegAppTableRecord
  2
AcAecLayerStandard
 70
     0
  0
APPID
  5
86ADE
330
9
100
AcDbSymbolTableRecord
100
AcDbRegAppTableRecord
  2
AcadAnnotative
 70
     0
  0
APPID
  5
86ADF
330
9
100
AcDbSymbolTableRecord
100
AcDbRegAppTableRecord
  2
AcadAnnotativeDecomposition
 70
     0
  0
APPID
  5
16E922
330
9
100
AcDbSymbolTableRecord
100
AcDbRegAppTableRecord
  2
ASK_MEN_XD
 70
     0
  0
APPID
  5
1A9AA5
330
9
100
AcDbSymbolTableRecord
100
AcDbRegAppTableRecord
  2
GENIUS_GENODEF_13
 70
     0
  0
APPID
  5
1A9AA6
330
9
100
AcDbSymbolTableRecord
100
AcDbRegAppTableRecord
  2
GENIUS_GENREC_14
 70
     0
  0
APPID
  5
1A9AA7
330
9
100
AcDbSymbolTableRecord
100
AcDbRegAppTableRecord
  2
GENIUS_GENOBJ-N-REC_13
 70
     0
  0
APPID
  5
35A1B1
330
9
100
AcDbSymbolTableRecord
100
AcDbRegAppTableRecord
  2
RAK
 70
     0
  0
APPID
  5
35C3C1
330
9
100
AcDbSymbolTableRecord
100
AcDbRegAppTableRecord
  2
ACAD_SPLINE_DATA
 70
     0
  0
APPID
  5
35C3C2
330
9
100
AcDbSymbolTableRecord
100
AcDbRegAppTableRecord
  2
ACAD_SPLINE_DATA2
 70
     0
  0
APPID
  5
365801
330
9
100
AcDbSymbolTableRecord
100
AcDbRegAppTableRecord
  2
AECBASE
 70
     0
  0
APPID
  5
365802
330
9
100
AcDbSymbolTableRecord
100
AcDbRegAppTableRecord
  2
AEC_2DSECTION_XDATA
 70
     0
  0
APPID
  5
365803
330
9
100
AcDbSymbolTableRecord
100
AcDbRegAppTableRecord
  2
AEC_MASSGROUP_XDADA
 70
     0
  0
ENDTAB
  0
TABLE
  2
DIMSTYLE
  5
A
330
0
100
AcDbSymbolTable
 70
     2
100
AcDbDimStyleTable
  0
DIMSTYLE
105
1CC
330
A
100
AcDbSymbolTableRecord
100
AcDbDimStyleTableRecord
  2
STANDARD
 70
     0
 41
1.5
 42
1.5
 44
1.0
 73
     0
 74
     0
 77
     3
 78
     8
 79
     2
140
2.500000000000002
141
0.0
147
1.0
171
     0
173
     1
176
     8
177
     8
178
     0
179
     2
271
     2
272
     2
274
     0
340
10
341
608
343
608
344
608
1001
ACAD_DSTYLE_DIMJAG
1070
   388
1040
1.5
1001
ACAD_DSTYLE_DIMTALN
1070
   392
1070
     0
  0
DIMSTYLE
105
1E3941
330
A
100
AcDbSymbolTableRecord
100
AcDbDimStyleTableRecord
  2
ｺﾋﾟｰ - STANDARD
 70
     0
 41
3.5
 42
1.0
 43
3.0
 44
1.0
 73
     0
 74
     0
 77
     3
 78
     8
 79
     2
140
2.5
141
0.0
147
1.0
171
     0
173
     1
176
     8
177
     8
271
     2
178
   256
179
     2
271
     2
272
     2
274
     0
340
10
341
608
343
608
344
608
1001
ACAD_DSTYLE_DIMJAG
1070
   388
1040
1.5
1001
ACAD_DSTYLE_DIMTALN
1070
   392
1070
     0
  0
ENDTAB
  0
TABLE
  2
BLOCK_RECORD
  5
1
330
0
100
AcDbSymbolTable
 70
     1
  0
BLOCK_RECORD
  5
18
102
{ACAD_XDICTIONARY
360
845D5
102
}
330
1
100
AcDbSymbolTableRecord
100
AcDbBlockTableRecord
  2
*MODEL_SPACE
340
619
  0
BLOCK_RECORD
  5
15
330
1
100
AcDbSymbolTableRecord
100
AcDbBlockTableRecord
  2
*PAPER_SPACE
340
61A
  0
BLOCK_RECORD
  5
608
330
1
100
AcDbSymbolTableRecord
100
AcDbBlockTableRecord
  2
_OPEN
340
0
  0
ENDTAB
  0
ENDSEC
  0
SECTION
  2
BLOCKS
  0
BLOCK
  5
39
330
18
100
AcDbEntity
  8
0
100
AcDbBlockBegin
  2
*MODEL_SPACE
 70
     0
 10
0.0
 20
0.0
 30
0.0
  3
*MODEL_SPACE
  1
*MODEL_SPACE
  0
ENDBLK
  5
3A
330
18
100
AcDbEntity
  8
0
100
AcDbBlockEnd
  0
BLOCK
  5
37
330
15
100
AcDbEntity
 67
     1
  8
0
100
AcDbBlockBegin
  2
*PAPER_SPACE
 70
     0
 10
0.0
 20
0.0
 30
0.0
  3
*PAPER_SPACE
  1
*PAPER_SPACE
  0
ENDBLK
  5
38
330
15
100
AcDbEntity
 67
     1
  8
0
100
AcDbBlockEnd
  0
BLOCK
  5
609
330
608
100
AcDbEntity
  8
0
100
AcDbBlockBegin
  2
_OPEN
 70
     0
 10
0.0
 20
0.0
 30
0.0
  3
_OPEN
  1
_OPEN
  0
LINE
  5
60A
330
608
100
AcDbEntity
  8
0
  6
ByBlock
 62
     0
100
AcDbLine
 10
-1.0
 20
0.1666666666666666
 30
0.0
 11
0.0
 21
0.0
 31
0.0
  0
LINE
  5
60B
330
608
100
AcDbEntity
  8
0
  6
ByBlock
 62
     0
100
AcDbLine
 10
0.0
 20
0.0
 30
0.0
 11
-1.0
 21
-0.1666666666666666
 31
0.0
  0
LINE
  5
60C
330
608
100
AcDbEntity
  8
0
  6
ByBlock
 62
     0
100
AcDbLine
 10
0.0
 20
0.0
 30
0.0
 11
-1.0
 21
0.0
 31
0.0
  0
ENDBLK
  5
60D
330
608
100
AcDbEntity
  8
0
100
AcDbBlockEnd
  0
ENDSEC
  0
SECTION
  2
ENTITIES
  0
TEXT
  5
11B04
330
18
100
AcDbEntity
  8
文字
100
AcDbText
 10
-1240.183388714458
 20
-1416.837204555437
 30
0.0
 40
6.75
  1

 41
1.022799999999999
100
AcDbText
  0
MTEXT
  5
12B3E
330
18
100
AcDbEntity
  8
0
100
AcDbMText
 10
-974.1891318600246
 20
-2072.131137572738
 30
0.0
 40
2.500000000000002
 41
0.0
 71
     9
 72
     1
  1
\A1;
 73
     1
 44
1.0
  0
TEXT
  5
368D41
330
18
100
AcDbEntity
  8
文字
100
AcDbText
 10
4333.9225033575
 20
-13744.70450664013
 30
0.0
 40
6.75
  1

 41
0.7
 11
4333.9225033575
 21
-13741.32950664013
 31
0.0
100
AcDbText
 73
     2
  0
TEXT
  5
368D43
330
18
100
AcDbEntity
  8
文字
100
AcDbText
 10
4333.9225033575
 20
-13763.70450664013
 30
0.0
 40
6.75
  1

 41
0.7
 11
4333.9225033575
 21
-13760.32950664013
 31
0.0
100
AcDbText
 73
     2
  0
TEXT
  5
368D44
330
18
100
AcDbEntity
  8
文字
100
AcDbText
 10
4333.9225033575
 20
-13754.20450664013
 30
0.0
 40
6.75
  1

 41
0.7
 11
4333.9225033575
 21
-13750.82950664013
 31
0.0
100
AcDbText
 73
     2
  0
TEXT
  5
368D45
330
18
100
AcDbEntity
  8
文字
100
AcDbText
 10
4333.9225033575
 20
-13725.70450664013
 30
0.0
 40
6.75
  1

 41
0.55
 11
4333.9225033575
 21
-13722.32950664013
 31
0.0
100
AcDbText
 73
     2
  0
TEXT
  5
368D47
330
18
100
AcDbEntity
  8
文字
100
AcDbText
 10
4333.9225033575
 20
-13773.20450664013
 30
0.0
 40
6.75
  1

 41
0.7
 11
4333.9225033575
 21
-13769.82950664013
 31
0.0
100
AcDbText
 73
     2
  0
TEXT
  5
368D48
330
18
100
AcDbEntity
  8
文字
100
AcDbText
 10
4333.867931730414
 20
-13792.56299031375
 30
0.0
 40
6.75
  1

 41
0.7
 11
4333.867931730414
 21
-13789.18799031375
 31
0.0
100
AcDbText
 73
     2
  0
TEXT
  5
368D4C
330
18
100
AcDbEntity
  8
文字
100
AcDbText
 10
4333.867931730414
 20
-13802.06299031374
 30
0.0
 40
6.75
  1

 41
0.7
 11
4333.867931730414
 21
-13798.68799031374
 31
0.0
100
AcDbText
 73
     2
  0
TEXT
  5
368D4F
330
18
100
AcDbEntity
  8
文字
100
AcDbText
 10
4333.867931730414
 20
-13783.06299031374
 30
0.0
 40
6.75
  1

 41
0.7
 11
4333.867931730414
 21
-13779.68799031374
 31
0.0
100
AcDbText
 73
     2
  0
TEXT
  5
378E4F
330
18
100
AcDbEntity
  8
文字
100
AcDbText
 10
3755.880316270192
 20
-16604.39094232373
 30
0.0
 40
9.0
  1
MSP-130F/PWF・PMF
 41
0.7
100
AcDbText
  0
LINE
  5
3791A3
330
18
100
AcDbEntity
  8
0
  6
Continuous
 62
     8
370
    15
100
AcDbLine
 10
3837.774110113727
 20
-16563.731168626
 30
0.0
 11
3837.774110113727
 21
-16562.91462768028
 31
0.0
  0
LINE
  5
3791A4
330
18
100
AcDbEntity
  8
0
  6
Continuous
 62
     8
370
    15
100
AcDbLine
 10
3766.774108631441
 20
-16562.91462768028
 30
0.0
 11
3766.774108631441
 21
-16563.731168626
 31
0.0
  0
LINE
  5
3791A5
330
18
100
AcDbEntity
  8
0
  6
Continuous
 62
     8
370
    15
100
AcDbLine
 10
3784.9226594797
 20
-16528.01633196452
 30
0.0
 11
3783.791289234609
 21
-16527.36320582421
 31
0.0
  0
LINE
  5
3791A6
330
18
100
AcDbEntity
  8
0
  6
Continuous
 62
     8
370
    15
100
AcDbLine
 10
3778.558698393704
 20
-16531.69016849966
 30
0.0
 11
3777.427328148613
 21
-16531.03704235935
 31
0.0
  0
LWPOLYLINE
  5
3791A7
330
18
100
AcDbEntity
  8
0
  6
Continuous
 62
     8
370
    15
100
AcDbPolyline
 90
        3
 70
   128
 43
0.0
 10
3796.883287079295
 20
-16495.71274437142
 10
3796.578559437661
 20
-16510.00686098452
 10
3796.253254255788
 20
-16525.27813295797
  0
SPLINE
  5
3791A8
330
18
100
AcDbEntity
  8
0
  6
Continuous
 62
     8
370
    15
100
AcDbSpline
210
0.0
220
0.0
230
1.0
 70
     8
 71
     3
 72
     9
 73
     5
 74
     0
 42
0.000000001
 43
0.0000000001
 40
0.0
 40
0.0
 40
0.0
 40
0.0
 40
0.4136508040251572
 40
1.0
 40
1.0
 40
1.0
 40
1.0
 10
3808.294971074829
 20
-16525.27860368857
 30
0.0
 10
3808.208165490119
 20
-16521.20236907597
 30
0.0
 10
3807.998313160896
 20
-16511.34807996802
 30
0.0
 10
3807.788152572475
 20
-16501.49185731681
 30
0.0
 10
3807.664925080429
 20
-16495.71266908992
 30
0.0
  0
LWPOLYLINE
  5
3791A9
330
18
100
AcDbEntity
  8
0
  6
Continuous
 62
     8
370
    15
100
AcDbPolyline
 90
        3
 70
   128
 43
0.0
 10
3817.475142760746
 20
-16528.27950419947
 10
3817.197160257943
 20
-16515.2765965585
 10
3816.826159660475
 20
-16497.9226244491
  0
LWPOLYLINE
  5
3791AA
330
18
100
AcDbEntity
  8
0
  6
Continuous
 62
     8
370
    15
100
AcDbPolyline
 90
        3
 70
   128
 43
0.0
 10
3787.72205842615
 20
-16497.92265524778
 10
3787.416170099821
 20
-16512.23090458341
 10
3787.073021983773
 20
-16528.28200992631
  0
LWPOLYLINE
  5
3791AB
330
18
100
AcDbEntity
  8
0
  6
Continuous
 62
     8
370
    15
100
AcDbPolyline
 90
        3
 70
   128
 43
0.0
 10
3780.711964749786
 20
-16501.96916306122
 10
3780.406063581837
 20
-16516.27802057609
 10
3780.096073840311
 20
-16530.77814089435
  0
LWPOLYLINE
  5
3791AC
330
18
100
AcDbEntity
  8
0
  6
Continuous
 62
     8
370
    15
100
AcDbPolyline
 90
        3
 70
   128
 43
0.0
 10
3824.452316126429
 20
-16530.78612727119
 10
3824.207267763743
 20
-16519.32372376618
 10
3823.836252678296
 20
-16501.96911515144
  0
SPLINE
  5
3791AD
330
18
100
AcDbEntity
  8
0
  6
Continuous
 62
     8
370
    15
100
AcDbSpline
210
0.0
220
0.0
230
1.0
 70
     8
 71
     3
 72
    11
 73
     7
 74
     0
 42
0.000000001
 43
0.0000000001
 40
0.0
 40
0.0
 40
0.0
 40
0.0
 40
0.1700123096445678
 40
0.4923261488717955
 40
0.8146849645059766
 40
1.0
 40
1.0
 40
1.0
 40
1.0
 10
3804.240617445286
 20
-16523.29711779792
 30
0.0
 10
3804.018402522437
 20
-16523.28402025439
 30
0.0
 10
3803.374906663717
 20
-16523.24609204099
 30
0.0
 10
3802.304325334333
 20
-16523.22478596966
 30
0.0
 10
3801.21348302377
 20
-16523.24423770112
 30
0.0
 10
3800.549846892931
 20
-16523.28297691167
 30
0.0
 10
3800.307601299884
 20
-16523.29711779792
 30
0.0
  0
SPLINE
  5
3791AE
330
18
100
AcDbEntity
  8
0
  6
Continuous
 62
     8
370
    15
100
AcDbSpline
210
0.0
220
0.0
230
1.0
 70
     8
 71
     3
 72
    10
 73
     6
 74
     0
 42
0.000000001
 43
0.0000000001
 40
0.0
 40
0.0
 40
0.0
 40
0.0
 40
0.2612700470390313
 40
0.7304571284617286
 40
1.0
 40
1.0
 40
1.0
 40
1.0
 10
3796.302751448824
 20
-16523.8496237914
 30
0.0
 10
3796.080095284831
 20
-16523.89560619414
 30
0.0
 10
3795.457594603919
 20
-16524.02416350199
 30
0.0
 10
3794.634553633586
 20
-16524.24493808994
 30
0.0
 10
3794.044380421155
 20
-16524.42750208464
 30
0.0
 10
3793.829041944969
 20
-16524.4941148207
 30
0.0
  0
SPLINE
  5
3791AF
330
18
100
AcDbEntity
  8
0
  6
Continuous
 62
     8
370
    15
100
AcDbSpline
210
0.0
220
0.0
230
1.0
 70
     8
 71
     3
 72
    10
 73
     6
 74
     0
 42
0.000000001
 43
0.0000000001
 40
0.0
 40
0.0
 40
0.0
 40
0.0
 40
0.2474528164665436
 40
0.716655151683311
 40
1.0
 40
1.0
 40
1.0
 40
1.0
 10
3810.719176800201
 20
-16524.4941148207
 30
0.0
 10
3810.521596511284
 20
-16524.43282674062
 30
0.0
 10
3809.949378607502
 20
-16524.25532858582
 30
0.0
 10
3809.127427228537
 20
-16524.03318687738
 30
0.0
 10
3808.486704867253
 20
-16523.89967824698
 30
0.0
 10
3808.245463674352
 20
-16523.84941032564
 30
0.0
  0
SPLINE
  5
3791B0
330
18
100
AcDbEntity
  8
0
  6
Continuous
 62
     8
370
    15
100
AcDbSpline
210
0.0
220
0.0
230
1.0
 70
     8
 71
     3
 72
    11
 73
     7
 74
     0
 42
0.000000001
 43
0.0000000001
 40
0.0
 40
0.0
 40
0.0
 40
0.0
 40
0.2825584162019996
 40
0.6225041077680586
 40
0.8847333995529595
 40
0.9999999999999998
 40
0.9999999999999998
 40
0.9999999999999998
 40
0.9999999999999998
 10
3804.744992732683
 20
-16522.93198387596
 30
0.0
 10
3804.723569891048
 20
-16522.98965351625
 30
0.0
 10
3804.676373254338
 20
-16523.11670543159
 30
0.0
 10
3804.533851816213
 20
-16523.2408703765
 30
0.0
 10
3804.393739146804
 20
-16523.30276724117
 30
0.0
 10
3804.311785745678
 20
-16523.2953576723
 30
0.0
 10
3804.286761658961
 20
-16523.29309519519
 30
0.0
  0
SPLINE
  5
3791B1
330
18
100
AcDbEntity
  8
0
  6
Continuous
 62
     8
370
    15
100
AcDbSpline
210
0.0
220
0.0
230
1.0
 70
     8
 71
     3
 72
    11
 73
     7
 74
     0
 42
0.000000001
 43
0.0000000001
 40
0.0
 40
0.0
 40
0.0
 40
0.0
 40
0.2106303414220085
 40
0.475348295653651
 40
0.8004626609542231
 40
1.0
 40
1.0
 40
1.0
 40
1.0
 10
3800.262784053393
 20
-16523.29938144867
 30
0.0
 10
3800.217614708485
 20
-16523.29714133758
 30
0.0
 10
3800.115677015302
 20
-16523.29208587889
 30
0.0
 10
3799.969514137652
 20
-16523.20803319236
 30
0.0
 10
3799.852255578894
 20
-16523.08409973305
 30
0.0
 10
3799.818735689231
 20
-16522.97472337406
 30
0.0
 10
3799.805987289608
 20
-16522.93312498136
 30
0.0
  0
SPLINE
  5
3791B2
330
18
100
AcDbEntity
  8
0
  6
Continuous
 62
     8
370
    15
100
AcDbSpline
210
0.0
220
0.0
230
1.0
 70
     8
 71
     3
 72
     9
 73
     5
 74
     0
 42
0.000000001
 43
0.0000000001
 40
0.0
 40
0.0
 40
0.0
 40
0.0
 40
0.794063926381725
 40
1.0
 40
1.0
 40
1.0
 40
1.0
 10
3804.305400444169
 20
-16523.30056736022
 30
0.0
 10
3804.28843096047
 20
-16523.29997405008
 30
0.0
 10
3804.267060535323
 20
-16523.29922686825
 30
0.0
 10
3804.245236306244
 20
-16523.29719188992
 30
0.0
 10
3804.240741910198
 20
-16523.29677281448
 30
0.0
  0
SPLINE
  5
3791B3
330
18
100
AcDbEntity
  8
0
  6
Continuous
 62
     8
370
    15
100
AcDbSpline
210
0.0
220
0.0
230
1.0
 70
     8
 71
     3
 72
     9
 73
     5
 74
     0
 42
0.000000001
 43
0.0000000001
 40
0.0
 40
0.0
 40
0.0
 40
0.0
 40
0.7940578323417168
 40
1.0
 40
1.0
 40
1.0
 40
1.0
 10
3800.326433697178
 20
-16523.29581342867
 30
0.0
 10
3800.308897380186
 20
-16523.29718231458
 30
0.0
 10
3800.286812947189
 20
-16523.29890622669
 30
0.0
 10
3800.266040014999
 20
-16523.29929069257
 30
0.0
 10
3800.261761992317
 20
-16523.29936987031
 30
0.0
  0
SPLINE
  5
3791B4
330
18
100
AcDbEntity
  8
0
  6
Continuous
 62
     8
370
    15
100
AcDbSpline
210
0.0
220
0.0
230
1.0
 70
     8
 71
     3
 72
    10
 73
     6
 74
     0
 42
0.000000001
 43
0.0000000001
 40
0.0
 40
0.0
 40
0.0
 40
0.0
 40
0.3078921565438237
 40
0.7661362026764476
 40
1.0
 40
1.0
 40
1.0
 40
1.0
 10
3811.002448073948
 20
-16524.4295601469
 30
0.0
 10
3810.975704598655
 20
-16524.45252398461
 30
0.0
 10
3810.909158101216
 20
-16524.50966550981
 30
0.0
 10
3810.836454945522
 20
-16524.52569656062
 30
0.0
 10
3810.77848131091
 20
-16524.50667951345
 30
0.0
 10
3810.758891973115
 20
-16524.50025363791
 30
0.0
  0
SPLINE
  5
3791B5
330
18
100
AcDbEntity
  8
0
  6
Continuous
 62
     8
370
    15
100
AcDbSpline
210
0.0
220
0.0
230
1.0
 70
     8
 71
     3
 72
    10
 73
     6
 74
     0
 42
0.000000001
 43
0.0000000001
 40
0.0
 40
0.0
 40
0.0
 40
0.0
 40
0.3233455672112885
 40
0.7952162011144399
 40
1.0
 40
1.0
 40
1.0
 40
1.0
 10
3793.788700496226
 20
-16524.50646784898
 30
0.0
 10
3793.763276218611
 20
-16524.51093952155
 30
0.0
 10
3793.700749313926
 20
-16524.52193687806
 30
0.0
 10
3793.622192207712
 20
-16524.50427385602
 30
0.0
 10
3793.564059478124
 20
-16524.44655874812
 30
0.0
 10
3793.546466094221
 20
-16524.42909175392
 30
0.0
  0
SPLINE
  5
3791B6
330
18
100
AcDbEntity
  8
0
  6
Continuous
 62
     8
370
    15
100
AcDbSpline
210
0.0
220
0.0
230
1.0
 70
     8
 71
     3
 72
     9
 73
     5
 74
     0
 42
0.000000001
 43
0.0000000001
 40
0.0
 40
0.0
 40
0.0
 40
0.0
 40
0.7938146641715372
 40
1.0
 40
1.0
 40
1.0
 40
1.0
 10
3810.776143205046
 20
-16524.51169901604
 30
0.0
 10
3810.761706811452
 20
-16524.50749676145
 30
0.0
 10
3810.743520710531
 20
-16524.50220301371
 30
0.0
 10
3810.722981628222
 20
-16524.49514646876
 30
0.0
 10
3810.718746770637
 20
-16524.49369151267
 30
0.0
  0
SPLINE
  5
3791B7
330
18
100
AcDbEntity
  8
0
  6
Continuous
 62
     8
370
    15
100
AcDbSpline
210
0.0
220
0.0
230
1.0
 70
     8
 71
     3
 72
     9
 73
     5
 74
     0
 42
0.000000001
 43
0.0000000001
 40
0.0
 40
0.0
 40
0.0
 40
0.0
 40
0.7933110995064375
 40
1.0
 40
1.0
 40
1.0
 40
1.0
 10
3793.846110760072
 20
-16524.48860280196
 30
0.0
 10
3793.829951224733
 20
-16524.49393625014
 30
0.0
 10
3793.809581491663
 20
-16524.50065927241
 30
0.0
 10
3793.792532799721
 20
-16524.50535788875
 30
0.0
 10
3793.789009024329
 20
-16524.50632904059
 30
0.0
  0
LWPOLYLINE
  5
3791B8
330
18
100
AcDbEntity
  8
0
  6
Continuous
 62
     8
370
    15
100
AcDbPolyline
 90
        3
 70
   128
 43
0.0
 10
3776.918206401675
 20
-16507.25621695017
 10
3776.612296014103
 20
-16521.56549499398
 10
3776.401752749456
 20
-16531.41389200456
  0
LWPOLYLINE
  5
3791B9
330
18
100
AcDbEntity
  8
0
  6
Continuous
 62
     8
370
    15
100
AcDbPolyline
 90
        3
 70
   128
 43
0.0
 10
3828.236987548147
 20
-16535.64812554481
 10
3828.001035002204
 20
-16524.61119799398
 10
3827.63001300204
 20
-16507.25621580867
  0
LINE
  5
3791BA
330
18
100
AcDbEntity
  8
0
  6
Continuous
 62
     8
370
    15
100
AcDbLine
 10
3800.729436265012
 20
-16505.21521711493
 30
0.0
 11
3797.728331391939
 21
-16495.60199343093
 31
0.0
  0
LINE
  5
3791BB
330
18
100
AcDbEntity
  8
0
  6
Continuous
 62
     8
370
    15
100
AcDbLine
 10
3806.819886694686
 20
-16495.60199457143
 30
0.0
 11
3803.818734735681
 21
-16505.21536975552
 31
0.0
  0
LINE
  5
3791BC
330
18
100
AcDbEntity
  8
0
  6
Continuous
 62
     8
370
    15
100
AcDbLine
 10
3797.574845082008
 20
-16495.48262723476
 30
0.0
 11
3797.627447641673
 21
-16495.56424786858
 31
0.0
  0
SPLINE
  5
3791BD
330
18
100
AcDbEntity
  8
0
  6
Continuous
 62
     8
370
    15
100
AcDbSpline
210
0.0
220
0.0
230
1.0
 70
     8
 71
     3
 72
    18
 73
    14
 74
     0
 42
0.000000001
 43
0.0000000001
 40
0.0
 40
0.0
 40
0.0
 40
0.0
 40
0.000469196387253
 40
0.1128510248340814
 40
0.2158856797730203
 40
0.3126902743592061
 40
0.4122947168306914
 40
0.5270571571260952
 40
0.6475997858899233
 40
0.759545002419891
 40
0.8762996767144867
 40
0.9926355735051361
 40
1.0
 40
1.0
 40
1.0
 40
1.0
 10
3797.747871724581
 20
-16495.68183895388
 30
0.0
 10
3797.747880205463
 20
-16495.68164047468
 30
0.0
 10
3797.749920025719
 20
-16495.63390229562
 30
0.0
 10
3797.707568033655
 20
-16495.54580363294
 30
0.0
 10
3797.630685308157
 20
-16495.43902427722
 30
0.0
 10
3797.52479200703
 20
-16495.36472048855
 30
0.0
 10
3797.398942262663
 20
-16495.32125008158
 30
0.0
 10
3797.254429496348
 20
-16495.31667338942
 30
0.0
 10
3797.111438398927
 20
-16495.36047133097
 30
0.0
 10
3796.989084332021
 20
-16495.44992662071
 30
0.0
 10
3796.911177480833
 20
-16495.57359440219
 30
0.0
 10
3796.874727824708
 20
-16495.67589260416
 30
0.0
 10
3796.882740258041
 20
-16495.72769753604
 30
0.0
 10
3796.883217273578
 20
-16495.7307817124
 30
0.0
  0
SPLINE
  5
3791BE
330
18
100
AcDbEntity
  8
0
  6
Continuous
 62
     8
370
    15
100
AcDbSpline
210
0.0
220
0.0
230
1.0
 70
     8
 71
     3
 72
     9
 73
     5
 74
     0
 42
0.000000001
 43
0.0000000001
 40
0.0
 40
0.0
 40
0.0
 40
0.0
 40
0.7922991026566358
 40
1.0
 40
1.0
 40
1.0
 40
1.0
 10
3806.898566299776
 20
-16495.60481274693
 30
0.0
 10
3806.914478679582
 20
-16495.56996212296
 30
0.0
 10
3806.93456248348
 20
-16495.52597542166
 30
0.0
 10
3806.966529316016
 20
-16495.49026644518
 30
0.0
 10
3806.973168855819
 20
-16495.48284965872
 30
0.0
  0
SPLINE
  5
3791BF
330
18
100
AcDbEntity
  8
0
  6
Continuous
 62
     8
370
    15
100
AcDbSpline
210
0.0
220
0.0
230
1.0
 70
     8
 71
     3
 72
    17
 73
    13
 74
     0
 42
0.000000001
 43
0.0000000001
 40
0.0
 40
0.0
 40
0.0
 40
0.0
 40
0.1001433679242875
 40
0.206152256991323
 40
0.2998552590925255
 40
0.3948013263455445
 40
0.4989819289082032
 40
0.6286354985215479
 40
0.7403624739649306
 40
0.8510799171313189
 40
0.9638591522440327
 40
1.0
 40
1.0
 40
1.0
 40
1.0
 10
3807.662901373156
 20
-16495.73252269165
 30
0.0
 10
3807.659374136581
 20
-16495.6885364574
 30
0.0
 10
3807.652113068816
 20
-16495.59798766063
 30
0.0
 10
3807.583088275379
 20
-16495.48208968984
 30
0.0
 10
3807.488505911764
 20
-16495.39363122471
 30
0.0
 10
3807.37235052423
 20
-16495.33636346997
 30
0.0
 10
3807.228912850092
 20
-16495.31213420596
 30
0.0
 10
3807.076753716844
 20
-16495.33783051957
 30
0.0
 10
3806.940630203921
 20
-16495.41589893924
 30
0.0
 10
3806.84695735599
 20
-16495.52944634899
 30
0.0
 10
3806.798557317804
 20
-16495.63780301888
 30
0.0
 10
3806.801524253091
 20
-16495.70295403887
 30
0.0
 10
3806.802244287317
 20
-16495.71876529179
 30
0.0
  0
SPLINE
  5
3791C0
330
18
100
AcDbEntity
  8
0
  6
Continuous
 62
     8
370
    15
100
AcDbSpline
210
0.0
220
0.0
230
1.0
 70
     8
 71
     3
 72
    10
 73
     6
 74
     0
 42
0.000000001
 43
0.0000000001
 40
0.0
 40
0.0
 40
0.0
 40
0.0
 40
0.2140238011989469
 40
0.6201629578879853
 40
1.0
 40
1.0
 40
1.0
 40
1.0
 10
3803.504085791763
 20
-16515.59471548509
 30
0.0
 10
3803.329086224295
 20
-16515.58474361917
 30
0.0
 10
3802.822001270277
 20
-16515.55584878677
 30
0.0
 10
3801.998498720937
 20
-16515.54606061976
 30
0.0
 10
3801.354946919337
 20
-16515.57887143019
 30
0.0
 10
3801.04393901205
 20
-16515.5947278406
 30
0.0
  0
LINE
  5
3791C1
330
18
100
AcDbEntity
  8
0
  6
Continuous
 62
     8
370
    15
100
AcDbLine
 10
3796.671776577403
 20
-16505.63425609479
 30
0.0
 11
3788.466289123516
 21
-16497.63532126324
 31
0.0
  0
LINE
  5
3791C2
330
18
100
AcDbEntity
  8
0
  6
Continuous
 62
     8
370
    15
100
AcDbLine
 10
3816.081929621654
 20
-16497.63532126324
 30
0.0
 11
3807.876427350514
 21
-16505.63426883048
 31
0.0
  0
SPLINE
  5
3791C3
330
18
100
AcDbEntity
  8
0
  6
Continuous
 62
     8
370
    15
100
AcDbSpline
210
0.0
220
0.0
230
1.0
 70
     8
 71
     3
 72
    15
 73
    11
 74
     0
 42
0.000000001
 43
0.0000000001
 40
0.0
 40
0.0
 40
0.0
 40
0.0
 40
0.1003968238124282
 40
0.2244824650601637
 40
0.3676735520283653
 40
0.5246523789949457
 40
0.6682584467070039
 40
0.814976963523622
 40
0.9596831250914867
 40
1.0
 40
1.0
 40
1.0
 40
1.0
 10
3788.46388214334
 20
-16497.63663337257
 30
0.0
 10
3788.438852860339
 20
-16497.61412116649
 30
0.0
 10
3788.38288858843
 20
-16497.5637849574
 30
0.0
 10
3788.266164192684
 20
-16497.51847345761
 30
0.0
 10
3788.123477028384
 20
-16497.50386142574
 30
0.0
 10
3787.976495458262
 20
-16497.53890985091
 30
0.0
 10
3787.84842922411
 20
-16497.62162812111
 30
0.0
 10
3787.762119988983
 20
-16497.73949374088
 30
0.0
 10
3787.720084599332
 20
-16497.84772143908
 30
0.0
 10
3787.726128641175
 20
-16497.90937811016
 30
0.0
 10
3787.727445649498
 20
-16497.92281321717
 30
0.0
  0
SPLINE
  5
3791C4
330
18
100
AcDbEntity
  8
0
  6
Continuous
 62
     8
370
    15
100
AcDbSpline
210
0.0
220
0.0
230
1.0
 70
     8
 71
     3
 72
    15
 73
    11
 74
     0
 42
0.000000001
 43
0.0000000001
 40
0.0
 40
0.0
 40
0.0
 40
0.0
 40
0.1265193473670968
 40
0.2636414548722719
 40
0.38869187627922
 40
0.513899098055633
 40
0.6477468811136928
 40
0.8152964154448397
 40
0.9624070541785815
 40
1.0
 40
1.0
 40
1.0
 40
1.0
 10
3816.820950573418
 20
-16497.92249137588
 30
0.0
 10
3816.818280675421
 20
-16497.87989800834
 30
0.0
 10
3816.812717132717
 20
-16497.79114180132
 30
0.0
 10
3816.745221087192
 20
-16497.67553143496
 30
0.0
 10
3816.651012890876
 20
-16497.58547349251
 30
0.0
 10
3816.534749427221
 20
-16497.52755996747
 30
0.0
 10
3816.392040946959
 20
-16497.5023631206
 30
0.0
 10
3816.243072908603
 20
-16497.52889298909
 30
0.0
 10
3816.132126557429
 20
-16497.58133239709
 30
0.0
 10
3816.093000365479
 20
-16497.62917285651
 30
0.0
 10
3816.085036963914
 20
-16497.63890988356
 30
0.0
  0
SPLINE
  5
3791C5
330
18
100
AcDbEntity
  8
0
  6
Continuous
 62
     8
370
    15
100
AcDbSpline
210
0.0
220
0.0
230
1.0
 70
     8
 71
     3
 72
    13
 73
     9
 74
     0
 42
0.000000001
 43
0.0000000001
 40
0.0
 40
0.0
 40
0.0
 40
0.0
 40
0.1026959963317256
 40
0.2417704291283556
 40
0.4362440924935738
 40
0.6821796726997866
 40
0.961394763953116
 40
1.0
 40
1.0
 40
1.0
 40
1.0
 10
3803.683519413853
 20
-16515.49333833542
 30
0.0
 10
3803.683538343091
 20
-16515.49336833464
 30
0.0
 10
3803.683582906957
 20
-16515.49343895981
 30
0.0
 10
3803.671728254736
 20
-16515.51236550821
 30
0.0
 10
3803.638622979726
 20
-16515.54768347284
 30
0.0
 10
3803.575522425137
 20
-16515.58250596448
 30
0.0
 10
3803.515282009449
 20
-16515.59938406014
 30
0.0
 10
3803.482705045453
 20
-16515.59198106476
 30
0.0
 10
3803.478747962545
 20
-16515.59108183221
 30
0.0
  0
SPLINE
  5
3791C6
330
18
100
AcDbEntity
  8
0
  6
Continuous
 62
     8
370
    15
100
AcDbSpline
210
0.0
220
0.0
230
1.0
 70
     8
 71
     3
 72
    14
 73
    10
 74
     0
 42
0.000000001
 43
0.0000000001
 40
0.0
 40
0.0
 40
0.0
 40
0.0
 40
0.0679328213013308
 40
0.3374401635643402
 40
0.5495642063624504
 40
0.717905827817169
 40
0.8524289376209614
 40
0.9809778428135761
 40
0.9999999999999998
 40
0.9999999999999998
 40
0.9999999999999998
 40
0.9999999999999998
 10
3801.069530380902
 20
-16515.58994702803
 30
0.0
 10
3801.062448871518
 20
-16515.59136167996
 30
0.0
 10
3801.027273154699
 20
-16515.59838862757
 30
0.0
 10
3800.968577753787
 20
-16515.58058242384
 30
0.0
 10
3800.91156749552
 20
-16515.54838274914
 30
0.0
 10
3800.879783107748
 20
-16515.51604560359
 30
0.0
 10
3800.86684220293
 20
-16515.49774739935
 30
0.0
 10
3800.86331347055
 20
-16515.4904393715
 30
0.0
 10
3800.864204204735
 20
-16515.49248153841
 30
0.0
 10
3800.864319021864
 20
-16515.49274477715
 30
0.0
  0
LWPOLYLINE
  5
3791C7
330
18
100
AcDbEntity
  8
0
  6
Continuous
 62
     8
370
    15
100
AcDbPolyline
 90
        3
 70
   128
 43
0.0
 10
3803.809445636125
 20
-16505.32851626094
 10
3803.696383093
 20
-16510.64204631721
 10
3803.591522063176
 20
-16515.57016242999
  0
LWPOLYLINE
  5
3791C8
330
18
100
AcDbEntity
  8
0
  6
Continuous
 62
     8
370
    15
100
AcDbPolyline
 90
        3
 70
   128
 43
0.0
 10
3800.957434581114
 20
-16515.57157759322
 10
3800.852415171337
 20
-16510.64135973082
 10
3800.739232114567
 20
-16505.32791444398
  0
LINE
  5
3791C9
330
18
100
AcDbEntity
  8
0
  6
Continuous
 62
     8
370
    15
100
AcDbLine
 10
3787.581942216093
 20
-16504.47676527951
 30
0.0
 11
3781.292385793513
 21
-16501.58077622876
 31
0.0
  0
LINE
  5
3791CA
330
18
100
AcDbEntity
  8
0
  6
Continuous
 62
     8
370
    15
100
AcDbLine
 10
3823.255831305296
 20
-16501.58077679902
 30
0.0
 11
3816.966276529078
 21
-16504.47676527951
 31
0.0
  0
SPLINE
  5
3791CB
330
18
100
AcDbEntity
  8
0
  6
Continuous
 62
     8
370
    15
100
AcDbSpline
210
0.0
220
0.0
230
1.0
 70
     8
 71
     3
 72
    14
 73
    10
 74
     0
 42
0.000000001
 43
0.0000000001
 40
0.0
 40
0.0
 40
0.0
 40
0.0
 40
0.1272786775129439
 40
0.2882636957763029
 40
0.4401793252335624
 40
0.5864621170235396
 40
0.7391471482190882
 40
0.92274186897935
 40
1.0
 40
1.0
 40
1.0
 40
1.0
 10
3823.830821332466
 20
-16501.96907428123
 30
0.0
 10
3823.82938178414
 20
-16501.93263159705
 30
0.0
 10
3823.826121461758
 20
-16501.85009536217
 30
0.0
 10
3823.76570767032
 20
-16501.73595618897
 30
0.0
 10
3823.674236512253
 20
-16501.64152313021
 30
0.0
 10
3823.559561117976
 20
-16501.57949849719
 30
0.0
 10
3823.424554910822
 20
-16501.55296963768
 30
0.0
 10
3823.302112010689
 20
-16501.55950186569
 30
0.0
 10
3823.23669665813
 20
-16501.59503018065
 30
0.0
 10
3823.217322256647
 20
-16501.60555278446
 30
0.0
  0
SPLINE
  5
3791CC
330
18
100
AcDbEntity
  8
0
  6
Continuous
 62
     8
370
    15
100
AcDbSpline
210
0.0
220
0.0
230
1.0
 70
     8
 71
     3
 72
    14
 73
    10
 74
     0
 42
0.000000001
 43
0.0000000001
 40
0.0
 40
0.0
 40
0.0
 40
0.0
 40
0.0082677742008134
 40
0.1621059700794024
 40
0.3473306761364163
 40
0.5224905186955816
 40
0.6888590210063333
 40
0.8620586057118504
 40
1.0
 40
1.0
 40
1.0
 40
1.0
 10
3781.333948842317
 20
-16501.601045412
 30
0.0
 10
3781.331974336563
 20
-16501.59976582818
 30
0.0
 10
3781.29326026879
 20
-16501.57467707119
 30
0.0
 10
3781.191793422534
 20
-16501.55645044756
 30
0.0
 10
3781.044680998557
 20
-16501.55992495982
 30
0.0
 10
3780.902704289021
 20
-16501.61932995498
 30
0.0
 10
3780.793344263862
 20
-16501.71904584195
 30
0.0
 10
3780.723938683202
 20
-16501.8415314272
 30
0.0
 10
3780.718592444234
 20
-16501.93071144599
 30
0.0
 10
3780.716222240029
 20
-16501.97024855928
 30
0.0
  0
LINE
  5
3791CD
330
18
100
AcDbEntity
  8
0
  6
Continuous
 62
     8
370
    15
100
AcDbLine
 10
3780.595459665244
 20
-16507.41881890863
 30
0.0
 11
3777.429726896982
 21
-16506.85419661985
 31
0.0
  0
LINE
  5
3791CE
330
18
100
AcDbEntity
  8
0
  6
Continuous
 62
     8
370
    15
100
AcDbLine
 10
3827.118492506732
 20
-16506.85419700002
 30
0.0
 11
3823.952759079926
 21
-16507.41881890863
 31
0.0
  0
SPLINE
  5
3791CF
330
18
100
AcDbEntity
  8
0
  6
Continuous
 62
     8
370
    15
100
AcDbSpline
210
0.0
220
0.0
230
1.0
 70
     8
 71
     3
 72
     9
 73
     5
 74
     0
 42
0.000000001
 43
0.0000000001
 40
0.0
 40
0.0
 40
0.0
 40
0.0
 40
0.9386718466198427
 40
1.0
 40
1.0
 40
1.0
 40
1.0
 10
3803.831363972984
 20
-16505.19198524608
 30
0.0
 10
3803.817699145123
 20
-16505.22742862144
 30
0.0
 10
3803.803141525322
 20
-16505.2651876908
 30
0.0
 10
3803.809149300961
 20
-16505.30361601813
 30
0.0
 10
3803.809517746748
 20
-16505.30597275648
 30
0.0
  0
SPLINE
  5
3791D0
330
18
100
AcDbEntity
  8
0
  6
Continuous
 62
     8
370
    15
100
AcDbSpline
210
0.0
220
0.0
230
1.0
 70
     8
 71
     3
 72
    13
 73
     9
 74
     0
 42
0.000000001
 43
0.0000000001
 40
0.0
 40
0.0
 40
0.0
 40
0.0
 40
0.1856519251070288
 40
0.3545963691236882
 40
0.4969931076615191
 40
0.6487530495154442
 40
0.8106797037705546
 40
1.0
 40
1.0
 40
1.0
 40
1.0
 10
3827.628890842199
 20
-16507.25490484925
 30
0.0
 10
3827.622335171461
 20
-16507.20309552995
 30
0.0
 10
3827.609813798257
 20
-16507.10413939739
 30
0.0
 10
3827.529951703474
 20
-16506.98626508681
 30
0.0
 10
3827.42967744604
 20
-16506.90387898118
 30
0.0
 10
3827.311263001857
 20
-16506.85492174297
 30
0.0
 10
3827.169213552872
 20
-16506.83811085795
 30
0.0
 10
3827.074783807429
 20
-16506.8665970862
 30
0.0
 10
3827.02388666126
 20
-16506.88195101642
 30
0.0
  0
SPLINE
  5
3791D1
330
18
100
AcDbEntity
  8
0
  6
Continuous
 62
     8
370
    15
100
AcDbSpline
210
0.0
220
0.0
230
1.0
 70
     8
 71
     3
 72
    13
 73
     9
 74
     0
 42
0.000000001
 43
0.0000000001
 40
0.0
 40
0.0
 40
0.0
 40
0.0
 40
0.124573034077644
 40
0.3185703121931609
 40
0.4950740265879222
 40
0.6636585971546495
 40
0.8404505590212831
 40
1.0
 40
1.0
 40
1.0
 40
1.0
 10
3777.524145715815
 20
-16506.88187003189
 30
0.0
 10
3777.491188850262
 20
-16506.87076442921
 30
0.0
 10
3777.406908339433
 20
-16506.84236409895
 30
0.0
 10
3777.265163597679
 20
-16506.84615856197
 30
0.0
 10
3777.122277668758
 20
-16506.89902416992
 30
0.0
 10
3777.009744383467
 20
-16506.99381747008
 30
0.0
 10
3776.933917529635
 20
-16507.11749900825
 30
0.0
 10
3776.924756327151
 20
-16507.21150108855
 30
0.0
 10
3776.920410550143
 20
-16507.25609262333
 30
0.0
  0
SPLINE
  5
3791D2
330
18
100
AcDbEntity
  8
0
  6
Continuous
 62
     8
370
    15
100
AcDbSpline
210
0.0
220
0.0
230
1.0
 70
     8
 71
     3
 72
    46
 73
    42
 74
     0
 42
0.000000001
 43
0.0000000001
 40
0.0
 40
0.0
 40
0.0
 40
0.0
 40
0.0176184767893541
 40
0.0442082263916594
 40
0.0707233380835297
 40
0.09717354780356
 40
0.1235714061485189
 40
0.1499298433726198
 40
0.176260581604191
 40
0.2025734624644079
 40
0.2288762701742318
 40
0.2551748473437922
 40
0.2814727873937852
 40
0.3077727405096209
 40
0.3340768410775731
 40
0.36038637588286
 40
0.3867019869362558
 40
0.413023840490221
 40
0.4393517723354811
 40
0.4656853988495678
 40
0.492024177247671
 40
0.5183674523011303
 40
0.5447144904786569
 40
0.5710645679799484
 40
0.5974168883022126
 40
0.6237706083318575
 40
0.6501249744905403
 40
0.6764790499285617
 40
0.7028318053870192
 40
0.729182482703926
 40
0.7555301804272361
 40
0.7818741335129513
 40
0.8082135245878644
 40
0.8345475811666186
 40
0.8608755846478521
 40
0.8871968788734047
 40
0.913510958911131
 40
0.9398175057472373
 40
0.9661164655644027
 40
0.992408210403112
 40
1.0
 40
1.0
 40
1.0
 40
1.0
 10
3774.110105448097
 20
-16559.8413948675
 30
0.0
 10
3774.190398384882
 20
-16559.6431148749
 30
0.0
 10
3774.391869168626
 20
-16559.14559134283
 30
0.0
 10
3774.815925328619
 20
-16558.36184680497
 30
0.0
 10
3775.367333024231
 20
-16557.49286782944
 30
0.0
 10
3776.006677408748
 20
-16556.6432866627
 30
0.0
 10
3776.727509841848
 20
-16555.81508973478
 30
0.0
 10
3777.528863372416
 20
-16555.01084180402
 30
0.0
 10
3778.408047743222
 20
-16554.2329197217
 30
0.0
 10
3779.362560772768
 20
-16553.48373643401
 30
0.0
 10
3780.389532928417
 20
-16552.76565247745
 30
0.0
 10
3781.485875681735
 20
-16552.08099843567
 30
0.0
 10
3782.648222980975
 20
-16551.43201923083
 30
0.0
 10
3783.872986507044
 20
-16550.82087633512
 30
0.0
 10
3785.156347200691
 20
-16550.24960813831
 30
0.0
 10
3786.494293282661
 20
-16549.72012805768
 30
0.0
 10
3787.882608770562
 20
-16549.23421771668
 30
0.0
 10
3789.31690286864
 20
-16548.79351767264
 30
0.0
 10
3790.792619401143
 20
-16548.39951259831
 30
0.0
 10
3792.305062621764
 20
-16548.05353544348
 30
0.0
 10
3793.849409864155
 20
-16547.75675504198
 30
0.0
 10
3795.420727559767
 20
-16547.51016828268
 30
0.0
 10
3797.01399690295
 20
-16547.31461233705
 30
0.0
 10
3798.624122211685
 20
-16547.17074342789
 30
0.0
 10
3800.245953438569
 20
-16547.07904595521
 30
0.0
 10
3801.874301400061
 20
-16547.03983531364
 30
0.0
 10
3803.503952769304
 20
-16547.05323958379
 30
0.0
 10
3805.129686032564
 20
-16547.11922015926
 30
0.0
 10
3806.746291507721
 20
-16547.23755554122
 30
0.0
 10
3808.348590397123
 20
-16547.4078456342
 30
0.0
 10
3809.931453230476
 20
-16547.62952416167
 30
0.0
 10
3811.489813234956
 20
-16547.90184041754
 30
0.0
 10
3813.018683761091
 20
-16548.22387939631
 30
0.0
 10
3814.513174195455
 20
-16548.59454993011
 30
0.0
 10
3815.968503444707
 20
-16549.0126005957
 30
0.0
 10
3817.380039114158
 20
-16549.47660076332
 30
0.0
 10
3818.743225325487
 20
-16549.98500466106
 30
0.0
 10
3820.053938070714
 20
-16550.53596628561
 30
0.0
 10
3821.307248323113
 20
-16551.12800012111
 30
0.0
 10
3822.218921987293
 20
-16551.60839891074
 30
0.0
 10
3822.712072588054
 20
-16551.89023017294
 30
0.0
 10
3822.822565653872
 20
-16551.95337599525
 30
0.0
  0
SPLINE
  5
3791D3
330
18
100
AcDbEntity
  8
0
  6
Continuous
 62
     8
370
    15
100
AcDbSpline
210
0.0
220
0.0
230
1.0
 70
     8
 71
     3
 72
    18
 73
    14
 74
     0
 42
0.000000001
 43
0.0000000001
 40
0.0
 40
0.0
 40
0.0
 40
0.0
 40
0.0520387635627591
 40
0.1510677430419041
 40
0.2500910781962977
 40
0.3491150236536879
 40
0.4481567209754139
 40
0.5472411604288727
 40
0.646401028255349
 40
0.7456770053684517
 40
0.8451167258307187
 40
0.9447712172669938
 40
1.0
 40
1.0
 40
1.0
 40
1.0
 10
3822.822565653872
 20
-16551.95337599525
 30
0.0
 10
3823.020725359454
 20
-16552.06981823867
 30
0.0
 10
3823.59597998571
 20
-16552.40784830904
 30
0.0
 10
3824.497462250064
 20
-16552.9942911055
 30
0.0
 10
3825.501011261663
 20
-16553.7214931581
 30
0.0
 10
3826.430037066293
 20
-16554.47912747737
 30
0.0
 10
3827.282841297257
 20
-16555.26402821508
 30
0.0
 10
3828.056764928726
 20
-16556.07380241131
 30
0.0
 10
3828.749328508991
 20
-16556.90589247801
 30
0.0
 10
3829.360048728614
 20
-16557.75764746125
 30
0.0
 10
3829.881911703272
 20
-16558.62714935505
 30
0.0
 10
3830.266044080124
 20
-16559.3780558205
 30
0.0
 10
3830.440681961471
 20
-16559.84190466046
 30
0.0
 10
3830.502954906418
 20
-16560.00730539169
 30
0.0
  0
LINE
  5
3791D4
330
18
100
AcDbEntity
  8
0
  6
Continuous
 62
     8
370
    15
100
AcDbLine
 10
3831.674109800871
 20
-16549.29247986472
 30
0.0
 11
3831.674109800871
 21
-16548.71680812527
 31
0.0
  0
LINE
  5
3791D5
330
18
100
AcDbEntity
  8
0
  6
Continuous
 62
     8
370
    15
100
AcDbLine
 10
3772.874108944299
 20
-16548.71680812527
 30
0.0
 11
3772.874108944299
 21
-16549.29247986472
 31
0.0
  0
SPLINE
  5
3791D6
330
18
100
AcDbEntity
  8
0
  6
Continuous
 62
     8
370
    15
100
AcDbSpline
210
0.0
220
0.0
230
1.0
 70
     8
 71
     3
 72
    12
 73
     8
 74
     0
 42
0.000000001
 43
0.0000000001
 40
0.0
 40
0.0
 40
0.0
 40
0.0
 40
0.1061642492359311
 40
0.3434250483587877
 40
0.5807175742408826
 40
0.8180231279934442
 40
1.0
 40
1.0
 40
1.0
 40
1.0
 10
3798.081589812545
 20
-16525.08610598949
 30
0.0
 10
3797.839591821219
 20
-16525.10705400619
 30
0.0
 10
3797.056765469864
 20
-16525.17481762436
 30
0.0
 10
3795.743805867257
 20
-16525.32819602324
 30
0.0
 10
3794.154676602726
 20
-16525.56543876313
 30
0.0
 10
3792.710006026771
 20
-16525.82854947756
 30
0.0
 10
3791.808560736921
 20
-16526.03036441743
 30
0.0
 10
3791.417315638024
 20
-16526.11795609603
 30
0.0
  0
SPLINE
  5
3791D7
330
18
100
AcDbEntity
  8
0
  6
Continuous
 62
     8
370
    15
100
AcDbSpline
210
0.0
220
0.0
230
1.0
 70
     8
 71
     3
 72
    12
 73
     8
 74
     0
 42
0.000000001
 43
0.0000000001
 40
0.0
 40
0.0
 40
0.0
 40
0.0
 40
0.1069663114319147
 40
0.3442648718539659
 40
0.5815700329349562
 40
0.8188624290491857
 40
1.0
 40
1.0
 40
1.0
 40
1.0
 10
3813.132135902466
 20
-16526.11754399188
 30
0.0
 10
3812.902619845747
 20
-16526.06542286844
 30
0.0
 10
3812.163935723643
 20
-16525.89767405443
 30
0.0
 10
3810.891957160318
 20
-16525.65109358906
 30
0.0
 10
3809.310126287002
 20
-16525.39786145039
 30
0.0
 10
3807.833219979841
 20
-16525.20897318924
 30
0.0
 10
3806.880015992721
 20
-16525.12374481133
 30
0.0
 10
3806.467375722096
 20
-16525.0868496017
 30
0.0
  0
LINE
  5
3791D8
330
18
100
AcDbEntity
  8
0
  6
Continuous
 62
     8
370
    15
100
AcDbLine
 10
3806.395129438304
 20
-16525.13661081687
 30
0.0
 11
3806.29730792
 21
-16525.56554787185
 31
0.0
  0
LINE
  5
3791D9
330
18
100
AcDbEntity
  8
0
  6
Continuous
 62
     8
370
    15
100
AcDbLine
 10
3798.250905556815
 20
-16525.56552658235
 30
0.0
 11
3798.153089306867
 21
-16525.13661081687
 31
0.0
  0
LINE
  5
3791DA
330
18
100
AcDbEntity
  8
0
  6
Continuous
 62
     8
370
    15
100
AcDbLine
 10
3819.685508053757
 20
-16533.56666575254
 30
0.0
 11
3819.579295361331
 21
-16533.62798103475
 31
0.0
  0
SPLINE
  5
3791DB
330
18
100
AcDbEntity
  8
0
  6
Continuous
 62
     8
370
    15
100
AcDbSpline
210
0.0
220
0.0
230
1.0
 70
     8
 71
     3
 72
    12
 73
     8
 74
     0
 42
0.000000001
 43
0.0000000001
 40
0.0
 40
0.0
 40
0.0
 40
0.0
 40
0.1104268993649552
 40
0.3460324335556161
 40
0.5816595719155704
 40
0.8172833445043949
 40
1.0
 40
1.0
 40
1.0
 40
1.0
 10
3825.310009432711
 20
-16531.37904164701
 30
0.0
 10
3825.149709127035
 20
-16531.26278189421
 30
0.0
 10
3824.647393973833
 20
-16530.8984716997
 30
0.0
 10
3823.75015286305
 20
-16530.31150654944
 30
0.0
 10
3822.596185668379
 20
-16529.63363073503
 30
0.0
 10
3821.472867928783
 20
-16529.03966850396
 30
0.0
 10
3820.714267699143
 20
-16528.68756115102
 30
0.0
 10
3820.382937310029
 20
-16528.533772816
 30
0.0
  0
SPLINE
  5
3791DC
330
18
100
AcDbEntity
  8
0
  6
Continuous
 62
     8
370
    15
100
AcDbSpline
210
0.0
220
0.0
230
1.0
 70
     8
 71
     3
 72
    10
 73
     6
 74
     0
 42
0.000000001
 43
0.0000000001
 40
0.0
 40
0.0
 40
0.0
 40
0.0
 40
0.2475211802510857
 40
0.6691373985631751
 40
1.0
 40
1.0
 40
1.0
 40
1.0
 10
3781.856401402834
 20
-16529.70762155759
 30
0.0
 10
3781.624706490711
 20
-16529.83682371223
 30
0.0
 10
3780.998353099052
 20
-16530.18610288727
 30
0.0
 10
3780.124799780078
 20
-16530.74475253404
 30
0.0
 10
3779.509606023273
 20
-16531.18542059929
 30
0.0
 10
3779.239107237895
 20
-16531.3791809798
 30
0.0
  0
LINE
  5
3791DD
330
18
100
AcDbEntity
  8
0
  6
Continuous
 62
     8
370
    15
100
AcDbLine
 10
3820.378521275195
 20
-16528.53327045729
 30
0.0
 11
3819.954598559341
 21
-16528.85220285722
 31
0.0
  0
LINE
  5
3791DE
330
18
100
AcDbEntity
  8
0
  6
Continuous
 62
     8
370
    15
100
AcDbLine
 10
3775.492440419736
 20
-16535.6359926595
 30
0.0
 11
3775.091416448876
 21
-16535.54009980691
 31
0.0
  0
LINE
  5
3791DF
330
18
100
AcDbEntity
  8
0
  6
Continuous
 62
     8
370
    15
100
AcDbLine
 10
3829.456802296294
 20
-16535.54009980691
 30
0.0
 11
3828.853175131921
 21
-16535.68443957914
 31
0.0
  0
LWPOLYLINE
  5
3791E0
330
18
100
AcDbEntity
  8
0
  6
Continuous
 62
     8
370
    15
100
AcDbPolyline
 90
      118
 70
   128
 43
0.0
 10
3827.376400926571
 20
-16578.2224130853
 10
3828.68761893593
 20
-16577.42368087517
 10
3829.922680718114
 20
-16576.58547004253
 10
3831.078023300386
 20
-16575.71019632793
 10
3832.150317164027
 20
-16574.80038401032
 10
3833.13646846694
 20
-16573.85865549998
 10
3834.03363921157
 20
-16572.88772881982
 10
3834.83923604964
 20
-16571.89039973749
 10
3835.550940245941
 20
-16570.86954575707
 10
3836.166701751417
 20
-16569.82811129253
 10
3836.684737886089
 20
-16568.76909626258
 10
3837.103561656453
 20
-16567.69555647089
 10
3837.421961340618
 20
-16566.61058649844
 10
3837.639021561716
 20
-16565.51731362078
 10
3837.754114068287
 20
-16564.41889096501
 10
3837.766910905165
 20
-16563.31848534434
 10
3837.677372559683
 20
-16562.21927041501
 10
3837.485757181284
 20
-16561.12441375058
 10
3837.192616630267
 20
-16560.03707304018
 10
3836.798796477782
 20
-16558.96038392309
 10
3836.305434688736
 20
-16557.89745010437
 10
3835.71395108509
 20
-16556.8513357514
 10
3835.026049980032
 20
-16555.82505941123
 10
3834.243717543793
 20
-16554.82157728307
 10
3833.369210608406
 20
-16553.84378283816
 10
3832.405046130983
 20
-16552.89449769563
 10
3831.354007449881
 20
-16551.97645698608
 10
3830.219122552751
 20
-16551.09230897127
 10
3829.003666052158
 20
-16550.24460097799
 10
3827.7111415901
 20
-16549.43577836434
 10
3826.345273997212
 20
-16548.66817391072
 10
3824.910004724113
 20
-16547.94399909964
 10
3823.409469409734
 20
-16547.26534333162
 10
3821.847997161036
 20
-16546.63416134398
 10
3820.230085343095
 20
-16546.05227690559
 10
3818.560403036477
 20
-16545.52136352324
 10
3816.843765189353
 20
-16545.04295385089
 10
3815.085116812428
 20
-16544.61842752422
 10
3813.28953199114
 20
-16544.24900754899
 10
3811.462185568232
 20
-16543.93576068125
 10
3809.608348533947
 20
-16543.67958868341
 10
3807.733364318421
 20
-16543.48123136561
 10
3805.842640889153
 20
-16543.34125898234
 10
3803.941628360495
 20
-16543.26007603411
 10
3802.035805822748
 20
-16543.23791670541
 10
3800.130672122557
 20
-16543.27484410442
 10
3798.231719521119
 20
-16543.3707533043
 10
3796.344420523293
 20
-16543.52536678123
 10
3794.474218657984
 20
-16543.738238216
 10
3792.626506087623
 20
-16544.00875477517
 10
3790.806610437279
 20
-16544.33613559024
 10
3789.019777672501
 20
-16544.71943860084
 10
3787.271160904069
 20
-16545.15755637275
 10
3785.565801948731
 20
-16545.64922674274
 10
3783.908616841241
 20
-16546.19303205817
 10
3782.304385626908
 20
-16546.78740506965
 10
3780.757729641822
 20
-16547.43062988145
 10
3779.273111677474
 20
-16548.1208540219
 10
3777.854812355484
 20
-16548.85608687518
 10
3776.506920084794
 20
-16549.63420852026
 10
3775.233321430452
 20
-16550.45297529091
 10
3774.037688601276
 20
-16551.31002699887
 10
3772.923469818623
 20
-16552.20289249388
 10
3771.893874005245
 20
-16553.12899546126
 10
3770.95187350178
 20
-16554.08566806046
 10
3770.100183157963
 20
-16555.07015083007
 10
3769.341258686262
 20
-16556.07960580364
 10
3768.677286454443
 20
-16557.11112240229
 10
3768.110184802662
 20
-16558.16172579852
 10
3767.641585604206
 20
-16559.22838756085
 10
3767.272841509495
 20
-16560.30803211681
 10
3767.005014092275
 20
-16561.39754663729
 10
3766.838876483801
 20
-16562.49378863993
 10
3766.774909421565
 20
-16563.59359891493
 10
3766.813294663845
 20
-16564.69380684739
 10
3766.953922892258
 20
-16565.79123802071
 10
3767.196388443386
 20
-16566.88272942338
 10
3767.53999062587
 20
-16567.96513477135
 10
3767.983741622951
 20
-16569.03533211145
 10
3768.526359907016
 20
-16570.09023674712
 10
3769.166283410492
 20
-16571.12680580046
 10
3769.901664257488
 20
-16572.14205189833
 10
3770.730383910322
 20
-16573.13304583358
 10
3771.650052510977
 20
-16574.09693291228
 10
3772.658015137267
 20
-16575.03093352401
 10
3773.751372876267
 20
-16575.93235226595
 10
3774.926966525339
 20
-16576.79859286449
 10
3776.181410013258
 20
-16577.62715617939
 10
3777.511083999987
 20
-16578.41565475709
 10
3778.912157670383
 20
-16579.16181324662
 10
3780.380590092452
 20
-16579.86348134898
 10
3781.912145322698
 20
-16580.51863645472
 10
3783.502410783648
 20
-16581.12538817025
 10
3785.146799054258
 20
-16581.6819884755
 10
3786.840572236067
 20
-16582.18683058343
 10
3788.578842611737
 20
-16582.63846148563
 10
3790.356597999016
 20
-16583.03557834072
 10
3792.16871755581
 20
-16583.377034557
 10
3794.009972438725
 20
-16583.66184625543
 10
3795.87505477903
 20
-16583.88919379023
 10
3797.758588219359
 20
-16584.05842022825
 10
3799.655141084611
 20
-16584.16903743164
 10
3801.559243504101
 20
-16584.22072681825
 10
3803.465408484991
 20
-16584.21333936157
 10
3805.368138497728
 20
-16584.14689787177
 10
3807.26194786656
 20
-16584.02159167335
 10
3809.141374623335
 20
-16583.83778344815
 10
3811.001001580937
 20
-16583.59600163199
 10
3812.835468187064
 20
-16583.29694573702
 10
3814.639481060965
 20
-16582.94147418634
 10
3816.407843627927
 20
-16582.53061609917
 10
3818.135455460733
 20
-16582.06555494366
 10
3819.817332036006
 20
-16581.54762929714
 10
3821.448630417432
 20
-16580.97833626772
 10
3823.024642341052
 20
-16580.35931419649
 10
3824.540825166847
 20
-16579.6923491205
 10
3825.992806241607
 20
-16578.97936312997
 10
3827.376400926571
 20
-16578.2224130853
  0
LWPOLYLINE
  5
3791E1
330
18
100
AcDbEntity
  8
0
  6
Continuous
 62
     8
370
    15
100
AcDbPolyline
 90
      109
 70
   128
 43
0.0
 10
3823.805510503574
 20
-16576.36511677911
 10
3825.021023392041
 20
-16575.62135871641
 10
3826.159566586231
 20
-16574.8380578776
 10
3827.217289658725
 20
-16574.01786589844
 10
3828.190611526807
 20
-16573.16355720957
 10
3829.076241937477
 20
-16572.27802423672
 10
3829.871181549775
 20
-16571.36426062584
 10
3830.572741526474
 20
-16570.42536057771
 10
3831.178548473168
 20
-16569.46450078995
 10
3831.686550365171
 20
-16568.48493095276
 10
3832.095031694038
 20
-16567.48996652566
 10
3832.402607540668
 20
-16566.48297543162
 10
3832.608238063287
 20
-16565.46736361053
 10
3832.71122783889
 20
-16564.44656627539
 10
3832.71122783889
 20
-16563.42404068901
 10
3832.608238063287
 20
-16562.40324335387
 10
3832.402607540668
 20
-16561.38763153278
 10
3832.095031694038
 20
-16560.38064043874
 10
3831.686550365171
 20
-16559.38567601165
 10
3831.178548473168
 20
-16558.40610617445
 10
3830.572741526474
 20
-16557.4452463867
 10
3829.871181549775
 20
-16556.50634633857
 10
3829.076241937477
 20
-16555.59258272768
 10
3828.190611526807
 20
-16554.70704975483
 10
3827.217289658725
 20
-16553.85274106596
 10
3826.159566586231
 20
-16553.03254908681
 10
3825.021023392041
 20
-16552.24924824798
 10
3823.805510503576
 20
-16551.5054901853
 10
3822.517144153278
 20
-16550.8037895309
 10
3821.160280283802
 20
-16550.14652253522
 10
3819.739512160769
 20
-16549.53591200268
 10
3818.259645759682
 20
-16548.97402524833
 10
3816.725691451793
 20
-16548.4627616948
 10
3815.142834945831
 20
-16548.00385282477
 10
3813.516436135543
 20
-16547.59885087093
 10
3811.851997818843
 20
-16547.24912596471
 10
3810.155149234182
 20
-16546.95586271474
 10
3808.431633548214
 20
-16546.72005146297
 10
3806.687284806736
 20
-16546.54249170617
 10
3804.928002909996
 20
-16546.42378373224
 10
3803.159738466167
 20
-16546.36432900032
 10
3801.388480279003
 20
-16546.36432900032
 10
3799.620215835173
 20
-16546.42378373224
 10
3797.860933938433
 20
-16546.54249170617
 10
3796.116585196956
 20
-16546.72005146297
 10
3794.393069510988
 20
-16546.95586271474
 10
3792.696220926327
 20
-16547.24912596471
 10
3791.031782609627
 20
-16547.59885087093
 10
3789.405383799339
 20
-16548.00385282477
 10
3787.822527293375
 20
-16548.4627616948
 10
3786.288572985487
 20
-16548.97402524833
 10
3784.808706584401
 20
-16549.53591200268
 10
3783.387938461368
 20
-16550.14652253522
 10
3782.03107459189
 20
-16550.8037895309
 10
3780.742708241596
 20
-16551.5054901853
 10
3779.527195353128
 20
-16552.24924824798
 10
3778.388652158939
 20
-16553.03254908681
 10
3777.330929086446
 20
-16553.85274106596
 10
3776.357607218364
 20
-16554.70704975483
 10
3775.471976807693
 20
-16555.59258272768
 10
3774.677037195395
 20
-16556.50634633857
 10
3773.975477218695
 20
-16557.4452463867
 10
3773.369670272
 20
-16558.40610617445
 10
3772.861668379999
 20
-16559.38567601165
 10
3772.453187051132
 20
-16560.38064043874
 10
3772.1456112045
 20
-16561.38763153279
 10
3771.939980681884
 20
-16562.40324335387
 10
3771.83699090628
 20
-16563.42404068901
 10
3771.83699090628
 20
-16564.44656627539
 10
3771.939980681884
 20
-16565.46736361053
 10
3772.1456112045
 20
-16566.48297543162
 10
3772.453187051132
 20
-16567.48996652567
 10
3772.861668379999
 20
-16568.48493095276
 10
3773.369670272
 20
-16569.46450078995
 10
3773.975477218695
 20
-16570.42536057771
 10
3774.677037195395
 20
-16571.36426062584
 10
3775.471976807693
 20
-16572.27802423672
 10
3776.357607218364
 20
-16573.16355720957
 10
3777.330929086446
 20
-16574.01786589844
 10
3778.388652158939
 20
-16574.8380578776
 10
3779.527195353128
 20
-16575.62135871641
 10
3780.742708241598
 20
-16576.36511677911
 10
3782.03107459189
 20
-16577.0668174335
 10
3783.387938461368
 20
-16577.72408442919
 10
3784.808706584401
 20
-16578.33469496172
 10
3786.288572985487
 20
-16578.89658171607
 10
3787.822527293378
 20
-16579.4078452696
 10
3789.405383799339
 20
-16579.86675413963
 10
3791.031782609627
 20
-16580.27175609347
 10
3792.696220926327
 20
-16580.62148099969
 10
3794.393069510988
 20
-16580.91474424966
 10
3796.116585196956
 20
-16581.15055550144
 10
3797.860933938433
 20
-16581.32811525823
 10
3799.620215835173
 20
-16581.44682323217
 10
3801.388480279003
 20
-16581.50627796409
 10
3803.159738466167
 20
-16581.50627796409
 10
3804.928002909996
 20
-16581.44682323217
 10
3806.687284806736
 20
-16581.32811525823
 10
3808.431633548214
 20
-16581.15055550144
 10
3810.155149234182
 20
-16580.91474424966
 10
3811.851997818843
 20
-16580.62148099969
 10
3813.516436135543
 20
-16580.27175609347
 10
3815.142834945831
 20
-16579.86675413963
 10
3816.725691451793
 20
-16579.4078452696
 10
3818.259645759682
 20
-16578.89658171607
 10
3819.739512160769
 20
-16578.33469496172
 10
3821.160280283802
 20
-16577.72408442919
 10
3822.517144153278
 20
-16577.0668174335
 10
3823.805510503574
 20
-16576.36511677911
  0
LWPOLYLINE
  5
3791E2
330
18
100
AcDbEntity
  8
0
  6
Continuous
 62
     8
370
    15
100
AcDbPolyline
 90
       61
 70
   128
 43
0.0
 10
3837.774110113727
 20
-16562.91462768028
 10
3837.766910905165
 20
-16562.50194439861
 10
3837.677372559683
 20
-16561.40272946928
 10
3837.485757181284
 20
-16560.30787280486
 10
3837.192616630267
 20
-16559.22053209445
 10
3836.798796477782
 20
-16558.14384297737
 10
3836.305434688736
 20
-16557.08090915864
 10
3835.71395108509
 20
-16556.03479480567
 10
3835.026049980032
 20
-16555.0085184655
 10
3834.243717543793
 20
-16554.00503633735
 10
3833.369210608406
 20
-16553.02724189243
 10
3832.405046130983
 20
-16552.07795674991
 10
3831.354007449881
 20
-16551.15991604035
 10
3830.219122552751
 20
-16550.27576802554
 10
3829.003666052158
 20
-16549.42806003226
 10
3827.7111415901
 20
-16548.61923741861
 10
3826.345273997212
 20
-16547.85163296499
 10
3824.910004724113
 20
-16547.12745815391
 10
3823.409469409734
 20
-16546.4488023859
 10
3821.847997161036
 20
-16545.81762039826
 10
3820.230085343095
 20
-16545.23573595986
 10
3818.560403036477
 20
-16544.70482257751
 10
3816.843765189353
 20
-16544.22641290517
 10
3815.085116812428
 20
-16543.80188657849
 10
3813.28953199114
 20
-16543.43246660326
 10
3811.462185568232
 20
-16543.11921973552
 10
3809.608348533947
 20
-16542.86304773768
 10
3807.733364318421
 20
-16542.66469041988
 10
3805.842640889153
 20
-16542.52471803661
 10
3803.941628360495
 20
-16542.44353508838
 10
3802.035805822748
 20
-16542.42137575968
 10
3800.130672122557
 20
-16542.45830315869
 10
3798.231719521119
 20
-16542.55421235858
 10
3796.344420523293
 20
-16542.7088258355
 10
3794.474218657984
 20
-16542.92169727028
 10
3792.626506087623
 20
-16543.19221382944
 10
3790.806610437279
 20
-16543.51959464452
 10
3789.019777672501
 20
-16543.90289765511
 10
3787.271160904069
 20
-16544.34101542703
 10
3785.565801948731
 20
-16544.83268579701
 10
3783.908616841241
 20
-16545.37649111244
 10
3782.304385626908
 20
-16545.97086412392
 10
3780.757729641822
 20
-16546.61408893572
 10
3779.273111677474
 20
-16547.30431307617
 10
3777.854812355484
 20
-16548.03954592945
 10
3776.506920084794
 20
-16548.81766757453
 10
3775.233321430452
 20
-16549.63643434518
 10
3774.037688601276
 20
-16550.49348605314
 10
3772.923469818623
 20
-16551.38635154816
 10
3771.893874005245
 20
-16552.31245451553
 10
3770.95187350178
 20
-16553.26912711473
 10
3770.100183157963
 20
-16554.25360988435
 10
3769.341258686262
 20
-16555.26306485791
 10
3768.677286454443
 20
-16556.29458145657
 10
3768.110184802662
 20
-16557.34518485279
 10
3767.641585604206
 20
-16558.41184661512
 10
3767.272841509495
 20
-16559.49149117108
 10
3767.005014092275
 20
-16560.58100569156
 10
3766.838876483801
 20
-16561.6772476942
 10
3766.774909421565
 20
-16562.77705796921
 10
3766.774108631441
 20
-16562.91462768028
  0
LINE
  5
3791E3
330
18
100
AcDbEntity
  8
0
  6
Continuous
 62
     8
370
    15
100
AcDbLine
 10
3784.290638510321
 20
-16545.24505070188
 30
0.0
 11
3784.290638510321
 21
-16541.30635102863
 31
0.0
  0
ARC
  5
3791E4
330
18
100
AcDbEntity
  8
0
  6
Continuous
 62
     8
370
    15
100
AcDbCircle
 10
3785.259615312457
 20
-16558.23515712893
 30
0.0
 40
15.28661225268907
100
AcDbArc
 50
129.71256759796
 51
162.072457150098
  0
LWPOLYLINE
  5
3791E5
330
18
100
AcDbEntity
  8
0
  6
Continuous
 62
     8
370
    15
100
AcDbPolyline
 90
       37
 70
   128
 43
0.0
 10
3833.832997822145
 20
-16553.52972346043
 10
3833.757119006845
 20
-16553.27922435414
 10
3833.381211264978
 20
-16552.25300199806
 10
3832.905013779988
 20
-16551.24075087671
 10
3832.330062277669
 20
-16550.24573436637
 10
3831.658209902271
 20
-16549.27116033857
 10
3830.891623923764
 20
-16548.32017013516
 10
3830.03277322551
 20
-16547.39583134506
 10
3829.084427316438
 20
-16546.5011235479
 10
3828.049648099238
 20
-16545.63892899993
 10
3826.931764516399
 20
-16544.8120316835
 10
3825.734386955866
 20
-16544.02309368907
 10
3824.461371977755
 20
-16543.27466070393
 10
3823.116824742733
 20
-16542.56914516588
 10
3821.705083124636
 20
-16541.90882013303
 10
3820.230692850404
 20
-16541.29581709782
 10
3818.698410916293
 20
-16540.73211123169
 10
3817.113177064657
 20
-16540.21952012573
 10
3815.480101930148
 20
-16539.75969542701
 10
3813.804450576109
 20
-16539.35412093768
 10
3812.091625701685
 20
-16539.00410292065
 10
3810.347148544027
 20
-16538.71077124015
 10
3808.576643731783
 20
-16538.47507061774
 10
3806.785820187288
 20
-16538.29776025224
 10
3804.9804507117
 20
-16538.17941419981
 10
3803.166355521381
 20
-16538.12041186977
 10
3801.349382491564
 20
-16538.12094486762
 10
3799.535392668367
 20
-16538.18101015201
 10
3797.730231292846
 20
-16538.30041459675
 10
3795.939721215536
 20
-16538.4787742305
 10
3794.16963128633
 20
-16538.71551271605
 10
3792.425671744657
 20
-16539.00986705292
 10
3790.713463267891
 20
-16539.36088871782
 10
3789.038525776099
 20
-16539.76744556554
 10
3787.406259334247
 20
-16540.22822677111
 10
3785.821928347131
 20
-16540.74174739187
 10
3784.290638510321
 20
-16541.30635102863
  0
LINE
  5
3791E6
330
18
100
AcDbEntity
  8
0
  6
Continuous
 62
     8
370
    15
100
AcDbLine
 10
3783.97772186773
 20
-16527.77526568657
 30
0.0
 11
3783.97772186773
 21
-16545.35243689156
 31
0.0
  0
LINE
  5
3791E7
330
18
100
AcDbEntity
  8
0
  6
Continuous
 62
     8
370
    15
100
AcDbLine
 10
3785.109092112821
 20
-16528.42839182688
 30
0.0
 11
3783.97772186773
 21
-16527.77526568657
 31
0.0
  0
LINE
  5
3791E8
330
18
100
AcDbEntity
  8
0
  6
Continuous
 62
     8
370
    15
100
AcDbLine
 10
3785.109092112821
 20
-16528.42839182688
 30
0.0
 11
3785.109092112821
 21
-16540.99579662391
 31
0.0
  0
LINE
  5
3791E9
330
18
100
AcDbEntity
  8
0
  6
Continuous
 62
     8
370
    15
100
AcDbLine
 10
3775.492440419736
 20
-16532.67371440009
 30
0.0
 11
3775.492440419736
 21
-16549.46255859307
 31
0.0
  0
ARC
  5
3791EA
330
18
100
AcDbEntity
  8
0
  6
Continuous
 62
     8
370
    15
100
AcDbCircle
 10
3776.874133700223
 20
-16532.73658897769
 30
0.0
 40
1.38312310871333
100
AcDbArc
 50
122.6054556646953
 51
177.3945270732274
  0
LINE
  5
3791EB
330
18
100
AcDbEntity
  8
0
  6
Continuous
 62
     8
370
    15
100
AcDbLine
 10
3776.128836429552
 20
-16531.57144456081
 30
0.0
 11
3776.977364771916
 21
-16531.08159957541
 31
0.0
  0
ARC
  5
3791EC
330
18
100
AcDbEntity
  8
0
  6
Continuous
 62
     8
370
    15
100
AcDbCircle
 10
3777.225794172554
 20
-16531.38616761054
 30
0.0
 40
0.39303798177918
100
AcDbArc
 50
350.7859362283151
 51
129.2033633605358
  0
LINE
  5
3791ED
330
18
100
AcDbEntity
  8
0
  6
Continuous
 62
     8
370
    15
100
AcDbLine
 10
3777.613760781733
 20
-16531.4491022217
 30
0.0
 11
3777.613760781733
 21
-16547.86157279734
 31
0.0
  0
LINE
  5
3791EE
330
18
100
AcDbEntity
  8
0
  6
Continuous
 62
     8
370
    15
100
AcDbLine
 10
3777.613760781733
 20
-16547.86157279734
 30
0.0
 11
3781.856401505731
 21
-16545.41234844058
 31
0.0
  0
LINE
  5
3791EF
330
18
100
AcDbEntity
  8
0
  6
Continuous
 62
     8
370
    15
100
AcDbLine
 10
3781.856401505731
 20
-16545.41234844058
 30
0.0
 11
3781.856401505731
 21
-16528.99987786495
 31
0.0
  0
ARC
  5
3791F0
330
18
100
AcDbEntity
  8
0
  6
Continuous
 62
     8
370
    15
100
AcDbCircle
 10
3783.238094139465
 20
-16529.06275206915
 30
0.0
 40
1.383122445654048
100
AcDbArc
 50
122.6054414304242
 51
177.3945413075674
  0
LINE
  5
3791F1
330
18
100
AcDbEntity
  8
0
  6
Continuous
 62
     8
370
    15
100
AcDbLine
 10
3782.49279751555
 20
-16527.89760802567
 30
0.0
 11
3783.341325857911
 21
-16527.40776304027
 31
0.0
  0
ARC
  5
3791F2
330
18
100
AcDbEntity
  8
0
  6
Continuous
 62
     8
370
    15
100
AcDbCircle
 10
3783.589755162275
 20
-16527.71233124211
 30
0.0
 40
0.3930380501178621
100
AcDbArc
 50
350.7859624661161
 51
129.2033371230004
  0
LINE
  5
3791F3
330
18
100
AcDbEntity
  8
0
  6
Continuous
 62
     8
370
    15
100
AcDbLine
 10
3778.745131026824
 20
-16532.10222836202
 30
0.0
 11
3777.613760781733
 21
-16531.4491022217
 31
0.0
  0
LINE
  5
3791F4
330
18
100
AcDbEntity
  8
0
  6
Continuous
 62
     8
370
    15
100
AcDbLine
 10
3778.745131026824
 20
-16532.10222836202
 30
0.0
 11
3778.745131026824
 21
-16547.20844574573
 31
0.0
  0
ARC
  5
3791F5
330
18
100
AcDbEntity
  8
0
  6
Continuous
 62
     8
370
    15
100
AcDbCircle
 10
3784.669643963241
 20
-16528.37901125225
 30
0.0
 40
0.4422138818703467
100
AcDbArc
 50
353.5885962821771
 51
55.09926243552334
  0
ARC
  5
3791F6
330
18
100
AcDbEntity
  8
0
  6
Continuous
 62
     8
370
    15
100
AcDbCircle
 10
3778.305683308257
 20
-16532.05284759238
 30
0.0
 40
0.4422134753306322
100
AcDbArc
 50
353.5885649380393
 51
55.09929377980516
  0
ARC
  5
3791F7
330
18
100
AcDbEntity
  8
0
  6
Continuous
 62
     8
370
    15
100
AcDbCircle
 10
3802.274109372585
 20
-16575.61738473922
 30
0.0
 40
47.43042727071919
100
AcDbArc
 50
85.28875536676142
 51
94.71124463323859
  0
ARC
  5
3791F8
330
18
100
AcDbEntity
  8
0
  6
Continuous
 62
     8
370
    15
100
AcDbCircle
 10
3799.724885996113
 20
-16563.71194282886
 30
0.0
 40
35.22764004880079
100
AcDbArc
 50
104.05391531267
 51
114.5127445184626
  0
LINE
  5
3791F9
330
18
100
AcDbEntity
  8
0
  6
Continuous
 62
     8
370
    15
100
AcDbLine
 10
3779.037517544379
 20
-16535.57206047301
 30
0.0
 11
3778.745131026824
 21
-16535.84479456176
 31
0.0
  0
ARC
  5
3791FA
330
18
100
AcDbEntity
  8
0
  6
Continuous
 62
     8
370
    15
100
AcDbCircle
 10
3802.274109372585
 20
-16576.54287760123
 30
0.0
 40
48.81774703230714
100
AcDbArc
 50
85.39826238145017
 51
94.6017376185498
  0
ARC
  5
3791FB
330
18
100
AcDbEntity
  8
0
  6
Continuous
 62
     8
370
    15
100
AcDbCircle
 10
3799.800178761641
 20
-16564.72906600757
 30
0.0
 40
36.72224869155839
100
AcDbArc
 50
103.5573266756857
 51
113.5819016250673
  0
LINE
  5
3791FC
330
18
100
AcDbEntity
  8
0
  6
Continuous
 62
     8
370
    15
100
AcDbLine
 10
3779.064416782624
 20
-16534.71473893964
 30
0.0
 11
3778.745131026824
 21
-16534.98464703727
 31
0.0
  0
ARC
  5
3791FD
330
18
100
AcDbEntity
  8
0
  6
Continuous
 62
     8
370
    15
100
AcDbCircle
 10
3802.274109372585
 20
-16574.33267265349
 30
0.0
 40
48.64615030694877
100
AcDbArc
 50
85.27383407845936
 51
94.72616592154061
  0
ARC
  5
3791FE
330
18
100
AcDbEntity
  8
0
  6
Continuous
 62
     8
370
    15
100
AcDbCircle
 10
3799.933452529754
 20
-16562.9611630322
 30
0.0
 40
37.01319823819773
100
AcDbArc
 50
103.522926276936
 51
113.6104102081441
  0
LWPOLYLINE
  5
3791FF
330
18
100
AcDbEntity
  8
0
  6
Continuous
 62
     8
370
    15
100
AcDbPolyline
 90
        3
 70
   128
 43
0.0
 10
3779.129175415361
 20
-16532.6553340474
 10
3779.024178066825
 20
-16532.74279074532
 10
3778.745131685369
 20
-16532.98133503672
  0
ARC
  5
379200
330
18
100
AcDbEntity
  8
0
  6
Continuous
 62
     8
370
    15
100
AcDbCircle
 10
3816.093710521109
 20
-16546.19778007807
 30
0.0
 40
14.19808545496659
100
AcDbArc
 50
27.79843551977497
 51
48.45119433554538
  0
ARC
  5
379201
330
18
100
AcDbEntity
  8
0
  6
Continuous
 62
     8
370
    15
100
AcDbCircle
 10
3804.870048070532
 20
-16563.55128254194
 30
0.0
 40
35.0604451612271
100
AcDbArc
 50
64.84852494817181
 51
75.95638522574858
  0
ARC
  5
379202
330
18
100
AcDbEntity
  8
0
  6
Continuous
 62
     8
370
    15
100
AcDbCircle
 10
3815.01971706547
 20
-16547.55352737906
 30
0.0
 40
16.5629575053861
100
AcDbArc
 50
34.27422418231947
 51
50.81869938747018
  0
ARC
  5
379203
330
18
100
AcDbEntity
  8
0
  6
Continuous
 62
     8
370
    15
100
AcDbCircle
 10
3804.622524586455
 20
-16565.06906767049
 30
0.0
 40
37.0822237310701
100
AcDbArc
 50
65.84038857807984
 51
76.37729165066742
  0
ARC
  5
379204
330
18
100
AcDbEntity
  8
0
  6
Continuous
 62
     8
370
    15
100
AcDbCircle
 10
3815.287769152197
 20
-16545.17173178743
 30
0.0
 40
16.10288573047536
100
AcDbArc
 50
33.08858663233653
 51
51.01190367588758
  0
ARC
  5
379205
330
18
100
AcDbEntity
  8
0
  6
Continuous
 62
     8
370
    15
100
AcDbCircle
 10
3804.760906626126
 20
-16562.49160395378
 30
0.0
 40
36.52249862725966
100
AcDbArc
 50
65.51765134255469
 51
76.52772933217149
  0
LINE
  5
379206
330
18
100
AcDbEntity
  8
0
  6
Continuous
 62
     8
370
    15
100
AcDbLine
 10
3800.296336896075
 20
-16523.31666148171
 30
0.0
 11
3800.239850899446
 21
-16523.31988359404
 31
0.0
  0
ARC
  5
379207
330
18
100
AcDbEntity
  8
0
  6
Continuous
 62
     8
370
    15
100
AcDbCircle
 10
3802.274109372585
 20
-16553.4917448087
 30
0.0
 40
30.23982866617212
100
AcDbArc
 50
86.25001318822578
 51
93.74998681177415
  0
LINE
  5
379208
330
18
100
AcDbEntity
  8
0
  6
Continuous
 62
     8
370
    15
100
AcDbLine
 10
3804.308367845722
 20
-16523.31988359404
 30
0.0
 11
3804.251881849095
 21
-16523.31666148171
 31
0.0
  0
LINE
  5
379209
330
18
100
AcDbEntity
  8
0
  6
Continuous
 62
     8
370
    15
100
AcDbLine
 10
3810.804861343223
 20
-16524.53306007919
 30
0.0
 11
3810.755649299959
 21
-16524.5177012408
 31
0.0
  0
LINE
  5
37920A
330
18
100
AcDbEntity
  8
0
  6
Continuous
 62
     8
370
    15
100
AcDbLine
 10
3793.792569445211
 20
-16524.5177012408
 30
0.0
 11
3793.743357401947
 21
-16524.53306007919
 31
0.0
  0
SPLINE
  5
37920B
330
18
100
AcDbEntity
  8
0
  6
Continuous
 62
     8
370
    15
100
AcDbSpline
210
0.0
220
0.0
230
1.0
 70
     8
 71
     3
 72
    17
 73
    13
 74
     0
 42
0.000000001
 43
0.0000000001
 40
0.0
 40
0.0
 40
0.0
 40
0.0
 40
0.0277421347173908
 40
0.1374004871412868
 40
0.2479814646236647
 40
0.3586983404614563
 40
0.4668137017847334
 40
0.5762951147708606
 40
0.6793752683540369
 40
0.7828439974704697
 40
0.8901794312675075
 40
1.0
 40
1.0
 40
1.0
 40
1.0
 10
3807.658450270827
 20
-16495.7852709679
 30
0.0
 10
3807.66057077741
 20
-16495.77804367871
 30
0.0
 10
3807.67107316451
 20
-16495.74224855821
 30
0.0
 10
3807.662885553931
 20
-16495.67537299145
 30
0.0
 10
3807.602052131927
 20
-16495.59378126052
 30
0.0
 10
3807.497149753977
 20
-16495.52944681306
 30
0.0
 10
3807.36190061723
 20
-16495.48960219932
 30
0.0
 10
3807.214914486567
 20
-16495.47866552027
 30
0.0
 10
3807.072005531687
 20
-16495.49599614642
 30
0.0
 10
3806.947608925227
 20
-16495.53868109937
 30
0.0
 10
3806.848005173721
 20
-16495.60377265525
 30
0.0
 10
3806.818911937256
 20
-16495.65916471162
 30
0.0
 10
3806.804198847416
 20
-16495.68717769336
 30
0.0
  0
SPLINE
  5
37920C
330
18
100
AcDbEntity
  8
0
  6
Continuous
 62
     8
370
    15
100
AcDbSpline
210
0.0
220
0.0
230
1.0
 70
     8
 71
     3
 72
    14
 73
    10
 74
     0
 42
0.000000001
 43
0.0000000001
 40
0.0
 40
0.0
 40
0.0
 40
0.0
 40
0.1411443961946673
 40
0.1784610083397828
 40
0.3673300767182668
 40
0.5794598075445664
 40
0.824421217155676
 40
0.9941904189755298
 40
0.9999999999999998
 40
0.9999999999999998
 40
0.9999999999999998
 40
0.9999999999999998
 10
3800.239850899446
 20
-16523.31988359404
 30
0.0
 10
3800.198248840781
 20
-16523.31781819956
 30
0.0
 10
3800.14564777734
 20
-16523.31520674356
 30
0.0
 10
3800.047205664462
 20
-16523.28233047884
 30
0.0
 10
3799.943140267616
 20
-16523.21822006146
 30
0.0
 10
3799.835234208503
 20
-16523.08339142817
 30
0.0
 10
3799.77467585849
 20
-16522.92907741735
 30
0.0
 10
3799.758696661187
 20
-16522.81892303844
 30
0.0
 10
3799.756376226867
 20
-16522.77240421202
 30
0.0
 10
3799.756299447937
 20
-16522.77086498908
 30
0.0
  0
SPLINE
  5
37920D
330
18
100
AcDbEntity
  8
0
  6
Continuous
 62
     8
370
    15
100
AcDbSpline
210
0.0
220
0.0
230
1.0
 70
     8
 71
     3
 72
    14
 73
    10
 74
     0
 42
0.000000001
 43
0.0000000001
 40
0.0
 40
0.0
 40
0.0
 40
0.0
 40
0.00580958102447
 40
0.1755787828443238
 40
0.4205401924554337
 40
0.6326699232817333
 40
0.8215389916602172
 40
0.8588556038053325
 40
0.9999999999999998
 40
0.9999999999999998
 40
0.9999999999999998
 40
0.9999999999999998
 10
3804.791919297233
 20
-16522.77086498908
 30
0.0
 10
3804.791842518302
 20
-16522.77240421202
 30
0.0
 10
3804.789522083984
 20
-16522.81892303844
 30
0.0
 10
3804.77354288668
 20
-16522.92907741735
 30
0.0
 10
3804.712984536665
 20
-16523.08339142817
 30
0.0
 10
3804.605078477554
 20
-16523.21822006146
 30
0.0
 10
3804.501013080707
 20
-16523.28233047884
 30
0.0
 10
3804.402570967829
 20
-16523.31520674356
 30
0.0
 10
3804.349969904389
 20
-16523.31781819956
 30
0.0
 10
3804.308367845722
 20
-16523.31988359404
 30
0.0
  0
LINE
  5
37920E
330
18
100
AcDbEntity
  8
0
  6
Continuous
 62
     8
370
    15
100
AcDbLine
 10
3800.731678609061
 20
-16505.25723545125
 30
0.0
 11
3797.744049532257
 21
-16495.68717427183
 31
0.0
  0
LINE
  5
37920F
330
18
100
AcDbEntity
  8
0
  6
Continuous
 62
     8
370
    15
100
AcDbLine
 10
3800.948188616223
 20
-16515.56624011537
 30
0.0
 11
3800.73167992615
 21
-16505.25728716273
 31
0.0
  0
SPLINE
  5
379210
330
18
100
AcDbEntity
  8
0
  6
Continuous
 62
     8
370
    15
100
AcDbSpline
210
0.0
220
0.0
230
1.0
 70
     8
 71
     3
 72
    12
 73
     8
 74
     0
 42
0.000000001
 43
0.0000000001
 40
0.0
 40
0.0
 40
0.0
 40
0.0
 40
0.2160509703992281
 40
0.4320962728416168
 40
0.6483086412279726
 40
0.8651519468239388
 40
1.0
 40
1.0
 40
1.0
 40
1.0
 10
3800.774461282295
 20
-16515.58099595236
 30
0.0
 10
3800.774754281432
 20
-16515.5390738968
 30
0.0
 10
3800.775340272021
 20
-16515.45523088547
 30
0.0
 10
3800.790039181285
 20
-16515.38474578437
 30
0.0
 10
3800.813184910314
 20
-16515.36711814548
 30
0.0
 10
3800.839400584642
 20
-16515.39964491829
 30
0.0
 10
3800.857034250746
 20
-16515.44651888283
 30
0.0
 10
3800.863795478981
 20
-16515.46449163851
 30
0.0
  0
SPLINE
  5
379211
330
18
100
AcDbEntity
  8
0
  6
Continuous
 62
     8
370
    15
100
AcDbSpline
210
0.0
220
0.0
230
1.0
 70
     8
 71
     3
 72
    12
 73
     8
 74
     0
 42
0.000000001
 43
0.0000000001
 40
0.0
 40
0.0
 40
0.0
 40
0.0
 40
0.217933147171725
 40
0.4358890526434218
 40
0.6532846722481063
 40
0.8698862151213198
 40
1.0
 40
1.0
 40
1.0
 40
1.0
 10
3803.684423266189
 20
-16515.46449163851
 30
0.0
 10
3803.695352553766
 20
-16515.43701030004
 30
0.0
 10
3803.717212270241
 20
-16515.38204475328
 30
0.0
 10
3803.745098572839
 20
-16515.3673176104
 30
0.0
 10
3803.765018297794
 20
-16515.4068758893
 30
0.0
 10
3803.774024335247
 20
-16515.48610107383
 30
0.0
 10
3803.773830285138
 20
-16515.55510170328
 30
0.0
 10
3803.773757462875
 20
-16515.58099595236
 30
0.0
  0
LINE
  5
379212
330
18
100
AcDbEntity
  8
0
  6
Continuous
 62
     8
370
    15
100
AcDbLine
 10
3803.59969591761
 20
-16515.5655625574
 30
0.0
 11
3803.816490745269
 21
-16505.25734075182
 31
0.0
  0
LINE
  5
379213
330
18
100
AcDbEntity
  8
0
  6
Continuous
 62
     8
370
    15
100
AcDbLine
 10
3806.804169212913
 20
-16495.68717427183
 30
0.0
 11
3803.816489428181
 21
-16505.25739550515
 31
0.0
  0
SPLINE
  5
379214
330
18
100
AcDbEntity
  8
0
  6
Continuous
 62
     8
370
    15
100
AcDbSpline
210
0.0
220
0.0
230
1.0
 70
     8
 71
     3
 72
    14
 73
    10
 74
     0
 42
0.000000001
 43
0.0000000001
 40
0.0
 40
0.0
 40
0.0
 40
0.0
 40
0.005809376121097
 40
0.1755786555882852
 40
0.4205405943115292
 40
0.6326702353177904
 40
0.8215395640580103
 40
0.8588554962878172
 40
0.9999999999999998
 40
0.9999999999999998
 40
0.9999999999999998
 40
0.9999999999999998
 10
3811.249485570323
 20
-16524.09062393711
 30
0.0
 10
3811.249333045023
 20
-16524.09213663001
 30
0.0
 10
3811.244723223513
 20
-16524.13785523734
 30
0.0
 10
3811.224790867515
 20
-16524.24389242824
 30
0.0
 10
3811.16426225104
 20
-16524.38430014353
 30
0.0
 10
3811.064344994284
 20
-16524.49526275639
 30
0.0
 10
3810.971718969916
 20
-16524.5367910084
 30
0.0
 10
3810.885680934687
 20
-16524.54847939937
 30
0.0
 10
3810.84055303541
 20
-16524.53986958688
 30
0.0
 10
3810.804861343223
 20
-16524.53306007919
 30
0.0
  0
SPLINE
  5
379215
330
18
100
AcDbEntity
  8
0
  6
Continuous
 62
     8
370
    15
100
AcDbSpline
210
0.0
220
0.0
230
1.0
 70
     8
 71
     3
 72
    14
 73
    10
 74
     0
 42
0.000000001
 43
0.0000000001
 40
0.0
 40
0.0
 40
0.0
 40
0.0
 40
0.1411445037121827
 40
0.1784604359419896
 40
0.3673297646822096
 40
0.5794594056884709
 40
0.8244213444117148
 40
0.994190623878903
 40
1.0
 40
1.0
 40
1.0
 40
1.0
 10
3793.743357401947
 20
-16524.53306007919
 30
0.0
 10
3793.70766570976
 20
-16524.53986958688
 30
0.0
 10
3793.662537810482
 20
-16524.54847939937
 30
0.0
 10
3793.576499775254
 20
-16524.5367910084
 30
0.0
 10
3793.483873750887
 20
-16524.49526275639
 30
0.0
 10
3793.38395649413
 20
-16524.38430014353
 30
0.0
 10
3793.323427877656
 20
-16524.24389242824
 30
0.0
 10
3793.303495521655
 20
-16524.13785523734
 30
0.0
 10
3793.298885700147
 20
-16524.09213663001
 30
0.0
 10
3793.298733174848
 20
-16524.09062393711
 30
0.0
  0
ARC
  5
379216
330
18
100
AcDbEntity
  8
0
  6
Continuous
 62
     8
370
    15
100
AcDbCircle
 10
3802.274109372585
 20
-16534.55937950617
 30
0.0
 40
18.90297456364536
100
AcDbArc
 50
86.27991718405062
 51
93.72008281594933
  0
ARC
  5
379217
330
18
100
AcDbEntity
  8
0
  6
Continuous
 62
     8
370
    15
100
AcDbCircle
 10
3800.995169262145
 20
-16515.43921052805
 30
0.0
 40
0.2623263595566376
100
AcDbArc
 50
212.7171703020698
 51
281.5392856846499
  0
ARC
  5
379218
330
18
100
AcDbEntity
  8
0
  6
Continuous
 62
     8
370
    15
100
AcDbCircle
 10
3803.553049483025
 20
-16515.43921052805
 30
0.0
 40
0.2623263595570398
100
AcDbArc
 50
258.4607143155283
 51
327.2828296979843
  0
LINE
  5
379219
330
18
100
AcDbEntity
  8
0
  6
Continuous
 62
     8
370
    15
100
AcDbLine
 10
3800.714296326772
 20
-16505.1910046442
 30
0.0
 11
3800.73168124324
 21
-16505.25734191605
 31
0.0
  0
LINE
  5
37921A
330
18
100
AcDbEntity
  8
0
  6
Continuous
 62
     8
370
    15
100
AcDbLine
 10
3803.833804868201
 20
-16505.19133824851
 30
0.0
 11
3803.816489428181
 21
-16505.25739550515
 31
0.0
  0
SPLINE
  5
37921B
330
18
100
AcDbEntity
  8
0
  6
Continuous
 62
     8
370
    15
100
AcDbSpline
210
0.0
220
0.0
230
1.0
 70
     8
 71
     3
 72
     9
 73
     5
 74
     0
 42
0.000000001
 43
0.0000000001
 40
0.0
 40
0.0
 40
0.0
 40
0.0
 40
0.5086020904714526
 40
1.0
 40
1.0
 40
1.0
 40
1.0
 10
3803.816750541079
 20
-16505.25732116517
 30
0.0
 10
3803.812962625854
 20
-16505.26933094757
 30
0.0
 10
3803.805514926965
 20
-16505.29294426459
 30
0.0
 10
3803.812165636549
 20
-16505.3166053035
 30
0.0
 10
3803.815433781335
 20
-16505.32823228855
 30
0.0
  0
LINE
  5
37921C
330
18
100
AcDbEntity
  8
0
  6
Continuous
 62
     8
370
    15
100
AcDbLine
 10
3800.73339642241
 20
-16505.32805112832
 30
0.0
 11
3800.732786610197
 21
-16505.3062422765
 31
0.0
  0
LINE
  5
37921D
330
18
100
AcDbEntity
  8
0
  6
Continuous
 62
     8
370
    15
100
AcDbLine
 10
3823.215307768996
 20
-16501.60274118864
 30
0.0
 11
3823.242744050288
 21
-16501.60062505877
 31
0.0
  0
LINE
  5
37921E
330
18
100
AcDbEntity
  8
0
  6
Continuous
 62
     8
370
    15
100
AcDbLine
 10
3827.119673277035
 20
-16506.86104880653
 30
0.0
 11
3827.127205050572
 21
-16506.8629241866
 31
0.0
  0
LWPOLYLINE
  5
37921F
330
18
100
AcDbEntity
  8
0
  6
Continuous
 62
     8
370
    15
100
AcDbPolyline
 90
        3
 70
   128
 43
0.0
 10
3778.929930140293
 20
-16538.3076447807
 10
3778.787962761624
 20
-16538.42906849655
 10
3778.745130697552
 20
-16538.46616868266
  0
ARC
  5
379220
330
18
100
AcDbEntity
  8
0
  6
Continuous
 62
     8
370
    15
100
AcDbCircle
 10
3799.80831864357
 20
-16568.14371291472
 30
0.0
 40
36.6786393913166
100
AcDbArc
 50
103.8235173765076
 51
113.6255198972124
  0
ARC
  5
379221
330
18
100
AcDbEntity
  8
0
  6
Continuous
 62
     8
370
    15
100
AcDbCircle
 10
3802.274109372585
 20
-16579.91678871275
 30
0.0
 40
48.7333409176337
100
AcDbArc
 50
85.57355067257696
 51
94.42644932742303
  0
ARC
  5
379222
330
18
100
AcDbEntity
  8
0
  6
Continuous
 62
     8
370
    15
100
AcDbCircle
 10
3804.590133885817
 20
-16568.5663875731
 30
0.0
 40
37.12488236772895
100
AcDbArc
 50
66.09549500613981
 51
76.10790044501401
  0
LWPOLYLINE
  5
379223
330
18
100
AcDbEntity
  8
0
  6
Continuous
 62
     8
370
    15
100
AcDbPolyline
 90
        3
 70
   128
 43
0.0
 10
3826.481106045974
 20
-16539.0848987836
 10
3825.880889812879
 20
-16538.53412857005
 10
3825.634381457019
 20
-16538.32129173071
  0
ARC
  5
379224
330
18
100
AcDbEntity
  8
0
  6
Continuous
 62
     8
370
    15
100
AcDbCircle
 10
3802.274109372585
 20
-16579.50720069114
 30
0.0
 40
48.7320248865594
100
AcDbArc
 50
85.55179172908748
 51
94.44820827091252
  0
ARC
  5
379225
330
18
100
AcDbEntity
  8
0
  6
Continuous
 62
     8
370
    15
100
AcDbCircle
 10
3804.595102947631
 20
-16568.13789274147
 30
0.0
 40
37.10410309631281
100
AcDbArc
 50
66.010174861885
 51
76.13546611481637
  0
ARC
  5
379226
330
18
100
AcDbEntity
  8
0
  6
Continuous
 62
     8
370
    15
100
AcDbCircle
 10
3799.811303604962
 20
-16567.74301787462
 30
0.0
 40
36.68677612987954
100
AcDbArc
 50
103.7972881611865
 51
113.6250495995061
  0
LWPOLYLINE
  5
379227
330
18
100
AcDbEntity
  8
0
  6
Continuous
 62
     8
370
    15
100
AcDbPolyline
 90
        3
 70
   128
 43
0.0
 10
3778.965620947719
 20
-16537.86921449889
 10
3778.787962761624
 20
-16538.02079802369
 10
3778.745130697552
 20
-16538.0578982098
  0
ARC
  5
379228
330
18
100
AcDbEntity
  8
0
  6
Continuous
 62
     8
370
    15
100
AcDbCircle
 10
3815.135579903188
 20
-16550.45534947406
 30
0.0
 40
16.35698555651564
100
AcDbArc
 50
34.65418555407365
 51
50.30590945218644
  0
ARC
  5
379229
330
18
100
AcDbEntity
  8
0
  6
Continuous
 62
     8
370
    15
100
AcDbCircle
 10
3799.866254531025
 20
-16568.75312680641
 30
0.0
 40
36.88761590371365
100
AcDbArc
 50
103.9182497916258
 51
112.9258906012598
  0
ARC
  5
37922A
330
18
100
AcDbEntity
  8
0
  6
Continuous
 62
     8
370
    15
100
AcDbCircle
 10
3802.274109372585
 20
-16580.32748048819
 30
0.0
 40
48.73575963937717
100
AcDbArc
 50
85.62001626607169
 51
94.37998373392834
  0
ARC
  5
37922B
330
18
100
AcDbEntity
  8
0
  6
Continuous
 62
     8
370
    15
100
AcDbCircle
 10
3804.502120117223
 20
-16569.29272351176
 30
0.0
 40
37.45467258529225
100
AcDbArc
 50
67.14226908229985
 51
76.02489530229707
  0
ARC
  5
37922C
330
18
100
AcDbEntity
  8
0
  6
Continuous
 62
     8
370
    15
100
AcDbCircle
 10
3804.584465724433
 20
-16568.58647693019
 30
0.0
 40
37.14574500184343
100
AcDbArc
 50
66.15734930394312
 51
76.10685307314408
  0
LWPOLYLINE
  5
37922D
330
18
100
AcDbEntity
  8
0
  6
Continuous
 62
     8
370
    15
100
AcDbPolyline
 90
        3
 70
   128
 43
0.0
 10
3778.929930140293
 20
-16538.3076447807
 10
3778.787962761624
 20
-16538.42906849655
 10
3778.745130697552
 20
-16538.46616868266
  0
LWPOLYLINE
  5
37922E
330
18
100
AcDbEntity
  8
0
  6
Continuous
 62
     8
370
    15
100
AcDbPolyline
 90
        3
 70
   128
 43
0.0
 10
3826.481106045974
 20
-16539.0848987836
 10
3825.880889812879
 20
-16538.53412857005
 10
3825.634381457019
 20
-16538.32129173071
  0
LINE
  5
37922F
330
18
100
AcDbEntity
  8
0
  6
Continuous
 62
     8
370
    15
100
AcDbLine
 10
3773.215413464996
 20
-16558.68247172316
 30
0.0
 11
3773.151445744213
 21
-16558.81809458544
 31
0.0
  0
SPLINE
  5
379230
330
18
100
AcDbEntity
  8
0
  6
Continuous
 62
     8
370
    15
100
AcDbSpline
210
0.0
220
0.0
230
1.0
 70
     8
 71
     3
 72
    10
 73
     6
 74
     0
 42
0.000000001
 43
0.0000000001
 40
0.0
 40
0.0
 40
0.0
 40
0.0
 40
0.395073830483954
 40
0.8156505856998624
 40
1.0
 40
1.0
 40
1.0
 40
1.0
 10
3823.987918030345
 20
-16575.59136103793
 30
0.0
 10
3823.973841875191
 20
-16575.59750777916
 30
0.0
 10
3823.944780916685
 20
-16575.6101980479
 30
0.0
 10
3823.898290519453
 20
-16575.60026654489
 30
0.0
 10
3823.869864849774
 20
-16575.58539180115
 30
0.0
 10
3823.861202213207
 20
-16575.58085876814
 30
0.0
  0
SPLINE
  5
379231
330
18
100
AcDbEntity
  8
0
  6
Continuous
 62
     8
370
    15
100
AcDbSpline
210
0.0
220
0.0
230
1.0
 70
     8
 71
     3
 72
    11
 73
     7
 74
     0
 42
0.000000001
 43
0.0000000001
 40
0.0
 40
0.0
 40
0.0
 40
0.0
 40
0.2910542194990535
 40
0.5821146501298773
 40
0.8730943103990126
 40
1.0
 40
1.0
 40
1.0
 40
1.0
 10
3822.446988583662
 20
-16576.39726691874
 30
0.0
 10
3822.466898540495
 20
-16576.40650607524
 30
0.0
 10
3822.50671887904
 20
-16576.4249845854
 30
0.0
 10
3822.559498914468
 20
-16576.42017229991
 30
0.0
 10
3822.592744604302
 20
-16576.39743567724
 30
0.0
 10
3822.605288987575
 20
-16576.375140736
 30
0.0
 10
3822.609098533927
 20
-16576.36837008731
 30
0.0
  0
SPLINE
  5
379232
330
18
100
AcDbEntity
  8
0
  6
Continuous
 62
     8
370
    15
100
AcDbSpline
210
0.0
220
0.0
230
1.0
 70
     8
 71
     3
 72
    10
 73
     6
 74
     0
 42
0.000000001
 43
0.0000000001
 40
0.0
 40
0.0
 40
0.0
 40
0.0
 40
0.446985668231235
 40
0.894899600438478
 40
1.0
 40
1.0
 40
1.0
 40
1.0
 10
3822.609098533927
 20
-16576.36837008731
 30
0.0
 10
3822.612705946105
 20
-16576.36104202729
 30
0.0
 10
3822.619928262045
 20
-16576.3463706889
 30
0.0
 10
3822.632021561174
 20
-16576.32491371658
 30
0.0
 10
3822.639657901929
 20
-16576.31336543963
 30
0.0
 10
3822.641109188847
 20
-16576.31117068905
 30
0.0
  0
ARC
  5
379233
330
18
100
AcDbEntity
  8
0
  6
Continuous
 62
     8
370
    15
100
AcDbCircle
 10
3809.259658526696
 20
-16551.50587974396
 30
0.0
 40
28.16379164592378
100
AcDbArc
 50
298.5003215433486
 51
301.2454297144993
  0
SPLINE
  5
379234
330
18
100
AcDbEntity
  8
0
  6
Continuous
 62
     8
370
    15
100
AcDbSpline
210
0.0
220
0.0
230
1.0
 70
     8
 71
     3
 72
    10
 73
     6
 74
     0
 42
0.000000001
 43
0.0000000001
 40
0.0
 40
0.0
 40
0.0
 40
0.0
 40
0.400018152075626
 40
0.7999350492977583
 40
1.0
 40
1.0
 40
1.0
 40
1.0
 10
3822.698397333844
 20
-16576.25662638215
 30
0.0
 10
3822.69014753217
 20
-16576.26189622565
 30
0.0
 10
3822.673650017057
 20
-16576.27243457872
 30
0.0
 10
3822.654032746468
 20
-16576.29304115081
 30
0.0
 10
3822.644340938442
 20
-16576.30663709779
 30
0.0
 10
3822.641109188847
 20
-16576.31117068905
 30
0.0
  0
LWPOLYLINE
  5
379235
330
18
100
AcDbEntity
  8
0
  6
Continuous
 62
     8
370
    15
100
AcDbPolyline
 90
      106
 70
   128
 43
0.0
 10
3822.353414677434
 20
-16576.3432478525
 10
3821.046743917903
 20
-16577.00724451633
 10
3819.674317900841
 20
-16577.62545406997
 10
3818.240945400561
 20
-16578.19571177989
 10
3816.751646666485
 20
-16578.71601975954
 10
3815.211636383301
 20
-16579.1845552855
 10
3813.626309676889
 20
-16579.59967735548
 10
3812.001221370174
 20
-16579.95993258091
 10
3810.34206062916
 20
-16580.26405765801
 10
3808.654640426219
 20
-16580.51098849194
 10
3806.944871856856
 20
-16580.69985981657
 10
3805.218742407736
 20
-16580.8300101367
 10
3803.482298834533
 20
-16580.9009840091
 10
3801.741624771409
 20
-16580.91253280279
 10
3800.002814389243
 20
-16580.86461469913
 10
3798.271960541824
 20
-16580.75739849345
 10
3796.555124472801
 20
-16580.59125979336
 10
3794.858320010622
 20
-16580.36678101874
 10
3793.18749051947
 20
-16580.08474721996
 10
3791.54848980148
 20
-16579.74614721828
 10
3789.947055754947
 20
-16579.35216752317
 10
3788.388800496168
 20
-16578.9041866298
 10
3786.8791823713
 20
-16578.40377406857
 10
3785.423486200016
 20
-16577.85268356209
 10
3784.026813561986
 20
-16577.25284437631
 10
3782.694054397135
 20
-16576.6063586118
 10
3781.42987945811
 20
-16575.91548924325
 10
3780.238714663059
 20
-16575.18265747913
 10
3779.124732380201
 20
-16574.41043012689
 10
3778.09183511857
 20
-16573.60151169862
 10
3777.143641662553
 20
-16572.75873488589
 10
3776.283472887467
 20
-16571.88505237136
 10
3775.514339000257
 20
-16570.9835249009
 10
3774.838937728505
 20
-16570.0573095934
 10
3774.259634564079
 20
-16569.10965005631
 10
3773.778455189886
 20
-16568.14386745173
 10
3773.397089431135
 20
-16567.16334300853
 10
3773.116868206276
 20
-16566.17151231988
 10
3772.938778014982
 20
-16565.17184785537
 10
3772.863439206181
 20
-16564.16785249819
 10
3772.891116514762
 20
-16563.16304281761
 10
3773.021713793229
 20
-16562.16093842427
 10
3773.254772694605
 20
-16561.16504904441
 10
3773.589477940786
 20
-16560.17886235442
 10
3774.024656005464
 20
-16559.20583409643
 10
3774.558783016642
 20
-16558.24937135087
 10
3775.189988049375
 20
-16557.31282455289
 10
3775.916061028296
 20
-16556.39947380624
 10
3776.734456678879
 20
-16555.5125189989
 10
3777.642311320332
 20
-16554.65506706734
 10
3778.636442207049
 20
-16553.83012021131
 10
3779.713369589848
 20
-16553.04056924084
 10
3780.869320296813
 20
-16552.28917934365
 10
3782.100244773128
 20
-16551.57858176897
 10
3783.401831280944
 20
-16550.91126563007
 10
3784.769521869086
 20
-16550.28956868517
 10
3786.198526572916
 20
-16549.71566914007
 10
3787.683837819995
 20
-16549.19157581119
 10
3789.220255084345
 20
-16548.71912605849
 10
3790.802396410973
 20
-16548.29997304968
 10
3792.424718830754
 20
-16547.93558614047
 10
3794.081540421675
 20
-16547.62724118022
 10
3795.767057430988
 20
-16547.37601823092
 10
3797.47536798281
 20
-16547.18279700513
 10
3799.200485907566
 20
-16547.04825496518
 10
3800.936369717938
 20
-16546.97286276108
 10
3802.676939731029
 20
-16546.95688499093
 10
3804.416099141782
 20
-16547.0003771595
 10
3806.147756413503
 20
-16547.10318643858
 10
3807.865843717092
 20
-16547.26495470836
 10
3809.564345907012
 20
-16547.48511247469
 10
3811.237311716548
 20
-16547.76289141472
 10
3812.878884050842
 20
-16548.09731601312
 10
3814.483309865074
 20
-16548.48721686803
 10
3816.044970457504
 20
-16548.93122841006
 10
3817.558396945263
 20
-16549.42779327424
 10
3819.018287386518
 20
-16549.97517370507
 10
3820.41952703071
 20
-16550.57145260206
 10
3821.757208980394
 20
-16551.21454088544
 10
3823.026648375664
 20
-16551.90218568469
 10
3824.223398893784
 20
-16552.63197834291
 10
3825.343266424272
 20
-16553.40136383195
 10
3826.38233095522
 20
-16554.20764578369
 10
3827.336951147092
 20
-16555.04800129591
 10
3828.203785051144
 20
-16555.91948528933
 10
3828.97979480156
 20
-16556.81904690252
 10
3829.662261597339
 20
-16557.7435350993
 10
3830.248797556096
 20
-16558.68971007389
 10
3830.737347360422
 20
-16559.65425940812
 10
3831.126198136051
 20
-16560.63380377395
 10
3831.413989988574
 20
-16561.62491214026
 10
3831.599714027803
 20
-16562.6241127978
 10
3831.682719611768
 20
-16563.62790666507
 10
3831.662714346705
 20
-16564.63277641246
 10
3831.539770672509
 20
-16565.63520395
 10
3831.314319277291
 20
-16566.63167727044
 10
3830.987149097369
 20
-16567.61870565604
 10
3830.559406000187
 20
-16568.59283260433
 10
3830.032588833048
 20
-16569.55064571249
 10
3829.408540862026
 20
-16570.48878922301
 10
3828.689450430523
 20
-16571.40397885026
 10
3827.877835154195
 20
-16572.29300786323
 10
3826.976537640408
 20
-16573.15276172204
 10
3825.988715280806
 20
-16573.98023005329
 10
3824.917828891413
 20
-16574.77251472869
 10
3823.767628306979
 20
-16575.52683970191
  0
LINE
  5
379236
330
18
100
AcDbEntity
  8
0
  6
Continuous
 62
     8
370
    15
100
AcDbLine
 10
3822.446988583662
 20
-16576.39726691874
 30
0.0
 11
3822.353414677434
 21
-16576.3432478525
 31
0.0
  0
LINE
  5
379237
330
18
100
AcDbEntity
  8
0
  6
Continuous
 62
     8
370
    15
100
AcDbLine
 10
3823.767628306979
 20
-16575.52683970191
 30
0.0
 11
3823.861202213207
 21
-16575.58085876814
 31
0.0
  0
SPLINE
  5
379238
330
18
100
AcDbEntity
  8
0
  6
Continuous
 62
     8
370
    15
100
AcDbSpline
210
0.0
220
0.0
230
1.0
 70
     8
 71
     3
 72
    10
 73
     6
 74
     0
 42
0.000000001
 43
0.0000000001
 40
0.0
 40
0.0
 40
0.0
 40
0.0
 40
0.3211286843979161
 40
0.5859972235878136
 40
0.9999999999999998
 40
0.9999999999999998
 40
0.9999999999999998
 40
0.9999999999999998
 10
3823.51499219447
 20
-16575.25851506481
 30
0.0
 10
3823.537656340915
 20
-16575.29452390975
 30
0.0
 10
3823.579013988288
 20
-16575.36023302944
 30
0.0
 10
3823.665155897032
 20
-16575.45632712189
 30
0.0
 10
3823.728809688682
 20
-16575.50012811261
 30
0.0
 10
3823.767628306979
 20
-16575.52683970191
 30
0.0
  0
SPLINE
  5
379239
330
18
100
AcDbEntity
  8
0
  6
Continuous
 62
     8
370
    15
100
AcDbSpline
210
0.0
220
0.0
230
1.0
 70
     8
 71
     3
 72
    12
 73
     8
 74
     0
 42
0.000000001
 43
0.0000000001
 40
0.0
 40
0.0
 40
0.0
 40
0.0
 40
0.1666733593089546
 40
0.3331976401633501
 40
0.5038532388375812
 40
0.6923355273071193
 40
1.0
 40
1.0
 40
1.0
 40
1.0
 10
3823.392870219186
 20
-16575.1880024692
 30
0.0
 10
3823.40001038171
 20
-16575.18473514134
 30
0.0
 10
3823.41428432035
 20
-16575.17820340805
 30
0.0
 10
3823.438168271154
 20
-16575.18104041118
 30
0.0
 10
3823.461901493168
 20
-16575.192985335
 30
0.0
 10
3823.489439598979
 20
-16575.2179194384
 30
0.0
 10
3823.505211756619
 20
-16575.24297679977
 30
0.0
 10
3823.51499219447
 20
-16575.25851506481
 30
0.0
  0
ARC
  5
37923A
330
18
100
AcDbEntity
  8
0
  6
Continuous
 62
     8
370
    15
100
AcDbCircle
 10
3809.103699309901
 20
-16551.90552395379
 30
0.0
 40
27.31765383584847
100
AcDbArc
 50
298.4559068466872
 51
301.5387166205615
  0
SPLINE
  5
37923B
330
18
100
AcDbEntity
  8
0
  6
Continuous
 62
     8
370
    15
100
AcDbSpline
210
0.0
220
0.0
230
1.0
 70
     8
 71
     3
 72
    12
 73
     8
 74
     0
 42
0.000000001
 43
0.0000000001
 40
0.0
 40
0.0
 40
0.0
 40
0.0
 40
0.2853286417464099
 40
0.5014300322823032
 40
0.7189484407047193
 40
0.9052820164392993
 40
1.0
 40
1.0
 40
1.0
 40
1.0
 10
3822.100778564927
 20
-16576.0749232154
 30
0.0
 10
3822.093515527556
 20
-16576.05951575828
 30
0.0
 10
3822.080751631716
 20
-16576.03243904534
 30
0.0
 10
3822.078318832616
 20
-16575.98932998896
 30
0.0
 10
3822.087929630354
 20
-16575.95467278284
 30
0.0
 10
3822.10431956777
 20
-16575.93275294028
 30
0.0
 10
3822.116105892254
 20
-16575.92528615853
 30
0.0
 10
3822.120078034913
 20
-16575.92276975722
 30
0.0
  0
SPLINE
  5
37923C
330
18
100
AcDbEntity
  8
0
  6
Continuous
 62
     8
370
    15
100
AcDbSpline
210
0.0
220
0.0
230
1.0
 70
     8
 71
     3
 72
    11
 73
     7
 74
     0
 42
0.000000001
 43
0.0000000001
 40
0.0
 40
0.0
 40
0.0
 40
0.0
 40
0.1497104154949377
 40
0.4150793557759882
 40
0.8384256710775861
 40
1.0
 40
1.0
 40
1.0
 40
1.0
 10
3822.353414677434
 20
-16576.3432478525
 30
0.0
 10
3822.339402034116
 20
-16576.33458259954
 30
0.0
 10
3822.300551303909
 20
-16576.3105577673
 30
0.0
 10
3822.223697878425
 20
-16576.24510073553
 30
0.0
 10
3822.151615796676
 20
-16576.15965122554
 30
0.0
 10
3822.111781976737
 20
-16576.09326208153
 30
0.0
 10
3822.100778564927
 20
-16576.0749232154
 30
0.0
  0
ARC
  5
37923D
330
18
100
AcDbEntity
  8
0
  6
Continuous
 62
     8
370
    15
100
AcDbCircle
 10
3783.346656214382
 20
-16563.5838829656
 30
0.0
 40
9.986170112039854
100
AcDbArc
 50
157.5022190933031
 51
185.4644892208075
  0
ARC
  5
37923E
330
18
100
AcDbEntity
  8
0
  6
Continuous
 62
     8
370
    15
100
AcDbCircle
 10
3821.252820932548
 20
-16563.5782204536
 30
0.0
 40
9.935284398893357
100
AcDbArc
 50
353.8012219654976
 51
21.52281224419462
  0
SPLINE
  5
37923F
330
18
100
AcDbEntity
  8
0
  6
Continuous
 62
     8
370
    15
100
AcDbSpline
210
0.0
220
0.0
230
1.0
 70
     8
 71
     3
 72
    12
 73
     8
 74
     0
 42
0.000000001
 43
0.0000000001
 40
0.0
 40
0.0
 40
0.0
 40
0.0
 40
0.2092366371334416
 40
0.4183587838140881
 40
0.6307443414071786
 40
0.850674702232286
 40
1.0
 40
1.0
 40
1.0
 40
1.0
 10
3778.812541947567
 20
-16554.44762992881
 30
0.0
 10
3778.80458438675
 20
-16554.43418794267
 30
0.0
 10
3778.788673619343
 20
-16554.40731132561
 30
0.0
 10
3778.774405011334
 20
-16554.34772213067
 30
0.0
 10
3778.76931918423
 20
-16554.28139865602
 30
0.0
 10
3778.773510451618
 20
-16554.22004944527
 30
0.0
 10
3778.781550655583
 20
-16554.18566484371
 30
0.0
 10
3778.784802077258
 20
-16554.17175986827
 30
0.0
  0
ARC
  5
379240
330
18
100
AcDbEntity
  8
0
  6
Continuous
 62
     8
370
    15
100
AcDbCircle
 10
3791.302330722564
 20
-16545.09010719413
 30
0.0
 40
15.6063466376327
100
AcDbArc
 50
216.8410591992838
 51
233.1651494407053
  0
ARC
  5
379241
330
18
100
AcDbEntity
  8
0
  6
Continuous
 62
     8
370
    15
100
AcDbCircle
 10
3798.077816455615
 20
-16535.38971635951
 30
0.0
 40
27.43397682477352
100
AcDbArc
 50
234.0240660832567
 51
245.9999044894241
  0
ARC
  5
379242
330
18
100
AcDbEntity
  8
0
  6
Continuous
 62
     8
370
    15
100
AcDbCircle
 10
3800.180542696182
 20
-16529.71082121611
 30
0.0
 40
33.47941954684737
100
AcDbArc
 50
246.6654533310392
 51
256.4683738216893
  0
ARC
  5
379243
330
18
100
AcDbEntity
  8
0
  6
Continuous
 62
     8
370
    15
100
AcDbCircle
 10
3802.935401373888
 20
-16516.29354021003
 30
0.0
 40
47.1710894886865
100
AcDbArc
 50
257.028350960752
 51
265.3855710120217
  0
ARC
  5
379244
330
18
100
AcDbEntity
  8
0
  6
Continuous
 62
     8
370
    15
100
AcDbCircle
 10
3802.274109372585
 20
-16519.42424653681
 30
0.0
 40
43.99921504328909
100
AcDbArc
 50
265.915943011586
 51
274.084056988414
  0
ARC
  5
379245
330
18
100
AcDbEntity
  8
0
  6
Continuous
 62
     8
370
    15
100
AcDbCircle
 10
3801.61277650665
 20
-16516.2932760281
 30
0.0
 40
47.17135610186571
100
AcDbArc
 50
274.614452647077
 51
282.9716253796193
  0
ARC
  5
379246
330
18
100
AcDbEntity
  8
0
  6
Continuous
 62
     8
370
    15
100
AcDbCircle
 10
3804.367676048986
 20
-16529.7108212161
 30
0.0
 40
33.47941954685235
100
AcDbArc
 50
283.5316261783106
 51
293.3345466689615
  0
ARC
  5
379247
330
18
100
AcDbEntity
  8
0
  6
Continuous
 62
     8
370
    15
100
AcDbCircle
 10
3806.431064696532
 20
-16535.31177288775
 30
0.0
 40
27.52118210264133
100
AcDbArc
 50
294.0089103291918
 51
305.9857131381984
  0
ARC
  5
379248
330
18
100
AcDbEntity
  8
0
  6
Continuous
 62
     8
370
    15
100
AcDbCircle
 10
3813.245888022605
 20
-16545.09010719413
 30
0.0
 40
15.60634663763428
100
AcDbArc
 50
306.8348505592936
 51
323.1589408007158
  0
SPLINE
  5
379249
330
18
100
AcDbEntity
  8
0
  6
Continuous
 62
     8
370
    15
100
AcDbSpline
210
0.0
220
0.0
230
1.0
 70
     8
 71
     3
 72
    12
 73
     8
 74
     0
 42
0.000000001
 43
0.0000000001
 40
0.0
 40
0.0
 40
0.0
 40
0.0
 40
0.2298287318333474
 40
0.4598174464290251
 40
0.6850857233574569
 40
0.9018895535723107
 40
1.0
 40
1.0
 40
1.0
 40
1.0
 10
3825.763416667913
 20
-16554.17175986827
 30
0.0
 10
3825.768126690174
 20
-16554.19361949515
 30
0.0
 10
3825.777550013326
 20
-16554.23735396531
 30
0.0
 10
3825.778132570118
 20
-16554.3106085973
 30
0.0
 10
3825.768083167742
 20
-16554.37771670314
 30
0.0
 10
3825.751865093574
 20
-16554.42308076669
 30
0.0
 10
3825.73952218713
 20
-16554.44179848792
 30
0.0
 10
3825.735676797603
 20
-16554.44762992881
 30
0.0
  0
LINE
  5
37924A
330
18
100
AcDbEntity
  8
0
  6
Continuous
 62
     8
370
    15
100
AcDbLine
 10
3778.855330547702
 20
-16543.1646331325
 30
0.0
 11
3778.745131356097
 21
-16543.2737119794
 31
0.0
  0
ARC
  5
37924B
330
18
100
AcDbEntity
  8
0
  6
Continuous
 62
     8
370
    15
100
AcDbCircle
 10
3815.464283018354
 20
-16553.71026587548
 30
0.0
 40
14.68998524470129
100
AcDbArc
 50
35.65885117984997
 51
44.64945888649923
  0
ARC
  5
37924C
330
18
100
AcDbEntity
  8
0
  6
Continuous
 62
     8
370
    15
100
AcDbCircle
 10
3783.925982290311
 20
-16550.92796900299
 30
0.0
 40
11.07800369389847
100
AcDbArc
 50
150.3309658244869
 51
170.6753637780749
  0
ARC
  5
37924D
330
18
100
AcDbEntity
  8
0
  6
Continuous
 62
     8
370
    15
100
AcDbCircle
 10
3820.564139433732
 20
-16550.94677804126
 30
0.0
 40
11.13838437840276
100
AcDbArc
 50
9.371689089517425
 51
30.059821966901
  0
ARC
  5
37924E
330
18
100
AcDbEntity
  8
0
  6
Continuous
 62
     8
370
    15
100
AcDbCircle
 10
3804.689682470267
 20
-16570.64869343806
 30
0.0
 40
38.63532512583115
100
AcDbArc
 50
66.62510359785188
 51
76.50872958146114
  0
ARC
  5
37924F
330
18
100
AcDbEntity
  8
0
  6
Continuous
 62
     8
370
    15
100
AcDbCircle
 10
3809.139058366652
 20
-16560.60876956667
 30
0.0
 40
27.65430557641959
100
AcDbArc
 50
53.17119710393811
 51
66.83417942873284
  0
ARC
  5
379250
330
18
100
AcDbEntity
  8
0
  6
Continuous
 62
     8
370
    15
100
AcDbCircle
 10
3814.935056051486
 20
-16552.90121124063
 30
0.0
 40
18.01068179335507
100
AcDbArc
 50
36.77398602992186
 51
53.23221256491746
  0
ARC
  5
379251
330
18
100
AcDbEntity
  8
0
  6
Continuous
 62
     8
370
    15
100
AcDbCircle
 10
3819.83774522102
 20
-16549.27004670639
 30
0.0
 40
11.90980829405831
100
AcDbArc
 50
12.8955903078646
 51
36.9013241646574
  0
ARC
  5
379252
330
18
100
AcDbEntity
  8
0
  6
Continuous
 62
     8
370
    15
100
AcDbCircle
 10
3821.740786326054
 20
-16548.72325780353
 30
0.0
 40
9.933325568695041
100
AcDbArc
 50
0.0372019791396276
 51
12.27097681592878
  0
ARC
  5
379253
330
18
100
AcDbEntity
  8
0
  6
Continuous
 62
     8
370
    15
100
AcDbCircle
 10
3782.807432419124
 20
-16548.72325780354
 30
0.0
 40
9.93332556870266
100
AcDbArc
 50
167.7290231840712
 51
179.9627980208603
  0
ARC
  5
379254
330
18
100
AcDbEntity
  8
0
  6
Continuous
 62
     8
370
    15
100
AcDbCircle
 10
3784.71047352415
 20
-16549.27004670639
 30
0.0
 40
11.90980829405957
100
AcDbArc
 50
143.0986758353431
 51
167.1044096921287
  0
LINE
  5
379255
330
18
100
AcDbEntity
  8
0
  6
Continuous
 62
     8
370
    15
100
AcDbLine
 10
3778.832449089499
 20
-16538.47342995431
 30
0.0
 11
3778.745131356097
 21
-16538.54036718533
 31
0.0
  0
LINE
  5
379256
330
18
100
AcDbEntity
  8
0
  6
Continuous
 62
     8
370
    15
100
AcDbLine
 10
3775.49243976119
 20
-16541.71513391846
 30
0.0
 11
3775.186547812865
 21
-16542.11893681721
 31
0.0
  0
ARC
  5
379257
330
18
100
AcDbEntity
  8
0
  6
Continuous
 62
     8
370
    15
100
AcDbCircle
 10
3794.107122110334
 20
-16558.63251705349
 30
0.0
 40
25.2923788633217
100
AcDbArc
 50
118.9708202669504
 51
127.1514488971124
  0
ARC
  5
379258
330
18
100
AcDbEntity
  8
0
  6
Continuous
 62
     8
370
    15
100
AcDbCircle
 10
3799.953549801128
 20
-16570.97942570736
 30
0.0
 40
38.97910036295771
100
AcDbArc
 50
103.5136612052453
 51
112.3851787958664
  0
ARC
  5
379259
330
18
100
AcDbEntity
  8
0
  6
Continuous
 62
     8
370
    15
100
AcDbCircle
 10
3801.954722371048
 20
-16579.14116763114
 30
0.0
 40
47.3825222846823
100
AcDbArc
 50
94.02579127522384
 51
103.5602832610653
  0
ARC
  5
37925A
330
18
100
AcDbEntity
  8
0
  6
Continuous
 62
     8
370
    15
100
AcDbCircle
 10
3802.274109372585
 20
-16582.51934707288
 30
0.0
 40
50.77485426180104
100
AcDbArc
 50
85.88231839306279
 51
94.11768160693717
  0
ARC
  5
37925B
330
18
100
AcDbEntity
  8
0
  6
Continuous
 62
     8
370
    15
100
AcDbCircle
 10
3802.59349637412
 20
-16579.14116763114
 30
0.0
 40
47.38252228468232
100
AcDbArc
 50
76.43971673893464
 51
85.97420872477616
  0
SPLINE
  5
37925C
330
18
100
AcDbEntity
  8
0
  6
Continuous
 62
     8
370
    15
100
AcDbSpline
210
0.0
220
0.0
230
1.0
 70
     8
 71
     3
 72
    12
 73
     8
 74
     0
 42
0.000000001
 43
0.0000000001
 40
0.0
 40
0.0
 40
0.0
 40
0.0
 40
0.2195537185068479
 40
0.4391044306920344
 40
0.6586553364941113
 40
0.8782175085125794
 40
1.0
 40
1.0
 40
1.0
 40
1.0
 10
3798.628208095951
 20
-16531.87555940659
 30
0.0
 10
3798.605901269357
 20
-16531.87538048196
 30
0.0
 10
3798.561287921611
 20
-16531.87502263514
 30
0.0
 10
3798.501878346502
 20
-16531.85139890024
 30
0.0
 10
3798.457039477587
 20
-16531.8135104705
 30
0.0
 10
3798.434322772003
 20
-16531.77129600694
 30
0.0
 10
3798.431213898548
 20
-16531.74329045062
 30
0.0
 10
3798.430104737059
 20
-16531.73329882986
 30
0.0
  0
SPLINE
  5
37925D
330
18
100
AcDbEntity
  8
0
  6
Continuous
 62
     8
370
    15
100
AcDbSpline
210
0.0
220
0.0
230
1.0
 70
     8
 71
     3
 72
    12
 73
     8
 74
     0
 42
0.000000001
 43
0.0000000001
 40
0.0
 40
0.0
 40
0.0
 40
0.0
 40
0.219572614580812
 40
0.4391440436800593
 40
0.6587145520157899
 40
0.8782712912584942
 40
1.0
 40
1.0
 40
1.0
 40
1.0
 10
3791.029878098908
 20
-16532.87799345469
 30
0.0
 10
3791.027060969598
 20
-16532.89687045778
 30
0.0
 10
3791.021426726185
 20
-16532.93462436203
 30
0.0
 10
3790.987531134109
 20
-16532.99044530963
 30
0.0
 10
3790.939155135589
 20
-16533.03740559679
 30
0.0
 10
3790.888556548539
 20
-16533.06675259302
 30
0.0
 10
3790.856467948979
 20
-16533.07614251589
 30
0.0
 10
3790.845022679885
 20
-16533.07949168648
 30
0.0
  0
ELLIPSE
  5
37925E
330
18
100
AcDbEntity
  8
0
  6
Continuous
 62
     8
370
    15
100
AcDbEllipse
 10
3797.565081829556
 20
-16669.02464239819
 30
0.0
 11
27.70203714767177
 21
714.3881473565913
 31
0.0
210
0.0
220
0.0
230
1.0
 40
0.0168194178443701
 41
1.370196365973522
 42
1.37969769749332
  0
ARC
  5
37925F
330
18
100
AcDbEntity
  8
0
  6
Continuous
 62
     8
370
    15
100
AcDbCircle
 10
3801.950669678387
 20
-16572.35217257855
 30
0.0
 40
47.34240196354055
100
AcDbArc
 50
94.5976478537479
 51
102.9884222898347
  0
ELLIPSE
  5
379260
330
18
100
AcDbEntity
  8
0
  6
Continuous
 62
     8
370
    15
100
AcDbEllipse
 10
3807.327518388931
 20
-16667.51455184575
 30
0.0
 11
-30.08574554420645
 21
705.4530313792056
 31
0.0
210
0.0
220
0.0
230
1.0
 40
0.0044797608291475
 41
1.367421446581668
 42
1.376922778101466
  0
SPLINE
  5
379261
330
18
100
AcDbEntity
  8
0
  6
Continuous
 62
     8
370
    15
100
AcDbSpline
210
0.0
220
0.0
230
1.0
 70
     8
 71
     3
 72
    12
 73
     8
 74
     0
 42
0.000000001
 43
0.0000000001
 40
0.0
 40
0.0
 40
0.0
 40
0.0
 40
0.2195515392469356
 40
0.439105291977804
 40
0.6586560458515797
 40
0.8782175885110184
 40
1.0
 40
1.0
 40
1.0
 40
1.0
 10
3813.703196065286
 20
-16533.07949168648
 30
0.0
 10
3813.682469900055
 20
-16533.07265586477
 30
0.0
 10
3813.64101736064
 20
-16533.05898415244
 30
0.0
 10
3813.585643103042
 20
-16533.01760859035
 30
0.0
 10
3813.543740192847
 20
-16532.96630034259
 30
0.0
 10
3813.522411073819
 20
-16532.91727312717
 30
0.0
 10
3813.519410994488
 20
-16532.88832232731
 30
0.0
 10
3813.51834064626
 20
-16532.87799345469
 30
0.0
  0
SPLINE
  5
379262
330
18
100
AcDbEntity
  8
0
  6
Continuous
 62
     8
370
    15
100
AcDbSpline
210
0.0
220
0.0
230
1.0
 70
     8
 71
     3
 72
    12
 73
     8
 74
     0
 42
0.000000001
 43
0.0000000001
 40
0.0
 40
0.0
 40
0.0
 40
0.0
 40
0.2195729753520268
 40
0.4391444165189604
 40
0.6587138577109207
 40
0.8782723555584873
 40
1.0
 40
1.0
 40
1.0
 40
1.0
 10
3806.11811400811
 20
-16531.73329882986
 30
0.0
 10
3806.11516232161
 20
-16531.75128322164
 30
0.0
 10
3806.109258969232
 20
-16531.78725187955
 30
0.0
 10
3806.073063136063
 20
-16531.83223070542
 30
0.0
 10
3806.021229122375
 20
-16531.86369121367
 30
0.0
 10
3805.966877569177
 20
-16531.87680295665
 30
0.0
 10
3805.932332096079
 20
-16531.87588633945
 30
0.0
 10
3805.920010649219
 20
-16531.87555940659
 30
0.0
  0
ELLIPSE
  5
379263
330
18
100
AcDbEntity
  8
0
  6
Continuous
 62
     8
370
    15
100
AcDbEllipse
 10
3797.220700356245
 20
-16667.51455184573
 30
0.0
 11
30.08574554419872
 21
705.4530313791244
 31
0.0
210
0.0
220
0.0
230
1.0
 40
0.0044797608291473
 41
4.906262529078243
 42
4.915763860598047
  0
ARC
  5
379264
330
18
100
AcDbEntity
  8
0
  6
Continuous
 62
     8
370
    15
100
AcDbCircle
 10
3802.597549066782
 20
-16572.35217257856
 30
0.0
 40
47.34240196354928
100
AcDbArc
 50
77.01157771016504
 51
85.40235214625221
  0
ELLIPSE
  5
379265
330
18
100
AcDbEntity
  8
0
  6
Continuous
 62
     8
370
    15
100
AcDbEllipse
 10
3806.98313691562
 20
-16669.02464239819
 30
0.0
 11
-27.70203714767638
 21
714.3881473565905
 31
0.0
210
0.0
220
0.0
230
1.0
 40
0.0168194178443693
 41
4.903487609686296
 42
4.912988941206097
  0
SPLINE
  5
379266
330
18
100
AcDbEntity
  8
0
  6
Continuous
 62
     8
370
    15
100
AcDbSpline
210
0.0
220
0.0
230
1.0
 70
    11
 71
     3
 72
    26
 73
    22
 74
     0
 42
0.000000001
 43
0.0000000001
 40
0.0
 40
0.0
 40
0.0
 40
0.0
 40
0.053677163633882
 40
0.1073548146692347
 40
0.1610229927305316
 40
0.2146972928966196
 40
0.2683890224842238
 40
0.3220868896562263
 40
0.3757739478497642
 40
0.4294503454970712
 40
0.4831292523171237
 40
0.5368164579298682
 40
0.5905045207301641
 40
0.6441862929564479
 40
0.6978681060431172
 40
0.7515556148650568
 40
0.8052431713475035
 40
0.858922669615029
 40
0.9125985628813698
 40
0.9662849854053014
 40
1.0
 40
1.0
 40
1.0
 40
1.0
 10
3810.201701086906
 20
-16528.32910050993
 30
0.0
 10
3810.141207814004
 20
-16528.34553541236
 30
0.0
 10
3810.020220718909
 20
-16528.37840536647
 30
0.0
 10
3809.81208130431
 20
-16528.35460520077
 30
0.0
 10
3809.61331378042
 20
-16528.27862109469
 30
0.0
 10
3809.443027535678
 20
-16528.15393136006
 30
0.0
 10
3809.321492777419
 20
-16527.99544805819
 30
0.0
 10
3809.262384545347
 20
-16527.8202734465
 30
0.0
 10
3809.272567986321
 20
-16527.64804378521
 30
0.0
 10
3809.350830947873
 20
-16527.49820576934
 30
0.0
 10
3809.488208718688
 20
-16527.3879370449
 30
0.0
 10
3809.66903718666
 20
-16527.33008596982
 30
0.0
 10
3809.872764918475
 20
-16527.33155598903
 30
0.0
 10
3810.076337957147
 20
-16527.39232628028
 30
0.0
 10
3810.256877613072
 20
-16527.50538997816
 30
0.0
 10
3810.394219691268
 20
-16527.65767169714
 30
0.0
 10
3810.473030619741
 20
-16527.83149659433
 30
0.0
 10
3810.484725188182
 20
-16528.00722657796
 30
0.0
 10
3810.427425258421
 20
-16528.16396964882
 30
0.0
 10
3810.324339171542
 20
-16528.27278597648
 30
0.0
 10
3810.235839676295
 20
-16528.31342431326
 30
0.0
 10
3810.201701086906
 20
-16528.32910050993
 30
0.0
1001
ACAD_SPLINE_DATA
1070
   100
1070
     1
1070
   101
1070
     0
1070
   102
1070
    15
1001
ACAD_SPLINE_DATA2
1070
   103
1070
     1
1070
   104
1070
    15
  0
ELLIPSE
  5
379267
330
18
100
AcDbEntity
  8
0
  6
Continuous
 62
     8
370
    15
100
AcDbEllipse
 10
3826.297338967196
 20
-15983.9682461349
 30
0.0
 11
42.02867882263702
 21
986.2724760704509
 31
0.0
210
0.0
220
0.0
230
1.0
 40
0.0037261922422007
 41
4.123855539856087
 42
4.131189102124626
  0
LINE
  5
379268
330
18
100
AcDbEntity
  8
0
  6
Continuous
 62
     8
370
    15
100
AcDbLine
 10
3806.392607212838
 20
-16525.15745636979
 30
0.0
 11
3806.294066563931
 21
-16525.58955035356
 31
0.0
  0
LINE
  5
379269
330
18
100
AcDbEntity
  8
0
  6
Continuous
 62
     8
370
    15
100
AcDbLine
 10
3806.392421503287
 20
-16525.1621104164
 30
0.0
 11
3806.392607212838
 21
-16525.15745636979
 31
0.0
  0
LINE
  5
37926A
330
18
100
AcDbEntity
  8
0
  6
Continuous
 62
     8
370
    15
100
AcDbLine
 10
3806.022198317611
 20
-16531.61958336536
 30
0.0
 11
3805.964249035087
 21
-16531.87368876098
 31
0.0
  0
LINE
  5
37926B
330
18
100
AcDbEntity
  8
0
  6
Continuous
 62
     8
370
    15
100
AcDbLine
 10
3798.155611532331
 20
-16525.15745636979
 30
0.0
 11
3798.155797241883
 21
-16525.1621104164
 31
0.0
  0
LINE
  5
37926C
330
18
100
AcDbEntity
  8
0
  6
Continuous
 62
     8
370
    15
100
AcDbLine
 10
3798.25415218124
 20
-16525.58955035356
 30
0.0
 11
3798.155611532331
 21
-16525.15745636979
 31
0.0
  0
LINE
  5
37926D
330
18
100
AcDbEntity
  8
0
  6
Continuous
 62
     8
370
    15
100
AcDbLine
 10
3798.583718146081
 20
-16531.87258855
 30
0.0
 11
3798.526020427558
 21
-16531.61958336536
 31
0.0
  0
ELLIPSE
  5
37926E
330
18
100
AcDbEntity
  8
0
  6
Continuous
 62
     8
370
    15
100
AcDbEllipse
 10
3778.250879777971
 20
-15983.96824613482
 30
0.0
 11
-42.02867882264964
 21
986.2724760706088
 31
0.0
210
0.0
220
0.0
230
1.0
 40
0.0037261922422008
 41
2.151996205056101
 42
2.159329767324665
  0
SPLINE
  5
37926F
330
18
100
AcDbEntity
  8
0
  6
Continuous
 62
     8
370
    15
100
AcDbSpline
210
0.0
220
0.0
230
1.0
 70
     8
 71
     3
 72
    11
 73
     7
 74
     0
 42
0.000000001
 43
0.0000000001
 40
0.0
 40
0.0
 40
0.0
 40
0.0
 40
0.0689033282832699
 40
0.459837787552157
 40
0.7291785638221358
 40
1.0
 40
1.0
 40
1.0
 40
1.0
 10
3791.417351857972
 20
-16526.11817319898
 30
0.0
 10
3791.413339838844
 20
-16526.11842945384
 30
0.0
 10
3791.386564963886
 20
-16526.12013961314
 30
0.0
 10
3791.352653680036
 20
-16526.14042482818
 30
0.0
 10
3791.318682318289
 20
-16526.17400325518
 30
0.0
 10
3791.313233986313
 20
-16526.20216441779
 30
0.0
 10
3791.310502353006
 20
-16526.21628359592
 30
0.0
  0
SPLINE
  5
379270
330
18
100
AcDbEntity
  8
0
  6
Continuous
 62
     8
370
    15
100
AcDbSpline
210
0.0
220
0.0
230
1.0
 70
     8
 71
     3
 72
    11
 73
     7
 74
     0
 42
0.000000001
 43
0.0000000001
 40
0.0
 40
0.0
 40
0.0
 40
0.0
 40
0.2619042832545924
 40
0.5223744517244925
 40
0.9004261429549003
 40
1.0
 40
1.0
 40
1.0
 40
1.0
 10
3798.155611532331
 20
-16525.15745636979
 30
0.0
 10
3798.153816076905
 20
-16525.14404612397
 30
0.0
 10
3798.150234997463
 20
-16525.11729906311
 30
0.0
 10
3798.128000598543
 20
-16525.09227063633
 30
0.0
 10
3798.104551780707
 20
-16525.08073249084
 30
0.0
 10
3798.085646937943
 20
-16525.08650922245
 30
0.0
 10
3798.081705716378
 20
-16525.0877135371
 30
0.0
  0
LINE
  5
379271
330
18
100
AcDbEntity
  8
0
  6
Continuous
 62
     8
370
    15
100
AcDbLine
 10
3791.310267911161
 20
-16526.22100227137
 30
0.0
 11
3791.310502353006
 21
-16526.21628359592
 31
0.0
  0
SPLINE
  5
379272
330
18
100
AcDbEntity
  8
0
  6
Continuous
 62
     8
370
    15
100
AcDbSpline
210
0.0
220
0.0
230
1.0
 70
     8
 71
     3
 72
    11
 73
     7
 74
     0
 42
0.000000001
 43
0.0000000001
 40
0.0
 40
0.0
 40
0.0
 40
0.0
 40
0.1055455488701191
 40
0.4810899737226911
 40
0.739832685045902
 40
1.0
 40
1.0
 40
1.0
 40
1.0
 10
3806.467294062576
 20
-16525.08791724414
 30
0.0
 10
3806.463086006888
 20
-16525.08662186307
 30
0.0
 10
3806.443905156319
 20
-16525.08071735219
 30
0.0
 10
3806.420211453725
 20
-16525.09224774524
 30
0.0
 10
3806.397985165209
 20
-16525.11730391126
 30
0.0
 10
3806.39440314163
 20
-16525.14404774298
 30
0.0
 10
3806.392607212838
 20
-16525.15745636979
 30
0.0
  0
SPLINE
  5
379273
330
18
100
AcDbEntity
  8
0
  6
Continuous
 62
     8
370
    15
100
AcDbSpline
210
0.0
220
0.0
230
1.0
 70
     8
 71
     3
 72
    11
 73
     7
 74
     0
 42
0.000000001
 43
0.0000000001
 40
0.0
 40
0.0
 40
0.0
 40
0.0
 40
0.0627181911815261
 40
0.4562495700848867
 40
0.7273795371864129
 40
0.9999999999999998
 40
0.9999999999999998
 40
0.9999999999999998
 40
0.9999999999999998
 10
3813.13200814483
 20
-16526.11827096363
 30
0.0
 10
3813.135632939785
 20
-16526.11850860761
 30
0.0
 10
3813.162001862561
 20
-16526.12023737184
 30
0.0
 10
3813.195553610146
 20
-16526.14044869715
 30
0.0
 10
3813.229538852907
 20
-16526.17399820003
 30
0.0
 10
3813.234985569008
 20
-16526.20216272966
 30
0.0
 10
3813.237716392162
 20
-16526.21628359592
 30
0.0
  0
LINE
  5
379274
330
18
100
AcDbEntity
  8
0
  6
Continuous
 62
     8
370
    15
100
AcDbLine
 10
3813.237716392162
 20
-16526.21628359592
 30
0.0
 11
3813.237950834007
 21
-16526.22100227137
 31
0.0
  0
SPLINE
  5
379275
330
18
100
AcDbEntity
  8
0
  6
Continuous
 62
     8
370
    15
100
AcDbSpline
210
0.0
220
0.0
230
1.0
 70
     8
 71
     3
 72
    12
 73
     8
 74
     0
 42
0.000000001
 43
0.0000000001
 40
0.0
 40
0.0
 40
0.0
 40
0.0
 40
0.0835203318734508
 40
0.3507285462804356
 40
0.6178014653610294
 40
0.884600849993142
 40
0.9999999999999998
 40
0.9999999999999998
 40
0.9999999999999998
 40
0.9999999999999998
 10
3810.036808127551
 20
-16528.3620224831
 30
0.0
 10
3810.026939891058
 20
-16528.34428522339
 30
0.0
 10
3809.985500014533
 20
-16528.26980080538
 30
0.0
 10
3809.855550038925
 20
-16528.16410221696
 30
0.0
 10
3809.667862088435
 20
-16528.07112967485
 30
0.0
 10
3809.497007426497
 20
-16528.03275108694
 30
0.0
 10
3809.4053379624
 20
-16528.04783303728
 30
0.0
 10
3809.377659734256
 20
-16528.05238680735
 30
0.0
  0
SPLINE
  5
379276
330
18
100
AcDbEntity
  8
0
  6
Continuous
 62
     8
370
    15
100
AcDbSpline
210
0.0
220
0.0
230
1.0
 70
     8
 71
     3
 72
    12
 73
     8
 74
     0
 42
0.000000001
 43
0.0000000001
 40
0.0
 40
0.0
 40
0.0
 40
0.0
 40
0.2195513277535251
 40
0.4391027907278574
 40
0.65865514089258
 40
0.8782173538914877
 40
1.0
 40
1.0
 40
1.0
 40
1.0
 10
3825.715769655671
 20
-16538.47342995431
 30
0.0
 10
3825.702177307242
 20
-16538.46128580812
 30
0.0
 10
3825.674992602018
 20
-16538.43699750827
 30
0.0
 10
3825.638490580928
 20
-16538.38141038971
 30
0.0
 10
3825.610753895221
 20
-16538.31932917727
 30
0.0
 10
3825.596524262993
 20
-16538.26480288877
 30
0.0
 10
3825.594437346312
 20
-16538.23506482909
 30
0.0
 10
3825.593692790684
 20
-16538.22445509087
 30
0.0
  0
SPLINE
  5
379277
330
18
100
AcDbEntity
  8
0
  6
Continuous
 62
     8
370
    15
100
AcDbSpline
210
0.0
220
0.0
230
1.0
 70
     8
 71
     3
 72
    12
 73
     8
 74
     0
 42
0.000000001
 43
0.0000000001
 40
0.0
 40
0.0
 40
0.0
 40
0.0
 40
0.2195730723460586
 40
0.439146056613239
 40
0.6587147047757415
 40
0.878273043760787
 40
1.0
 40
1.0
 40
1.0
 40
1.0
 10
3820.176351239331
 20
-16535.09709038111
 30
0.0
 10
3820.174056239622
 20
-16535.11426352342
 30
0.0
 10
3820.169466241124
 20
-16535.14860980117
 30
0.0
 10
3820.14066820221
 20
-16535.18353406058
 30
0.0
 10
3820.099264732787
 20
-16535.20057298385
 30
0.0
 10
3820.055724132371
 20
-16535.19854263159
 30
0.0
 10
3820.027979234449
 20
-16535.18798964814
 30
0.0
 10
3820.018083402363
 20
-16535.18422569296
 30
0.0
  0
ELLIPSE
  5
379278
330
18
100
AcDbEntity
  8
0
  6
Continuous
 62
     8
370
    15
100
AcDbEllipse
 10
3798.230375747888
 20
-16666.10737146889
 30
0.0
 11
24.37263473155301
 21
697.0262912681077
 31
0.0
210
0.0
220
0.0
230
1.0
 40
0.0253383663827175
 41
4.902355552652705
 42
4.911856884172506
  0
ARC
  5
379279
330
18
100
AcDbEntity
  8
0
  6
Continuous
 62
     8
370
    15
100
AcDbCircle
 10
3809.142346263039
 20
-16553.8361298359
 30
0.0
 40
27.62290190119415
100
AcDbArc
 50
53.99058560171257
 51
66.01479093099547
  0
ELLIPSE
  5
37927A
330
18
100
AcDbEntity
  8
0
  6
Continuous
 62
     8
370
    15
100
AcDbEllipse
 10
3805.376975315017
 20
-16670.23301558221
 30
0.0
 11
-18.09441283729711
 21
721.4606085158099
 31
0.0
210
0.0
220
0.0
230
1.0
 40
0.0331449948001478
 41
4.895568344578718
 42
4.905069676098518
  0
SPLINE
  5
37927B
330
18
100
AcDbEntity
  8
0
  6
Continuous
 62
     8
370
    15
100
AcDbSpline
210
0.0
220
0.0
230
1.0
 70
     8
 71
     3
 72
    12
 73
     8
 74
     0
 42
0.000000001
 43
0.0000000001
 40
0.0
 40
0.0
 40
0.0
 40
0.0
 40
0.2195730723460586
 40
0.439146056613239
 40
0.6587147047757415
 40
0.878273043760787
 40
1.0
 40
1.0
 40
1.0
 40
1.0
 10
3778.954525954486
 20
-16538.22445509087
 30
0.0
 10
3778.952598049158
 20
-16538.24406606438
 30
0.0
 10
3778.948742239276
 20
-16538.28328800352
 30
0.0
 10
3778.926228321424
 20
-16538.34783402505
 30
0.0
 10
3778.894274462317
 20
-16538.40722123267
 30
0.0
 10
3778.860986049667
 20
-16538.44954332559
 30
0.0
 10
3778.839951520138
 20
-16538.46715010621
 30
0.0
 10
3778.832449089499
 20
-16538.47342995431
 30
0.0
  0
ELLIPSE
  5
37927C
330
18
100
AcDbEntity
  8
0
  6
Continuous
 62
     8
370
    15
100
AcDbEllipse
 10
3799.171243430158
 20
-16670.23301558217
 30
0.0
 11
18.09441283728683
 21
721.4606085156075
 31
0.0
210
0.0
220
0.0
230
1.0
 40
0.033144994800153
 41
1.378115631081081
 42
1.387616962600882
  0
LINE
  5
37927D
330
18
100
AcDbEntity
  8
0
  6
Continuous
 62
     8
370
    15
100
AcDbLine
 10
3806.294066563931
 20
-16525.58955035356
 30
0.0
 11
3806.30002244046
 21
-16525.56621552478
 31
0.0
  0
LINE
  5
37927E
330
18
100
AcDbEntity
  8
0
  6
Continuous
 62
     8
370
    15
100
AcDbLine
 10
3798.25068428586
 20
-16525.56556460277
 30
0.0
 11
3798.25415218124
 21
-16525.58955035356
 31
0.0
  0
LINE
  5
37927F
330
18
100
AcDbEntity
  8
0
  6
Continuous
 62
     8
370
    15
100
AcDbLine
 10
3819.621063382113
 20
-16534.8826448804
 30
0.0
 11
3819.509209268161
 21
-16534.96679676354
 31
0.0
  0
ELLIPSE
  5
379280
330
18
100
AcDbEntity
  8
0
  6
Continuous
 62
     8
370
    15
100
AcDbEllipse
 10
3821.497477394339
 20
-15990.6577931644
 30
0.0
 11
33.91947441196368
 21
974.5217038288675
 31
0.0
210
0.0
220
0.0
230
1.0
 40
0.0210749014157735
 41
4.120602621799992
 42
4.127936184068542
  0
LINE
  5
379281
330
18
100
AcDbEntity
  8
0
  6
Continuous
 62
     8
370
    15
100
AcDbLine
 10
3820.371165333041
 20
-16528.59384179135
 30
0.0
 11
3819.911581114991
 21
-16528.93960352399
 31
0.0
  0
LINE
  5
379282
330
18
100
AcDbEntity
  8
0
  6
Continuous
 62
     8
370
    15
100
AcDbLine
 10
3820.371077911257
 20
-16528.59845373418
 30
0.0
 11
3820.371165333041
 21
-16528.59384179135
 31
0.0
  0
ELLIPSE
  5
379283
330
18
100
AcDbEntity
  8
0
  6
Continuous
 62
     8
370
    15
100
AcDbEllipse
 10
3831.412284209914
 20
-15524.63835983489
 30
0.0
 11
42.02819425245778
 21
1352.849828188724
 31
0.0
210
0.0
220
0.0
230
1.0
 40
0.021569327878073
 41
3.870693875107491
 42
3.871222582398376
  0
LINE
  5
379284
330
18
100
AcDbEntity
  8
0
  6
Continuous
 62
     8
370
    15
100
AcDbLine
 10
3819.534879333081
 20
-16533.68464825472
 30
0.0
 11
3819.534828460518
 21
-16533.6855025398
 31
0.0
  0
SPLINE
  5
379285
330
18
100
AcDbEntity
  8
0
  6
Continuous
 62
     8
370
    15
100
AcDbSpline
210
0.0
220
0.0
230
1.0
 70
     8
 71
     3
 72
    10
 73
     6
 74
     0
 42
0.000000001
 43
0.0000000001
 40
0.0
 40
0.0
 40
0.0
 40
0.0
 40
0.3161724507169273
 40
0.6302947715698244
 40
1.0
 40
1.0
 40
1.0
 40
1.0
 10
3819.534879333081
 20
-16533.68464825472
 30
0.0
 10
3819.536412148156
 20
-16533.67746642064
 30
0.0
 10
3819.539467839206
 20
-16533.66314932104
 30
0.0
 10
3819.555625535111
 20
-16533.64322443454
 30
0.0
 10
3819.571308033501
 20
-16533.63382183874
 30
0.0
 10
3819.579786635533
 20
-16533.62873840968
 30
0.0
  0
SPLINE
  5
379286
330
18
100
AcDbEntity
  8
0
  6
Continuous
 62
     8
370
    15
100
AcDbSpline
210
0.0
220
0.0
230
1.0
 70
     8
 71
     3
 72
    10
 73
     6
 74
     0
 42
0.000000001
 43
0.0000000001
 40
0.0
 40
0.0
 40
0.0
 40
0.0
 40
0.3937859234970982
 40
0.6960629468036752
 40
1.0
 40
1.0
 40
1.0
 40
1.0
 10
3820.383262960289
 20
-16528.53322322565
 30
0.0
 10
3820.380854553622
 20
-16528.53315928091
 30
0.0
 10
3820.376597411505
 20
-16528.53304625108
 30
0.0
 10
3820.372304526447
 20
-16528.55506024639
 30
0.0
 10
3820.371545756771
 20
-16528.58089103174
 30
0.0
 10
3820.371165333041
 20
-16528.59384179135
 30
0.0
  0
SPLINE
  5
379287
330
18
100
AcDbEntity
  8
0
  6
Continuous
 62
     8
370
    15
100
AcDbSpline
210
0.0
220
0.0
230
1.0
 70
     8
 71
     3
 72
    10
 73
     6
 74
     0
 42
0.000000001
 43
0.0000000001
 40
0.0
 40
0.0
 40
0.0
 40
0.0
 40
0.364407148748088
 40
0.726823994725922
 40
1.0
 40
1.0
 40
1.0
 40
1.0
 10
3825.382133227225
 20
-16531.48661198232
 30
0.0
 10
3825.379076551304
 20
-16531.4717555815
 30
0.0
 10
3825.372979894279
 20
-16531.44212392189
 30
0.0
 10
3825.345401434316
 20
-16531.40470095232
 30
0.0
 10
3825.319930793994
 20
-16531.38773454918
 30
0.0
 10
3825.308983585004
 20
-16531.38044243721
 30
0.0
  0
LINE
  5
379288
330
18
100
AcDbEntity
  8
0
  6
Continuous
 62
     8
370
    15
100
AcDbLine
 10
3825.382133227225
 20
-16531.48661198232
 30
0.0
 11
3825.38235235791
 21
-16531.49140089412
 31
0.0
  0
SPLINE
  5
379289
330
18
100
AcDbEntity
  8
0
  6
Continuous
 62
     8
370
    15
100
AcDbSpline
210
0.0
220
0.0
230
1.0
 70
     8
 71
     3
 72
    10
 73
     6
 74
     0
 42
0.000000001
 43
0.0000000001
 40
0.0
 40
0.0
 40
0.0
 40
0.0
 40
0.2764147547946379
 40
0.6372166604366122
 40
1.0
 40
1.0
 40
1.0
 40
1.0
 10
3779.239748660248
 20
-16531.38006230699
 30
0.0
 10
3779.228617973249
 20
-16531.3874706013
 30
0.0
 10
3779.202958492076
 20
-16531.40454888123
 30
0.0
 10
3779.175233905613
 20
-16531.44211961985
 30
0.0
 10
3779.169140542433
 20
-16531.47175414487
 30
0.0
 10
3779.166085517945
 20
-16531.48661198232
 30
0.0
  0
LINE
  5
37928A
330
18
100
AcDbEntity
  8
0
  6
Continuous
 62
     8
370
    15
100
AcDbLine
 10
3779.16586638726
 20
-16531.49140089412
 30
0.0
 11
3779.166085517945
 21
-16531.48661198232
 31
0.0
  0
LINE
  5
37928B
330
18
100
AcDbEntity
  8
0
  6
Continuous
 62
     8
370
    15
100
AcDbLine
 10
3819.934646965656
 20
-16528.87106590525
 30
0.0
 11
3819.955438368224
 21
-16528.85324814802
 31
0.0
  0
SPLINE
  5
37928C
330
18
100
AcDbEntity
  8
0
  6
Continuous
 62
     8
370
    15
100
AcDbSpline
210
0.0
220
0.0
230
1.0
 70
     8
 71
     3
 72
     9
 73
     5
 74
     0
 42
0.000000001
 43
0.0000000001
 40
0.0
 40
0.0
 40
0.0
 40
0.0
 40
0.6735671490601585
 40
1.0
 40
1.0
 40
1.0
 40
1.0
 10
3819.911581114991
 20
-16528.93960352399
 30
0.0
 10
3819.914017509476
 20
-16528.92197840368
 30
0.0
 10
3819.917634661067
 20
-16528.89581156889
 30
0.0
 10
3819.930460266658
 20
-16528.87715577065
 30
0.0
 10
3819.934646965656
 20
-16528.87106590525
 30
0.0
  0
SPLINE
  5
37928D
330
18
100
AcDbEntity
  8
0
  6
Continuous
 62
     8
370
    15
100
AcDbSpline
210
0.0
220
0.0
230
1.0
 70
     8
 71
     3
 72
    12
 73
     8
 74
     0
 42
0.000000001
 43
0.0000000001
 40
0.0
 40
0.0
 40
0.0
 40
0.0
 40
0.2195515392469356
 40
0.439105291977804
 40
0.6586560458515797
 40
0.8782175885110184
 40
1.0
 40
1.0
 40
1.0
 40
1.0
 10
3775.186547812865
 20
-16542.11893681721
 30
0.0
 10
3775.177833312343
 20
-16542.12909673007
 30
0.0
 10
3775.160404223443
 20
-16542.14941665824
 30
0.0
 10
3775.137496435087
 20
-16542.15323235935
 30
0.0
 10
3775.120395430363
 20
-16542.13598634664
 30
0.0
 10
3775.111906462964
 20
-16542.10417274611
 30
0.0
 10
3775.110885188514
 20
-16542.07754342438
 30
0.0
 10
3775.110520825052
 20
-16542.06804279318
 30
0.0
  0
SPLINE
  5
37928E
330
18
100
AcDbEntity
  8
0
  6
Continuous
 62
     8
370
    15
100
AcDbSpline
210
0.0
220
0.0
230
1.0
 70
     8
 71
     3
 72
    12
 73
     8
 74
     0
 42
0.000000001
 43
0.0000000001
 40
0.0
 40
0.0
 40
0.0
 40
0.0
 40
0.219572614580812
 40
0.4391440436800593
 40
0.6587145520157899
 40
0.8782712912584942
 40
1.0
 40
1.0
 40
1.0
 40
1.0
 10
3829.437697920117
 20
-16542.06804279318
 30
0.0
 10
3829.436674269773
 20
-16542.08470256137
 30
0.0
 10
3829.434626974607
 20
-16542.1180220078
 30
0.0
 10
3829.42094396528
 20
-16542.14637641345
 30
0.0
 10
3829.401065517633
 20
-16542.15393424754
 30
0.0
 10
3829.380001674653
 20
-16542.1419114035
 30
0.0
 10
3829.366490175007
 20
-16542.12497694942
 30
0.0
 10
3829.361670932305
 20
-16542.11893681721
 30
0.0
  0
ELLIPSE
  5
37928F
330
18
100
AcDbEntity
  8
0
  6
Continuous
 62
     8
370
    15
100
AcDbEllipse
 10
3811.546729884252
 20
-15995.06566027876
 30
0.0
 11
16.46171764170826
 21
966.7264148712103
 31
0.0
210
0.0
220
0.0
230
1.0
 40
0.0330009363266568
 41
4.112662643459044
 42
4.119390310190084
  0
LINE
  5
379290
330
18
100
AcDbEntity
  8
0
  6
Continuous
 62
     8
370
    15
100
AcDbLine
 10
3829.500631067478
 20
-16535.60466440068
 30
0.0
 11
3828.803148798371
 21
-16535.771446728
 31
0.0
  0
LINE
  5
379291
330
18
100
AcDbEntity
  8
0
  6
Continuous
 62
     8
370
    15
100
AcDbLine
 10
3829.500665311793
 20
-16535.60926750456
 30
0.0
 11
3829.500631067478
 21
-16535.60466440068
 31
0.0
  0
ELLIPSE
  5
379292
330
18
100
AcDbEntity
  8
0
  6
Continuous
 62
     8
370
    15
100
AcDbEllipse
 10
3800.323566298675
 20
-16665.18015411325
 30
0.0
 11
11.86021489133575
 21
691.4194801506206
 31
0.0
210
0.0
220
0.0
230
1.0
 40
0.0396809035857532
 41
4.892081194130891
 42
4.901582525650692
  0
ELLIPSE
  5
379293
330
18
100
AcDbEntity
  8
0
  6
Continuous
 62
     8
370
    15
100
AcDbEllipse
 10
3804.224652446501
 20
-16665.18015411326
 30
0.0
 11
-11.86021489134029
 21
691.4194801506851
 31
0.0
210
0.0
220
0.0
230
1.0
 40
0.0396809035857519
 41
1.381602781528909
 42
1.391104113048707
  0
LINE
  5
379294
330
18
100
AcDbEntity
  8
0
  6
Continuous
 62
     8
370
    15
100
AcDbLine
 10
3775.04758767769
 20
-16535.60466440068
 30
0.0
 11
3775.047553433376
 21
-16535.60926750456
 31
0.0
  0
SPLINE
  5
379295
330
18
100
AcDbEntity
  8
0
  6
Continuous
 62
     8
370
    15
100
AcDbSpline
210
0.0
220
0.0
230
1.0
 70
     8
 71
     3
 72
    12
 73
     8
 74
     0
 42
0.000000001
 43
0.0000000001
 40
0.0
 40
0.0
 40
0.0
 40
0.0
 40
0.2195537185068479
 40
0.4391044306920344
 40
0.6586553364941113
 40
0.8782175085125794
 40
1.0
 40
1.0
 40
1.0
 40
1.0
 10
3831.447168777975
 20
-16546.61207411879
 30
0.0
 10
3831.44435207901
 20
-16546.59739169156
 30
0.0
 10
3831.438718719649
 20
-16546.56802703815
 30
0.0
 10
3831.430875105633
 20
-16546.50557886357
 30
0.0
 10
3831.42473023751
 20
-16546.43825814894
 30
0.0
 10
3831.421418064746
 20
-16546.38101753375
 30
0.0
 10
3831.420801863089
 20
-16546.35086153733
 30
0.0
 10
3831.420582019098
 20
-16546.34010269804
 30
0.0
  0
ARC
  5
379296
330
18
100
AcDbEntity
  8
0
  6
Continuous
 62
     8
370
    15
100
AcDbCircle
 10
3819.831490751983
 20
-16542.49883717512
 30
0.0
 40
11.87262005260784
100
AcDbArc
 50
14.32591972718295
 51
35.47098364117148
  0
ELLIPSE
  5
379297
330
18
100
AcDbEntity
  8
0
  6
Continuous
 62
     8
370
    15
100
AcDbEllipse
 10
3802.93940329092
 20
-16670.815888779
 30
0.0
 11
-3.864268361527479
 21
724.8484221212663
 31
0.0
210
0.0
220
0.0
230
1.0
 40
0.0408117041899996
 41
4.884753485233899
 42
4.894254816753697
  0
SPLINE
  5
379298
330
18
100
AcDbEntity
  8
0
  6
Continuous
 62
     8
370
    15
100
AcDbSpline
210
0.0
220
0.0
230
1.0
 70
     8
 71
     3
 72
    12
 73
     8
 74
     0
 42
0.000000001
 43
0.0000000001
 40
0.0
 40
0.0
 40
0.0
 40
0.0
 40
0.2195729753520268
 40
0.4391444165189604
 40
0.6587138577109207
 40
0.8782723555584873
 40
1.0
 40
1.0
 40
1.0
 40
1.0
 10
3773.127636726071
 20
-16546.34010269804
 30
0.0
 10
3773.127114162489
 20
-16546.36009273171
 30
0.0
 10
3773.126069038975
 20
-16546.40007265936
 30
0.0
 10
3773.120971095953
 20
-16546.46888987482
 30
0.0
 10
3773.113999563957
 20
-16546.53429810198
 30
0.0
 10
3773.106940648846
 20
-16546.58286135372
 30
0.0
 10
3773.102598644192
 20
-16546.60439399958
 30
0.0
 10
3773.101049967195
 20
-16546.61207411879
 30
0.0
  0
ELLIPSE
  5
379299
330
18
100
AcDbEntity
  8
0
  6
Continuous
 62
     8
370
    15
100
AcDbEllipse
 10
3801.608815454255
 20
-16670.81588877899
 30
0.0
 11
3.864268361521908
 21
724.8484221211987
 31
0.0
210
0.0
220
0.0
230
1.0
 40
0.0408117041900017
 41
1.388930490425899
 42
1.398431821945698
  0
ARC
  5
37929A
330
18
100
AcDbEntity
  8
0
  6
Continuous
 62
     8
370
    15
100
AcDbCircle
 10
3784.716727993185
 20
-16542.49883717512
 30
0.0
 40
11.8726200526074
100
AcDbArc
 50
144.5290163588283
 51
165.674080272817
  0
SPLINE
  5
37929B
330
18
100
AcDbEntity
  8
0
  6
Continuous
 62
     8
370
    15
100
AcDbSpline
210
0.0
220
0.0
230
1.0
 70
     8
 71
     3
 72
    11
 73
     7
 74
     0
 42
0.000000001
 43
0.0000000001
 40
0.0
 40
0.0
 40
0.0
 40
0.0
 40
0.2760973204842081
 40
0.55068513625976
 40
0.9492354069192607
 40
0.9999999999999998
 40
0.9999999999999998
 40
0.9999999999999998
 40
0.9999999999999998
 10
3775.04758767769
 20
-16535.60466440068
 30
0.0
 10
3775.048733021529
 20
-16535.59145455002
 30
0.0
 10
3775.051017447275
 20
-16535.56510707083
 30
0.0
 10
3775.065320773002
 20
-16535.5429927232
 30
0.0
 10
3775.079134310737
 20
-16535.53391846042
 30
0.0
 10
3775.089945399628
 20
-16535.54068882382
 30
0.0
 10
3775.091166860507
 20
-16535.54145375454
 30
0.0
  0
SPLINE
  5
37929C
330
18
100
AcDbEntity
  8
0
  6
Continuous
 62
     8
370
    15
100
AcDbSpline
210
0.0
220
0.0
230
1.0
 70
     8
 71
     3
 72
     9
 73
     5
 74
     0
 42
0.000000001
 43
0.0000000001
 40
0.0
 40
0.0
 40
0.0
 40
0.0
 40
0.6430793117271782
 40
0.9999999999999998
 40
0.9999999999999998
 40
0.9999999999999998
 40
0.9999999999999998
 10
3828.815286432198
 20
-16535.70835370893
 30
0.0
 10
3828.820482550869
 20
-16535.70127718034
 30
0.0
 10
3828.828562609698
 20
-16535.69027304995
 30
0.0
 10
3828.847036479759
 20
-16535.68739770294
 30
0.0
 10
3828.853630186176
 20
-16535.68637143211
 30
0.0
  0
SPLINE
  5
37929D
330
18
100
AcDbEntity
  8
0
  6
Continuous
 62
     8
370
    15
100
AcDbSpline
210
0.0
220
0.0
230
1.0
 70
     8
 71
     3
 72
    11
 73
     7
 74
     0
 42
0.000000001
 43
0.0000000001
 40
0.0
 40
0.0
 40
0.0
 40
0.0
 40
0.0507645930807392
 40
0.4493148637402399
 40
0.7239026795157919
 40
0.9999999999999998
 40
0.9999999999999998
 40
0.9999999999999998
 40
0.9999999999999998
 10
3829.457051884663
 20
-16535.54145375454
 30
0.0
 10
3829.458273345541
 20
-16535.54068882382
 30
0.0
 10
3829.469084434433
 20
-16535.53391846042
 30
0.0
 10
3829.482897972166
 20
-16535.5429927232
 30
0.0
 10
3829.497201297894
 20
-16535.56510707083
 30
0.0
 10
3829.499485723641
 20
-16535.59145455002
 30
0.0
 10
3829.500631067478
 20
-16535.60466440068
 30
0.0
  0
SPLINE
  5
37929E
330
18
100
AcDbEntity
  8
0
  6
Continuous
 62
     8
370
    15
100
AcDbSpline
210
0.0
220
0.0
230
1.0
 70
     8
 71
     3
 72
     9
 73
     5
 74
     0
 42
0.000000001
 43
0.0000000001
 40
0.0
 40
0.0
 40
0.0
 40
0.0
 40
0.6735666896127835
 40
1.0
 40
1.0
 40
1.0
 40
1.0
 10
3828.803148798371
 20
-16535.771446728
 30
0.0
 10
3828.804591520178
 20
-16535.75442135907
 30
0.0
 10
3828.806733434003
 20
-16535.72914491772
 30
0.0
 10
3828.813181551769
 20
-16535.71347039521
 30
0.0
 10
3828.815286432198
 20
-16535.70835370893
 30
0.0
  0
LINE
  5
37929F
330
18
100
AcDbEntity
  8
0
  6
Continuous
 62
     8
370
    15
100
AcDbLine
 10
3822.120078034913
 20
-16575.92276975722
 30
0.0
 11
3822.698397333844
 21
-16576.25662638215
 31
0.0
  0
LINE
  5
3792A0
330
18
100
AcDbEntity
  8
0
  6
Continuous
 62
     8
370
    15
100
AcDbLine
 10
3822.609098533927
 20
-16576.36837008731
 30
0.0
 11
3822.100778564927
 21
-16576.0749232154
 31
0.0
  0
SPLINE
  5
3792A1
330
18
100
AcDbEntity
  8
0
  6
Continuous
 62
     8
370
    15
100
AcDbSpline
210
0.0
220
0.0
230
1.0
 70
     8
 71
     3
 72
    10
 73
     6
 74
     0
 42
0.000000001
 43
0.0000000001
 40
0.0
 40
0.0
 40
0.0
 40
0.0
 40
0.0855281018840476
 40
0.5342678915984683
 40
1.0
 40
1.0
 40
1.0
 40
1.0
 10
3800.239850899446
 20
-16523.31988359404
 30
0.0
 10
3800.21233111116
 20
-16523.39078083263
 30
0.0
 10
3800.040423411337
 20
-16523.83365419647
 30
0.0
 10
3799.718391728282
 20
-16524.66292072747
 30
0.0
 10
3799.423387416802
 20
-16525.42191506263
 30
0.0
 10
3799.273144440221
 20
-16525.80846388136
 30
0.0
  0
SPLINE
  5
3792A2
330
18
100
AcDbEntity
  8
0
  6
Continuous
 62
     8
370
    15
100
AcDbSpline
210
0.0
220
0.0
230
1.0
 70
     8
 71
     3
 72
     9
 73
     5
 74
     0
 42
0.000000001
 43
0.0000000001
 40
0.0
 40
0.0
 40
0.0
 40
0.0
 40
0.2043132073965863
 40
0.9999999999999998
 40
0.9999999999999998
 40
0.9999999999999998
 40
0.9999999999999998
 10
3805.273546481691
 20
-16525.80466005306
 30
0.0
 10
3805.207733892977
 20
-16525.63533518316
 30
0.0
 10
3804.885617718744
 20
-16524.80658371842
 30
0.0
 10
3804.564153042722
 20
-16523.978655301
 30
0.0
 10
3804.308367845722
 20
-16523.31988359404
 30
0.0
  0
ARC
  5
3792A3
330
18
100
AcDbEntity
  8
0
  6
Continuous
 62
     8
370
    15
100
AcDbCircle
 10
3803.088919193087
 20
-16548.59393127036
 30
0.0
 40
25.26744155960114
100
AcDbArc
 50
72.3366699564126
 51
78.17769112327267
  0
LINE
  5
3792A4
330
18
100
AcDbEntity
  8
0
  6
Continuous
 62
     8
370
    15
100
AcDbLine
 10
3812.218098515899
 20
-16525.91943924712
 30
0.0
 11
3810.804861343223
 21
-16524.53306007919
 31
0.0
  0
LWPOLYLINE
  5
3792A5
330
18
100
AcDbEntity
  8
0
  6
Continuous
 62
     8
370
    15
100
AcDbPolyline
 90
        3
 70
   128
 43
0.0
 10
3793.743357401947
 20
-16524.53306007919
 10
3793.486758497862
 20
-16524.78470224376
 10
3792.330205510785
 20
-16525.91920295388
  0
LINE
  5
3792A6
330
18
100
AcDbEntity
  8
0
  6
Continuous
 62
     8
370
    15
100
AcDbLine
 10
3791.279554383127
 20
-16526.95019199703
 30
0.0
 11
3791.234750307525
 21
-16526.9941621057
 31
0.0
  0
ARC
  5
3792A7
330
18
100
AcDbEntity
  8
0
  6
Continuous
 62
     8
370
    15
100
AcDbCircle
 10
3801.457372722186
 20
-16548.58727512879
 30
0.0
 40
25.26051457163903
100
AcDbArc
 50
101.8613627140783
 51
107.6637465685764
  0
SPLINE
  5
3792A8
330
18
100
AcDbEntity
  8
0
  6
Continuous
 62
     8
370
    15
100
AcDbSpline
210
0.0
220
0.0
230
1.0
 70
     8
 71
     3
 72
    17
 73
    13
 74
     0
 42
0.000000001
 43
0.0000000001
 40
0.0
 40
0.0
 40
0.0
 40
0.0
 40
0.0296599865113333
 40
0.1468941682394927
 40
0.2653027861933175
 40
0.3832258717219648
 40
0.4989820699698308
 40
0.6160075420235004
 40
0.7261887786594926
 40
0.8367862626614146
 40
0.9515176738905363
 40
1.0
 40
1.0
 40
1.0
 40
1.0
 10
3797.744019897753
 20
-16495.68717769336
 30
0.0
 10
3797.741233524681
 20
-16495.68002530972
 30
0.0
 10
3797.727433722222
 20
-16495.64460238579
 30
0.0
 10
3797.675854985275
 20
-16495.58453124249
 30
0.0
 10
3797.566016855051
 20
-16495.52259567644
 30
0.0
 10
3797.426812236668
 20
-16495.48630237496
 30
0.0
 10
3797.275660755575
 20
-16495.47933619146
 30
0.0
 10
3797.132620208252
 20
-16495.50172514086
 30
0.0
 10
3797.011436720815
 20
-16495.54931266336
 30
0.0
 10
3796.926042625442
 20
-16495.61634337358
 30
0.0
 10
3796.881680165461
 20
-16495.68178355775
 30
0.0
 10
3796.886357891688
 20
-16495.72222090359
 30
0.0
 10
3796.88774740125
 20
-16495.73423273924
 30
0.0
  0
LINE
  5
3792A9
330
18
100
AcDbEntity
  8
0
  6
Continuous
 62
     8
370
    15
100
AcDbLine
 10
3798.378315479864
 20
-16525.86633959948
 30
0.0
 11
3797.744049532257
 21
-16495.68717427183
 31
0.0
  0
LINE
  5
3792AA
330
18
100
AcDbEntity
  8
0
  6
Continuous
 62
     8
370
    15
100
AcDbLine
 10
3806.169795264008
 20
-16525.87150314449
 30
0.0
 11
3806.804169212913
 21
-16495.68717427183
 31
0.0
  0
LWPOLYLINE
  5
3792AB
330
18
100
AcDbEntity
  8
0
  6
Continuous
 62
     8
370
    15
100
AcDbPolyline
 90
        3
 70
   128
 43
0.0
 10
3798.552061911581
 20
-16525.85510207303
 10
3799.687480229764
 20
-16522.94690767169
 10
3799.756299447937
 20
-16522.77086498908
  0
SPLINE
  5
3792AC
330
18
100
AcDbEntity
  8
0
  6
Continuous
 62
     8
370
    15
100
AcDbSpline
210
0.0
220
0.0
230
1.0
 70
     8
 71
     3
 72
     9
 73
     5
 74
     0
 42
0.000000001
 43
0.0000000001
 40
0.0
 40
0.0
 40
0.0
 40
0.0
 40
0.0570603371437931
 40
0.9999999999999998
 40
0.9999999999999998
 40
0.9999999999999998
 40
0.9999999999999998
 10
3804.791919297233
 20
-16522.77086498908
 30
0.0
 10
3804.814859297275
 20
-16522.82954439303
 30
0.0
 10
3805.216889870365
 20
-16523.85791903804
 30
0.0
 10
3805.618680276637
 20
-16524.88766681376
 30
0.0
 10
3805.997544386866
 20
-16525.85865683422
 30
0.0
  0
LINE
  5
3792AD
330
18
100
AcDbEntity
  8
0
  6
Continuous
 62
     8
370
    15
100
AcDbLine
 10
3800.863795478981
 20
-16515.46449163851
 30
0.0
 11
3800.881887672249
 21
-16515.51699877003
 31
0.0
  0
LINE
  5
3792AE
330
18
100
AcDbEntity
  8
0
  6
Continuous
 62
     8
370
    15
100
AcDbLine
 10
3800.908176769007
 20
-16523.26503761506
 30
0.0
 11
3800.774461282295
 21
-16515.58099595236
 31
0.0
  0
LINE
  5
3792AF
330
18
100
AcDbEntity
  8
0
  6
Continuous
 62
     8
370
    15
100
AcDbLine
 10
3799.756299447937
 20
-16522.77086498908
 30
0.0
 11
3799.855968842132
 21
-16523.06012923448
 31
0.0
  0
LINE
  5
3792B0
330
18
100
AcDbEntity
  8
0
  6
Continuous
 62
     8
370
    15
100
AcDbLine
 10
3803.666785139359
 20
-16515.51568091193
 30
0.0
 11
3803.684423266189
 21
-16515.46449163851
 31
0.0
  0
LINE
  5
3792B1
330
18
100
AcDbEntity
  8
0
  6
Continuous
 62
     8
370
    15
100
AcDbLine
 10
3804.709906798387
 20
-16523.00888464636
 30
0.0
 11
3804.791919297233
 21
-16522.77086498908
 31
0.0
  0
LINE
  5
3792B2
330
18
100
AcDbEntity
  8
0
  6
Continuous
 62
     8
370
    15
100
AcDbLine
 10
3803.773757462875
 20
-16515.58099595236
 30
0.0
 11
3803.640052512875
 21
-16523.26443152477
 31
0.0
  0
SPLINE
  5
3792B3
330
18
100
AcDbEntity
  8
0
  6
Continuous
 62
     8
370
    15
100
AcDbSpline
210
0.0
220
0.0
230
1.0
 70
     8
 71
     3
 72
    15
 73
    11
 74
     0
 42
0.000000001
 43
0.0000000001
 40
0.0
 40
0.0
 40
0.0
 40
0.0
 40
0.0704852738569103
 40
0.2073345433868766
 40
0.3409679919994692
 40
0.4762904786759769
 40
0.6037003921480161
 40
0.7315900903130169
 40
0.8642599131506411
 40
1.0
 40
1.0
 40
1.0
 40
1.0
 10
3816.819584422836
 20
-16497.92278698695
 30
0.0
 10
3816.82043752428
 20
-16497.90765954293
 30
0.0
 10
3816.822946947719
 20
-16497.86316171342
 30
0.0
 10
3816.770710638324
 20
-16497.79405846391
 30
0.0
 10
3816.674056339974
 20
-16497.72731533017
 30
0.0
 10
3816.54500032961
 20
-16497.68475330744
 30
0.0
 10
3816.40183591166
 20
-16497.6692148731
 30
0.0
 10
3816.258929282316
 20
-16497.68121102963
 30
0.0
 10
3816.124220563064
 20
-16497.71939522175
 30
0.0
 10
3816.060958632934
 20
-16497.76418196819
 30
0.0
 10
3816.028965850326
 20
-16497.78683149278
 30
0.0
  0
LINE
  5
3792B4
330
18
100
AcDbEntity
  8
0
  6
Continuous
 62
     8
370
    15
100
AcDbLine
 10
3815.495545128133
 20
-16527.59059291573
 30
0.0
 11
3816.028940825635
 21
-16497.78682160836
 31
0.0
  0
SPLINE
  5
3792B5
330
18
100
AcDbEntity
  8
0
  6
Continuous
 62
     8
370
    15
100
AcDbSpline
210
0.0
220
0.0
230
1.0
 70
     8
 71
     3
 72
    16
 73
    12
 74
     0
 42
0.000000001
 43
0.0000000001
 40
0.0
 40
0.0
 40
0.0
 40
0.0
 40
0.0342890529263571
 40
0.1698299713693916
 40
0.3065106095232116
 40
0.443359696577258
 40
0.5769918135382046
 40
0.7123133664662045
 40
0.8397228116610544
 40
0.9676127866123614
 40
1.0
 40
1.0
 40
1.0
 40
1.0
 10
3788.519252565571
 20
-16497.78683168286
 30
0.0
 10
3788.511985933157
 20
-16497.78083516789
 30
0.0
 10
3788.475995088572
 20
-16497.75113507764
 30
0.0
 10
3788.388956877398
 20
-16497.70702836841
 30
0.0
 10
3788.246847102298
 20
-16497.67396842525
 30
0.0
 10
3788.094385858665
 20
-16497.67116051093
 30
0.0
 10
3787.950488218188
 20
-16497.69811665608
 30
0.0
 10
3787.832183462289
 20
-16497.75043384914
 30
0.0
 10
3787.755165693314
 20
-16497.82099741411
 30
0.0
 10
3787.719327637873
 20
-16497.88148900984
 30
0.0
 10
3787.725401399873
 20
-16497.91562887807
 30
0.0
 10
3787.726628725034
 20
-16497.92252752166
 30
0.0
  0
LINE
  5
3792B6
330
18
100
AcDbEntity
  8
0
  6
Continuous
 62
     8
370
    15
100
AcDbLine
 10
3789.053121427303
 20
-16527.61557338917
 30
0.0
 11
3788.519277919534
 21
-16497.78682160836
 31
0.0
  0
SPLINE
  5
3792B7
330
18
100
AcDbEntity
  8
0
  6
Continuous
 62
     8
370
    15
100
AcDbSpline
210
0.0
220
0.0
230
1.0
 70
     8
 71
     3
 72
     9
 73
     5
 74
     0
 42
0.000000001
 43
0.0000000001
 40
0.0
 40
0.0
 40
0.0
 40
0.0
 40
0.064229320751493
 40
1.0
 40
1.0
 40
1.0
 40
1.0
 10
3811.249485570323
 20
-16524.09062393711
 30
0.0
 10
3811.320419830328
 20
-16524.16008253776
 30
0.0
 10
3812.424810460292
 20
-16525.24149831231
 30
0.0
 10
3813.528630462202
 20
-16526.32404889586
 30
0.0
 10
3814.561552855156
 20
-16527.33706799075
 30
0.0
  0
LWPOLYLINE
  5
3792B8
330
18
100
AcDbEntity
  8
0
  6
Continuous
 62
     8
370
    15
100
AcDbPolyline
 90
        3
 70
   128
 43
0.0
 10
3789.981376460524
 20
-16527.34225284512
 10
3793.0859327489
 20
-16524.2990044206
 10
3793.298733174848
 20
-16524.09062393711
  0
LINE
  5
3792B9
330
18
100
AcDbEntity
  8
0
  6
Continuous
 62
     8
370
    15
100
AcDbLine
 10
3796.669690966946
 20
-16505.73207033832
 30
0.0
 11
3788.519277919534
 21
-16497.78682160836
 31
0.0
  0
LINE
  5
3792BA
330
18
100
AcDbEntity
  8
0
  6
Continuous
 62
     8
370
    15
100
AcDbLine
 10
3793.298733174848
 20
-16524.09062393711
 30
0.0
 11
3793.781116697673
 21
-16524.50739043092
 31
0.0
  0
LINE
  5
3792BB
330
18
100
AcDbEntity
  8
0
  6
Continuous
 62
     8
370
    15
100
AcDbLine
 10
3816.028940825635
 20
-16497.78682160836
 30
0.0
 11
3807.878512467065
 21
-16505.73208354922
 31
0.0
  0
LINE
  5
3792BC
330
18
100
AcDbEntity
  8
0
  6
Continuous
 62
     8
370
    15
100
AcDbLine
 10
3810.765786275569
 20
-16524.50852713818
 30
0.0
 11
3811.249485570323
 21
-16524.09062393711
 31
0.0
  0
SPLINE
  5
3792BD
330
18
100
AcDbEntity
  8
0
  6
Continuous
 62
     8
370
    15
100
AcDbSpline
210
0.0
220
0.0
230
1.0
 70
     8
 71
     3
 72
    15
 73
    11
 74
     0
 42
0.000000001
 43
0.0000000001
 40
0.0
 40
0.0
 40
0.0
 40
0.0
 40
0.0405545387509642
 40
0.2008549424353542
 40
0.3625051322003512
 40
0.5243533772708049
 40
0.682398350509955
 40
0.8424409072761546
 40
0.9931254594908265
 40
1.0
 40
1.0
 40
1.0
 40
1.0
 10
3781.38853921858
 20
-16501.76458097035
 30
0.0
 10
3781.377896906335
 20
-16501.76064069522
 30
0.0
 10
3781.325188600952
 20
-16501.74112564808
 30
0.0
 10
3781.215922038132
 20
-16501.71956196671
 30
0.0
 10
3781.063059169444
 20
-16501.72036864183
 30
0.0
 10
3780.921041750698
 20
-16501.75139144434
 30
0.0
 10
3780.804724793775
 20
-16501.80817288987
 30
0.0
 10
3780.735232827531
 20
-16501.88225406327
 30
0.0
 10
3780.705774918324
 20
-16501.93974532436
 30
0.0
 10
3780.712655642894
 20
-16501.96787307939
 30
0.0
 10
3780.712955859269
 20
-16501.9691003357
 30
0.0
  0
LINE
  5
3792BE
330
18
100
AcDbEntity
  8
0
  6
Continuous
 62
     8
370
    15
100
AcDbLine
 10
3781.724753519501
 20
-16529.78228434852
 30
0.0
 11
3781.388555682191
 21
-16501.7645653834
 31
0.0
  0
LINE
  5
3792BF
330
18
100
AcDbEntity
  8
0
  6
Continuous
 62
     8
370
    15
100
AcDbLine
 10
3822.823503750522
 20
-16529.77909134962
 30
0.0
 11
3823.159663392251
 21
-16501.76456557348
 31
0.0
  0
SPLINE
  5
3792C0
330
18
100
AcDbEntity
  8
0
  6
Continuous
 62
     8
370
    15
100
AcDbSpline
210
0.0
220
0.0
230
1.0
 70
     8
 71
     3
 72
    14
 73
    10
 74
     0
 42
0.000000001
 43
0.0000000001
 40
0.0
 40
0.0
 40
0.0
 40
0.0
 40
0.0624614476248164
 40
0.2205180646077942
 40
0.380572902824069
 40
0.531269504338369
 40
0.6825344640392527
 40
0.839451144718291
 40
0.9999999999999998
 40
0.9999999999999998
 40
0.9999999999999998
 40
0.9999999999999998
 10
3823.830014615445
 20
-16501.96910585162
 30
0.0
 10
3823.831360954065
 20
-16501.95783015284
 30
0.0
 10
3823.836114157817
 20
-16501.91802167312
 30
0.0
 10
3823.791099735297
 20
-16501.85183330538
 30
0.0
 10
3823.703191573282
 20
-16501.78412140456
 30
0.0
 10
3823.58066038371
 20
-16501.73813367596
 30
0.0
 10
3823.44123965964
 20
-16501.7176946482
 30
0.0
 10
3823.291867276752
 20
-16501.72326170403
 30
0.0
 10
3823.204077573924
 20
-16501.75070259607
 30
0.0
 10
3823.159680514407
 20
-16501.76458001993
 30
0.0
  0
LINE
  5
3792C1
330
18
100
AcDbEntity
  8
0
  6
Continuous
 62
     8
370
    15
100
AcDbLine
 10
3823.159663392251
 20
-16501.76456557348
 30
0.0
 11
3816.969230595105
 21
-16504.61491451115
 31
0.0
  0
LINE
  5
3792C2
330
18
100
AcDbEntity
  8
0
  6
Continuous
 62
     8
370
    15
100
AcDbLine
 10
3817.462128110271
 20
-16527.67074403079
 30
0.0
 11
3818.824631178688
 21
-16528.80599368614
 31
0.0
  0
LINE
  5
3792C3
330
18
100
AcDbEntity
  8
0
  6
Continuous
 62
     8
370
    15
100
AcDbLine
 10
3787.578987985429
 20
-16504.61491460619
 30
0.0
 11
3781.388555682191
 21
-16501.7645653834
 31
0.0
  0
LINE
  5
3792C4
330
18
100
AcDbEntity
  8
0
  6
Continuous
 62
     8
370
    15
100
AcDbLine
 10
3785.724695567616
 20
-16528.80507098177
 30
0.0
 11
3787.086090634899
 21
-16527.67074403079
 31
0.0
  0
LWPOLYLINE
  5
3792C5
330
18
100
AcDbEntity
  8
0
  6
Continuous
 62
     8
370
    15
100
AcDbPolyline
 90
        4
 70
   128
 43
0.0
 10
3804.240622713641
 20
-16523.29711856271
 10
3804.242944083032
 20
-16523.2979353141
 10
3804.2476605788
 20
-16523.30423583808
 10
3804.251881849095
 20
-16523.31666148171
  0
LWPOLYLINE
  5
3792C6
330
18
100
AcDbEntity
  8
0
  6
Continuous
 62
     8
370
    15
100
AcDbPolyline
 90
        4
 70
   128
 43
0.0
 10
3800.307596031527
 20
-16523.29711856271
 10
3800.305274662138
 20
-16523.2979353141
 10
3800.300558166371
 20
-16523.30423583808
 10
3800.296336896075
 20
-16523.31666148171
  0
LINE
  5
3792C7
330
18
100
AcDbEntity
  8
0
  6
Continuous
 62
     8
370
    15
100
AcDbLine
 10
3827.110748681862
 20
-16507.01483012631
 30
0.0
 11
3823.956149925598
 21
-16507.57746439131
 31
0.0
  0
LINE
  5
3792C8
330
18
100
AcDbEntity
  8
0
  6
Continuous
 62
     8
370
    15
100
AcDbLine
 10
3826.996221865023
 20
-16534.14430159763
 30
0.0
 11
3827.110748681862
 21
-16507.01483012631
 31
0.0
  0
LINE
  5
3792C9
330
18
100
AcDbEntity
  8
0
  6
Continuous
 62
     8
370
    15
100
AcDbLine
 10
3777.539151310973
 20
-16531.10159605737
 30
0.0
 11
3777.437470063307
 21
-16507.01483012631
 31
0.0
  0
LINE
  5
3792CA
330
18
100
AcDbEntity
  8
0
  6
Continuous
 62
     8
370
    15
100
AcDbLine
 10
3780.592068819573
 20
-16507.57746439131
 30
0.0
 11
3777.437470063307
 21
-16507.01483012631
 31
0.0
  0
LWPOLYLINE
  5
3792CB
330
18
100
AcDbEntity
  8
0
  6
Continuous
 62
     8
370
    15
100
AcDbPolyline
 90
        3
 70
   128
 43
0.0
 10
3793.828958309818
 20
-16524.49414183128
 10
3793.810670199558
 20
-16524.50271173304
 10
3793.792569445211
 20
-16524.5177012408
  0
LWPOLYLINE
  5
3792CC
330
18
100
AcDbEntity
  8
0
  6
Continuous
 62
     8
370
    15
100
AcDbPolyline
 90
        3
 70
   128
 43
0.0
 10
3810.719260435353
 20
-16524.49414183128
 10
3810.737548545612
 20
-16524.50271173304
 10
3810.755649299959
 20
-16524.5177012408
  0
ARC
  5
3792CD
330
18
100
AcDbEntity
  8
0
  6
Continuous
 62
     8
370
    15
100
AcDbCircle
 10
3804.281248081621
 20
-16523.32735655612
 30
0.0
 40
0.0281305308736135
100
AcDbArc
 50
15.40576233186399
 51
79.02496352557925
  0
SPLINE
  5
3792CE
330
18
100
AcDbEntity
  8
0
  6
Continuous
 62
     8
370
    15
100
AcDbSpline
210
0.0
220
0.0
230
1.0
 70
     8
 71
     3
 72
    10
 73
     6
 74
     0
 42
0.000000001
 43
0.0000000001
 40
0.0
 40
0.0
 40
0.0
 40
0.0
 40
0.0695794651036904
 40
0.9692159225311753
 40
1.0
 40
1.0
 40
1.0
 40
1.0
 10
3804.750679264509
 20
-16522.93465180275
 30
0.0
 10
3804.752387289447
 20
-16522.9311015204
 30
0.0
 10
3804.776179437927
 20
-16522.88164741526
 30
0.0
 10
3804.783732066379
 20
-16522.82432051279
 30
0.0
 10
3804.791657088389
 20
-16522.77257698563
 30
0.0
 10
3804.791919297233
 20
-16522.77086498908
 30
0.0
  0
ARC
  5
3792CF
330
18
100
AcDbEntity
  8
0
  6
Continuous
 62
     8
370
    15
100
AcDbCircle
 10
3800.267282003016
 20
-16523.32758601613
 30
0.0
 40
0.0284919769249004
100
AcDbArc
 50
102.3777607482427
 51
164.3157068587152
  0
SPLINE
  5
3792D0
330
18
100
AcDbEntity
  8
0
  6
Continuous
 62
     8
370
    15
100
AcDbSpline
210
0.0
220
0.0
230
1.0
 70
     8
 71
     3
 72
    10
 73
     6
 74
     0
 42
0.000000001
 43
0.0000000001
 40
0.0
 40
0.0
 40
0.0
 40
0.0
 40
0.0304096477569878
 40
0.9191037399356323
 40
1.0
 40
1.0
 40
1.0
 40
1.0
 10
3799.756299447937
 20
-16522.77086498908
 30
0.0
 10
3799.75656161354
 20
-16522.77257700168
 30
0.0
 10
3799.764485328662
 20
-16522.8243210139
 30
0.0
 10
3799.772258457911
 20
-16522.88230644911
 30
0.0
 10
3799.796415633615
 20
-16522.93236559084
 30
0.0
 10
3799.798431149924
 20
-16522.93654219733
 30
0.0
  0
ARC
  5
3792D1
330
18
100
AcDbEntity
  8
0
  6
Continuous
 62
     8
370
    15
100
AcDbCircle
 10
3810.727202604192
 20
-16524.61451842836
 30
0.0
 40
0.112544846164848
100
AcDbArc
 50
46.36792510610891
 51
74.02735495533722
  0
SPLINE
  5
3792D2
330
18
100
AcDbEntity
  8
0
  6
Continuous
 62
     8
370
    15
100
AcDbSpline
210
0.0
220
0.0
230
1.0
 70
     8
 71
     3
 72
    11
 73
     7
 74
     0
 42
0.000000001
 43
0.0000000001
 40
0.0
 40
0.0
 40
0.0
 40
0.0
 40
0.1076527174428345
 40
0.6274363120352385
 40
0.9876727218561194
 40
1.0
 40
1.0
 40
1.0
 40
1.0
 10
3811.003734540643
 20
-16524.43124580974
 30
0.0
 10
3811.015796096784
 20
-16524.42237838173
 30
0.0
 10
3811.08609491024
 20
-16524.37069602334
 30
0.0
 10
3811.167635487791
 20
-16524.25146143047
 30
0.0
 10
3811.227868682379
 20
-16524.14069411202
 30
0.0
 10
3811.24879322518
 20
-16524.09222758341
 30
0.0
 10
3811.249485570323
 20
-16524.09062393711
 30
0.0
  0
LWPOLYLINE
  5
3792D3
330
18
100
AcDbEntity
  8
0
  6
Continuous
 62
     8
370
    15
100
AcDbPolyline
 90
        3
 70
   128
 43
0.0
 10
3793.787544750615
 20
-16524.50705752449
 10
3793.764913868599
 20
-16524.51701088189
 10
3793.743357401947
 20
-16524.53306007919
  0
SPLINE
  5
3792D4
330
18
100
AcDbEntity
  8
0
  6
Continuous
 62
     8
370
    15
100
AcDbSpline
210
0.0
220
0.0
230
1.0
 70
     8
 71
     3
 72
    11
 73
     7
 74
     0
 42
0.000000001
 43
0.0000000001
 40
0.0
 40
0.0
 40
0.0
 40
0.0
 40
0.0123176753512091
 40
0.3722734655968796
 40
0.8916521553891597
 40
1.0
 40
1.0
 40
1.0
 40
1.0
 10
3793.298733174848
 20
-16524.09062393711
 30
0.0
 10
3793.299425520527
 20
-16524.0922275827
 30
0.0
 10
3793.320350079584
 20
-16524.14069409016
 30
0.0
 10
3793.38057978288
 20
-16524.25146595276
 30
0.0
 10
3793.462199960679
 20
-16524.37077482683
 30
0.0
 10
3793.532592372044
 20
-16524.42251328202
 30
0.0
 10
3793.544742353974
 20
-16524.43144352441
 30
0.0
  0
SPLINE
  5
3792D5
330
18
100
AcDbEntity
  8
0
  6
Continuous
 62
     8
370
    15
100
AcDbSpline
210
0.0
220
0.0
230
1.0
 70
     8
 71
     3
 72
    13
 73
     9
 74
     0
 42
0.000000001
 43
0.0000000001
 40
0.0
 40
0.0
 40
0.0
 40
0.0
 40
0.0496531369065962
 40
0.2459181955595912
 40
0.44414584243181
 40
0.641563447526488
 40
0.8353505907150031
 40
1.0
 40
1.0
 40
1.0
 40
1.0
 10
3777.437463477863
 20
-16507.01484761411
 30
0.0
 10
3777.425063428252
 20
-16507.01355269419
 30
0.0
 10
3777.363649426739
 20
-16507.00713931549
 30
0.0
 10
3777.248717925598
 20
-16507.01132738963
 30
0.0
 10
3777.10833587234
 20
-16507.04577996137
 30
0.0
 10
3776.99887473747
 20
-16507.10587667383
 30
0.0
 10
3776.930018549625
 20
-16507.1794027989
 30
0.0
 10
3776.924265581727
 20
-16507.23224691589
 30
0.0
 10
3776.921622930582
 20
-16507.2565210938
 30
0.0
  0
SPLINE
  5
3792D6
330
18
100
AcDbEntity
  8
0
  6
Continuous
 62
     8
370
    15
100
AcDbSpline
210
0.0
220
0.0
230
1.0
 70
     8
 71
     3
 72
    13
 73
     9
 74
     0
 42
0.000000001
 43
0.0000000001
 40
0.0
 40
0.0
 40
0.0
 40
0.0
 40
0.0456003528225685
 40
0.2415723191703777
 40
0.4260828639198664
 40
0.6112904604595075
 40
0.8034207707744998
 40
0.9999999999999998
 40
0.9999999999999998
 40
0.9999999999999998
 40
0.9999999999999998
 10
3827.62550328925
 20
-16507.25607895798
 30
0.0
 10
3827.626722320218
 20
-16507.24940827553
 30
0.0
 10
3827.633180255729
 20
-16507.21406968424
 30
0.0
 10
3827.595501155696
 20
-16507.15263855366
 30
0.0
 10
3827.516671551933
 20
-16507.08330639604
 30
0.0
 10
3827.400793037861
 20
-16507.03361049385
 30
0.0
 10
3827.259818211198
 20
-16507.00582086322
 30
0.0
 10
3827.160820602881
 20
-16507.01181582566
 30
0.0
 10
3827.110755267307
 20
-16507.01484761411
 30
0.0
  0
LWPOLYLINE
  5
3792D7
330
18
100
AcDbEntity
  8
0
  6
Continuous
 62
     8
370
    15
100
AcDbPolyline
 90
        3
 70
   128
 43
0.0
 10
3803.372363060731
 20
-16523.2563681474
 10
3803.456139471041
 20
-16518.32003464074
 10
3803.500573773901
 20
-16515.69623468814
  0
LWPOLYLINE
  5
3792D8
330
18
100
AcDbEntity
  8
0
  6
Continuous
 62
     8
370
    15
100
AcDbPolyline
 90
        4
 70
   128
 43
0.0
 10
3801.047644971269
 20
-16515.69623468814
 10
3801.054460248382
 20
-16516.09887901165
 10
3801.081734856996
 20
-16517.70950097764
 10
3801.175830001202
 20
-16523.25544000423
  0
LINE
  5
3792D9
330
18
100
AcDbEntity
  8
0
  6
Continuous
 62
     8
370
    15
100
AcDbLine
 10
3797.744049532257
 20
-16495.68717427183
 30
0.0
 11
3797.726733762964
 21
-16495.62111720529
 31
0.0
  0
LINE
  5
3792DA
330
18
100
AcDbEntity
  8
0
  6
Continuous
 62
     8
370
    15
100
AcDbLine
 10
3806.804169212913
 20
-16495.68717427183
 30
0.0
 11
3806.821484323662
 21
-16495.62111682512
 31
0.0
  0
SPLINE
  5
3792DB
330
18
100
AcDbEntity
  8
0
  6
Continuous
 62
     8
370
    15
100
AcDbSpline
210
0.0
220
0.0
230
1.0
 70
     8
 71
     3
 72
    11
 73
     7
 74
     0
 42
0.000000001
 43
0.0000000001
 40
0.0
 40
0.0
 40
0.0
 40
0.0
 40
0.2155742998063012
 40
0.5745397311291537
 40
0.9356567194428032
 40
1.0
 40
1.0
 40
1.0
 40
1.0
 10
3803.500573773901
 20
-16515.69623468814
 30
0.0
 10
3803.500796063772
 20
-16515.68323593379
 30
0.0
 10
3803.501388501567
 20
-16515.64859218993
 30
0.0
 10
3803.495362924005
 20
-16515.61077350152
 30
0.0
 10
3803.486592042546
 20
-16515.59056666456
 30
0.0
 10
3803.47898470606
 20
-16515.59449063772
 30
0.0
 10
3803.47783423204
 20
-16515.5950840687
 30
0.0
  0
SPLINE
  5
3792DC
330
18
100
AcDbEntity
  8
0
  6
Continuous
 62
     8
370
    15
100
AcDbSpline
210
0.0
220
0.0
230
1.0
 70
     8
 71
     3
 72
    10
 73
     6
 74
     0
 42
0.000000001
 43
0.0000000001
 40
0.0
 40
0.0
 40
0.0
 40
0.0
 40
0.2847349406073222
 40
0.6425412354014006
 40
1.0
 40
1.0
 40
1.0
 40
1.0
 10
3801.070584052115
 20
-16515.59530415331
 30
0.0
 10
3801.066141733117
 20
-16515.59634052139
 30
0.0
 10
3801.056117065505
 20
-16515.59867922005
 30
0.0
 10
3801.047558727459
 20
-16515.63383610715
 30
0.0
 10
3801.047616232645
 20
-16515.67544189956
 30
0.0
 10
3801.047644971269
 20
-16515.69623468814
 30
0.0
  0
SPLINE
  5
3792DD
330
18
100
AcDbEntity
  8
0
  6
Continuous
 62
     8
370
    15
100
AcDbSpline
210
0.0
220
0.0
230
1.0
 70
     8
 71
     3
 72
     9
 73
     5
 74
     0
 42
0.000000001
 43
0.0000000001
 40
0.0
 40
0.0
 40
0.0
 40
0.0
 40
0.362650864627247
 40
1.0
 40
1.0
 40
1.0
 40
1.0
 10
3788.461086951176
 20
-16497.64047976224
 30
0.0
 10
3788.475292567518
 20
-16497.65263585678
 30
0.0
 10
3788.514464172296
 20
-16497.68615596034
 30
0.0
 10
3788.517404136128
 20
-16497.74763682954
 30
0.0
 10
3788.519277919534
 20
-16497.78682160836
 30
0.0
  0
SPLINE
  5
3792DE
330
18
100
AcDbEntity
  8
0
  6
Continuous
 62
     8
370
    15
100
AcDbSpline
210
0.0
220
0.0
230
1.0
 70
     8
 71
     3
 72
     9
 73
     5
 74
     0
 42
0.000000001
 43
0.0000000001
 40
0.0
 40
0.0
 40
0.0
 40
0.0
 40
0.637349135372753
 40
1.0
 40
1.0
 40
1.0
 40
1.0
 10
3816.028940825635
 20
-16497.78682160836
 30
0.0
 10
3816.030814609041
 20
-16497.74763682954
 30
0.0
 10
3816.033754572874
 20
-16497.68615596034
 30
0.0
 10
3816.072926177652
 20
-16497.65263585678
 30
0.0
 10
3816.087131793994
 20
-16497.64047976224
 30
0.0
  0
LWPOLYLINE
  5
3792DF
330
18
100
AcDbEntity
  8
0
  6
Continuous
 62
     8
370
    15
100
AcDbPolyline
 90
        3
 70
   128
 43
0.0
 10
3800.863795478981
 20
-16515.46449163851
 10
3800.869228141899
 20
-16515.5031835215
 10
3800.873031565705
 20
-16515.51547742562
  0
LINE
  5
3792E0
330
18
100
AcDbEntity
  8
0
  6
Continuous
 62
     8
370
    15
100
AcDbLine
 10
3800.732786610197
 20
-16505.3062422765
 30
0.0
 11
3800.731420788886
 21
-16505.2573751814
 31
0.0
  0
SPLINE
  5
3792E1
330
18
100
AcDbEntity
  8
0
  6
Continuous
 62
     8
370
    15
100
AcDbSpline
210
0.0
220
0.0
230
1.0
 70
     8
 71
     3
 72
    10
 73
     6
 74
     0
 42
0.000000001
 43
0.0000000001
 40
0.0
 40
0.0
 40
0.0
 40
0.0
 40
0.0539730373681132
 40
0.5269879909046262
 40
1.0
 40
1.0
 40
1.0
 40
1.0
 10
3781.332910976173
 20
-16501.60274118864
 30
0.0
 10
3781.335445679258
 20
-16501.60284171153
 30
0.0
 10
3781.360194297299
 20
-16501.60382320822
 30
0.0
 10
3781.385969861561
 20
-16501.65582904328
 30
0.0
 10
3781.38769374377
 20
-16501.7283200119
 30
0.0
 10
3781.388555682191
 20
-16501.7645653834
 30
0.0
  0
SPLINE
  5
3792E2
330
18
100
AcDbEntity
  8
0
  6
Continuous
 62
     8
370
    15
100
AcDbSpline
210
0.0
220
0.0
230
1.0
 70
     8
 71
     3
 72
    10
 73
     6
 74
     0
 42
0.000000001
 43
0.0000000001
 40
0.0
 40
0.0
 40
0.0
 40
0.0
 40
0.4730118644070337
 40
0.9460269478132016
 40
1.0
 40
1.0
 40
1.0
 40
1.0
 10
3823.159663392251
 20
-16501.76456557348
 30
0.0
 10
3823.160525192032
 20
-16501.72832011679
 30
0.0
 10
3823.16224879746
 20
-16501.65582895674
 30
0.0
 10
3823.188024449824
 20
-16501.60382320973
 30
0.0
 10
3823.212773066094
 20
-16501.60284171167
 30
0.0
 10
3823.215307768996
 20
-16501.60274118864
 30
0.0
  0
SPLINE
  5
3792E3
330
18
100
AcDbEntity
  8
0
  6
Continuous
 62
     8
370
    15
100
AcDbSpline
210
0.0
220
0.0
230
1.0
 70
     8
 71
     3
 72
    10
 73
     6
 74
     0
 42
0.000000001
 43
0.0000000001
 40
0.0
 40
0.0
 40
0.0
 40
0.0
 40
0.1557575608546234
 40
0.5778793535097275
 40
1.0
 40
1.0
 40
1.0
 40
1.0
 10
3777.428545468136
 20
-16506.86104880653
 30
0.0
 10
3777.430962419174
 20
-16506.85966218312
 30
0.0
 10
3777.439929599296
 20
-16506.85451764288
 30
0.0
 10
3777.444820655682
 20
-16506.9044038273
 30
0.0
 10
3777.439920258548
 20
-16506.97802139329
 30
0.0
 10
3777.437470063307
 20
-16507.01483012631
 30
0.0
  0
SPLINE
  5
3792E4
330
18
100
AcDbEntity
  8
0
  6
Continuous
 62
     8
370
    15
100
AcDbSpline
210
0.0
220
0.0
230
1.0
 70
     8
 71
     3
 72
    10
 73
     6
 74
     0
 42
0.000000001
 43
0.0000000001
 40
0.0
 40
0.0
 40
0.0
 40
0.0
 40
0.4221206464902726
 40
0.8442424391453764
 40
1.0
 40
1.0
 40
1.0
 40
1.0
 10
3827.110748681862
 20
-16507.01483012631
 30
0.0
 10
3827.108298486621
 20
-16506.97802139329
 30
0.0
 10
3827.103398089488
 20
-16506.9044038273
 30
0.0
 10
3827.108289145873
 20
-16506.85451764288
 30
0.0
 10
3827.117256325994
 20
-16506.85966218312
 30
0.0
 10
3827.119673277035
 20
-16506.86104880653
 30
0.0
  0
LWPOLYLINE
  5
3792E5
330
18
100
AcDbEntity
  8
0
  6
Continuous
 62
     8
370
    15
100
AcDbPolyline
 90
       52
 70
   128
 43
0.0
 10
3773.405869146516
 20
-16564.53485403664
 10
3773.494291917603
 20
-16565.19229586284
 10
3773.713699191328
 20
-16566.18299592695
 10
3774.035342865738
 20
-16567.1643476193
 10
3774.458075756303
 20
-16568.13283741198
 10
3774.980383210652
 20
-16569.08499967843
 10
3775.600393645294
 20
-16570.01742581755
 10
3776.315889082326
 20
-16570.92677793979
 10
3777.124309759248
 20
-16571.80979913175
 10
3778.022758738767
 20
-16572.66333132411
 10
3779.008022323683
 20
-16573.48431643219
 10
3780.076571867888
 20
-16574.26981717023
 10
3781.224582092131
 20
-16575.0170215421
 10
3782.447944995769
 20
-16575.72325391379
 10
3783.742281175506
 20
-16576.3859861096
 10
3785.102955795095
 20
-16577.00284663122
 10
3786.525097806609
 20
-16577.57162719196
 10
3788.003619130539
 20
-16578.09029074777
 10
3789.533222434864
 20
-16578.55698207075
 10
3791.108437190356
 20
-16578.9700287946
 10
3792.723621646215
 20
-16579.32795319989
 10
3794.372993781662
 20
-16579.62947487521
 10
3796.050649086639
 20
-16579.87351337843
 10
3797.750584269409
 20
-16580.05919431934
 10
3799.466713061631
 20
-16580.1858554424
 10
3801.192889925955
 20
-16580.25304054404
 10
3802.922937714896
 20
-16580.26051239839
 10
3804.650663475904
 20
-16580.20824059187
 10
3806.369880841868
 20
-16580.09641444898
 10
3808.074436372906
 20
-16579.92543390819
 10
3809.758229971241
 20
-16579.69591142281
 10
3811.415230686268
 20
-16579.40866739894
 10
3813.03950898324
 20
-16579.06473133601
 10
3814.625250572691
 20
-16578.66533384319
 10
3816.166778142424
 20
-16578.21190473853
 10
3817.65857210164
 20
-16577.70606715636
 10
3819.095295605648
 20
-16577.14963222491
 10
3820.471802623025
 20
-16576.54459136786
 10
3821.783166582312
 20
-16575.89311041172
 10
3823.024693501727
 20
-16575.1975220062
 10
3824.191938823231
 20
-16574.4603159061
 10
3825.280723793805
 20
-16573.68413103531
 10
3826.287150200394
 20
-16572.8717454598
 10
3827.207616956992
 20
-16572.02606833279
 10
3828.038828212973
 20
-16571.15012608985
 10
3828.777808005705
 20
-16570.24705551078
 10
3829.421913266806
 20
-16569.32008860786
 10
3829.968834480686
 20
-16568.37254312167
 10
3830.4166164287
 20
-16567.40781206635
 10
3830.763654896427
 20
-16566.42934738233
 10
3831.00870984456
 20
-16565.44065385365
 10
3831.130016377108
 20
-16564.65101411356
  0
LWPOLYLINE
  5
3792E6
330
18
100
AcDbEntity
  8
0
  6
Continuous
 62
     8
370
    15
100
AcDbPolyline
 90
       25
 70
   128
 43
0.0
 10
3821.489520104478
 20
-16540.02969506309
 10
3820.270156870909
 20
-16539.36785034958
 10
3818.982528749005
 20
-16538.75059487921
 10
3817.631518105434
 20
-16538.18027120986
 10
3816.222252943958
 20
-16537.6590413188
 10
3814.760078999622
 20
-16537.18888265851
 10
3813.250539570823
 20
-16536.77157955523
 10
3811.699363006961
 20
-16536.40871446514
 10
3810.112433403215
 20
-16536.10166322222
 10
3808.49576985639
 20
-16535.85159218696
 10
3806.855506050033
 20
-16535.6594479818
 10
3805.197865229743
 20
-16535.5259612928
 10
3803.529130568673
 20
-16535.45163736542
 10
3801.855635947898
 20
-16535.43675828557
 10
3800.183731053567
 20
-16535.48138107868
 10
3798.519752400931
 20
-16535.5853361891
 10
3796.870016748915
 20
-16535.74822824036
 10
3795.240780928889
 20
-16535.96944097749
 10
3793.63822406397
 20
-16536.24813384536
 10
3792.0684264956
 20
-16536.58325111286
 10
3790.537343441765
 20
-16536.97352035216
 10
3789.050780960121
 20
-16537.4174617529
 10
3787.614379813649
 20
-16537.91339135359
 10
3786.233586823977
 20
-16538.45942693428
 10
3785.109092936001
 20
-16538.96068983998
  0
ARC
  5
3792E7
330
18
100
AcDbEntity
  8
0
  6
Continuous
 62
     8
370
    15
100
AcDbCircle
 10
3792.709883357933
 20
-16557.45133662235
 30
0.0
 40
19.90121931385941
100
AcDbArc
 50
123.0497964442202
 51
134.1202075798701
  0
ARC
  5
3792E8
330
18
100
AcDbEntity
  8
0
  6
Continuous
 62
     8
370
    15
100
AcDbCircle
 10
3811.394032933933
 20
-16557.93436789765
 30
0.0
 40
20.55471163804597
100
AcDbArc
 50
45.0527266913166
 51
60.5836744422355
  0
LWPOLYLINE
  5
3792E9
330
18
100
AcDbEntity
  8
0
  6
Continuous
 62
     8
370
    15
100
AcDbPolyline
 90
       37
 70
   128
 43
0.0
 10
3831.16869664733
 20
-16548.6478847833
 10
3831.165241922841
 20
-16548.63296464512
 10
3830.884871866923
 20
-16547.64885064008
 10
3830.504005943454
 20
-16546.67605238473
 10
3830.023982314873
 20
-16545.71798836459
 10
3829.446485538032
 20
-16544.7780230811
 10
3828.773544588561
 20
-16543.85945830768
 10
3828.007524299786
 20
-16542.96552054415
 10
3827.151113508935
 20
-16542.0993496117
 10
3826.207321435136
 20
-16541.26398895846
 10
3825.179463520715
 20
-16540.46237140323
 10
3824.071149165802
 20
-16539.69731357543
 10
3822.886271932486
 20
-16538.97150265673
 10
3821.628994315957
 20
-16538.28748758961
 10
3820.303731692513
 20
-16537.64767133139
 10
3818.915138901688
 20
-16537.05430158762
 10
3817.468095017422
 20
-16536.50946202066
 10
3815.967680381325
 20
-16536.0150665946
 10
3814.419166971453
 20
-16535.57285249468
 10
3812.827993706898
 20
-16535.18437195359
 10
3811.199749654901
 20
-16534.85099016056
 10
3809.540154274511
 20
-16534.57387841826
 10
3807.855035684626
 20
-16534.35400920069
 10
3806.150315517461
 20
-16534.19215501257
 10
3804.431979284048
 20
-16534.08888496788
 10
3802.70606320335
 20
-16534.04456174846
 10
3800.978628519015
 20
-16534.05934046352
 10
3799.25574701141
 20
-16534.13316941
 10
3797.543465436203
 20
-16534.26578931219
 10
3795.847801573112
 20
-16534.45673560278
 10
3794.174709981577
 20
-16534.70533538149
 10
3792.530067512785
 20
-16535.01071577879
 10
3790.919651577707
 20
-16535.37180585677
 10
3789.349118415123
 20
-16535.78733546862
 10
3787.823985969462
 20
-16536.25584666372
 10
3786.349608207576
 20
-16536.77569178682
 10
3785.109092771364
 20
-16537.26961694301
  0
ARC
  5
3792EA
330
18
100
AcDbEntity
  8
0
  6
Continuous
 62
     8
370
    15
100
AcDbCircle
 10
3793.770656331904
 20
-16560.08097017466
 30
0.0
 40
24.33652597324793
100
AcDbArc
 50
119.3118423826556
 51
128.1269757326604
  0
ARC
  5
3792EB
330
18
100
AcDbEntity
  8
0
  6
Continuous
 62
     8
370
    15
100
AcDbCircle
 10
3785.048347403548
 20
-16551.50862190957
 30
0.0
 40
12.01437892363727
100
AcDbArc
 50
142.6904563911445
 51
166.2250147614388
  0
ARC
  5
3792EC
330
18
100
AcDbEntity
  8
0
  6
Continuous
 62
     8
370
    15
100
AcDbCircle
 10
3786.396519535415
 20
-16552.25826474731
 30
0.0
 40
13.88329503081991
100
AcDbArc
 50
141.7586209909808
 51
150.6074576209547
  0
ARC
  5
3792ED
330
18
100
AcDbEntity
  8
0
  6
Continuous
 62
     8
370
    15
100
AcDbCircle
 10
3794.057571452458
 20
-16560.5017664948
 30
0.0
 40
25.19798865718813
100
AcDbArc
 50
118.960862665601
 51
127.4223019971444
  0
LWPOLYLINE
  5
3792EE
330
18
100
AcDbEntity
  8
0
  6
Continuous
 62
     8
370
    15
100
AcDbPolyline
 90
       33
 70
   128
 43
0.0
 10
3785.109092112821
 20
-16536.88731938089
 10
3786.213035296245
 20
-16536.45067400604
 10
3787.700055795594
 20
-16535.92636949292
 10
3789.238269569362
 20
-16535.45384066493
 10
3790.822272601312
 20
-16535.03474734276
 10
3792.44649953181
 20
-16534.67056116313
 10
3794.105246048329
 20
-16534.36256025642
 10
3795.792687983239
 20
-16534.11182886647
 10
3797.502893826155
 20
-16533.91924556536
 10
3799.229860943889
 20
-16533.78548819556
 10
3800.967518873165
 20
-16533.71102588645
 10
3802.709766857662
 20
-16533.69612019472
 10
3804.450485701813
 20
-16533.74082434413
 10
3806.183558844224
 20
-16533.84498018412
 10
3807.902900016556
 20
-16534.00822199147
 10
3809.602471024213
 20
-16534.22997609017
 10
3811.276299527053
 20
-16534.5094650333
 10
3812.918508015342
 20
-16534.8457060823
 10
3814.523326322103
 20
-16535.23751843022
 10
3816.085121257611
 20
-16535.68352510258
 10
3817.598402536307
 20
-16536.18216094094
 10
3819.057857679641
 20
-16536.73167298302
 10
3820.458358930804
 20
-16537.33013205792
 10
3821.794988114774
 20
-16537.97543497209
 10
3823.063048986031
 20
-16538.66531619951
 10
3824.25808780806
 20
-16539.39735215866
 10
3825.37590635963
 20
-16540.16897176218
 10
3826.412580209378
 20
-16540.97746392524
 10
3827.364466124453
 20
-16541.81998944583
 10
3828.228222320745
 20
-16542.69358813295
 10
3829.000812249532
 20
-16543.59519315801
 10
3829.679524683071
 20
-16544.52163504663
 10
3830.204443266395
 20
-16545.36751746525
  0
ARC
  5
3792EF
330
18
100
AcDbEntity
  8
0
  6
Continuous
 62
     8
370
    15
100
AcDbCircle
 10
3792.649162358198
 20
-16557.28373144652
 30
0.0
 40
20.11706931609782
100
AcDbArc
 50
122.4455377772597
 51
133.7216775791447
  0
LWPOLYLINE
  5
3792F0
330
18
100
AcDbEntity
  8
0
  6
Continuous
 62
     8
370
    15
100
AcDbPolyline
 90
       34
 70
   128
 43
0.0
 10
3785.109092442093
 20
-16538.52835276921
 10
3785.721787764341
 20
-16538.25252980205
 10
3787.085101336412
 20
-16537.69346143542
 10
3788.504918685811
 20
-16537.18341328426
 10
3789.975959273402
 20
-16536.72428258524
 10
3791.492749277234
 20
-16536.31777706043
 10
3793.049646617236
 20
-16535.96540959495
 10
3794.640860053006
 20
-16535.66849025344
 10
3796.260468610871
 20
-16535.42812418906
 10
3797.902448584216
 20
-16535.24520518068
 10
3799.560692631275
 20
-16535.12041373196
 10
3801.229029531463
 20
-16535.0542147904
 10
3802.901255795516
 20
-16535.04685318526
 10
3804.571146860742
 20
-16535.09835780941
 10
3806.232493969524
 20
-16535.20853553669
 10
3807.879114706016
 20
-16535.37697882522
 10
3809.504885264841
 20
-16535.60305849424
 10
3811.103756914695
 20
-16535.88593474897
 10
3812.669781681577
 20
-16536.22455527981
 10
3814.197133422231
 20
-16536.61765982438
 10
3815.680130873181
 20
-16537.0637873907
 10
3817.113257077814
 20
-16537.56127682747
 10
3818.491181118337
 20
-16538.108277849
 10
3819.80877655503
 20
-16538.70275559721
 10
3821.061141470687
 20
-16539.34249917175
 10
3822.243617486094
 20
-16540.02512804528
 10
3823.351805935528
 20
-16540.74810292214
 10
3824.381583177917
 20
-16541.50873457724
 10
3825.329119406515
 20
-16542.30419319402
 10
3826.190889761845
 20
-16543.13151934182
 10
3826.963689107784
 20
-16543.98763554731
 10
3827.644639934107
 20
-16544.86935693922
 10
3828.231211454267
 20
-16545.77340379396
 10
3828.241707995181
 20
-16545.79125161863
  0
LINE
  5
3792F1
330
18
100
AcDbEntity
  8
0
  6
Continuous
 62
     8
370
    15
100
AcDbLine
 10
3798.430104737059
 20
-16531.73329882986
 30
0.0
 11
3798.438495911181
 21
-16531.77009240915
 31
0.0
  0
LINE
  5
3792F2
330
18
100
AcDbEntity
  8
0
  6
Continuous
 62
     8
370
    15
100
AcDbLine
 10
3806.109460733276
 20
-16531.77123824048
 30
0.0
 11
3806.11811400811
 21
-16531.73329882986
 31
0.0
  0
ARC
  5
3792F3
330
18
100
AcDbEntity
  8
0
  6
Continuous
 62
     8
370
    15
100
AcDbCircle
 10
3794.272514635964
 20
-16552.0880348922
 30
0.0
 40
25.54275148376472
100
AcDbArc
 50
119.0840060268453
 51
126.2582694472016
  0
LINE
  5
3792F4
330
18
100
AcDbEntity
  8
0
  6
Continuous
 62
     8
370
    15
100
AcDbLine
 10
3820.04725939361
 20
-16535.1942108015
 30
0.0
 11
3820.176351239331
 21
-16535.09709038111
 31
0.0
  0
LINE
  5
3792F5
330
18
100
AcDbEntity
  8
0
  6
Continuous
 62
     8
370
    15
100
AcDbLine
 10
3819.68394483373
 20
-16533.5985945729
 30
0.0
 11
3819.534879333081
 21
-16533.68464825472
 31
0.0
  0
LINE
  5
3792F6
330
18
100
AcDbEntity
  8
0
  6
Continuous
 62
     8
370
    15
100
AcDbLine
 10
3775.110520825052
 20
-16542.06804279318
 30
0.0
 11
3775.206944253366
 21
-16542.09109970243
 31
0.0
  0
LINE
  5
3792F7
330
18
100
AcDbEntity
  8
0
  6
Continuous
 62
     8
370
    15
100
AcDbLine
 10
3829.341274491804
 20
-16542.09109970243
 30
0.0
 11
3829.437697920117
 21
-16542.06804279318
 31
0.0
  0
LINE
  5
3792F8
330
18
100
AcDbEntity
  8
0
  6
Continuous
 62
     8
370
    15
100
AcDbLine
 10
3775.49243976119
 20
-16535.71103739008
 30
0.0
 11
3775.04758767769
 21
-16535.60466440068
 31
0.0
  0
LINE
  5
3792F9
330
18
100
AcDbEntity
  8
0
  6
Continuous
 62
     8
370
    15
100
AcDbLine
 10
3823.514976224767
 20
-16575.25849276579
 30
0.0
 11
3823.392870219186
 21
-16575.1880024692
 31
0.0
  0
VIEWPORT
  5
1B39D6
102
{ACAD_XDICTIONARY
360
1B39D7
102
}
330
15
100
AcDbEntity
 67
     1
  8
0
100
AcDbViewport
 10
9.443112410971278
 20
5.64570822246414
 30
0.0
 40
25.68200028106094
 41
14.3866760833721
 68
     1
 69
     1
 12
9.443112410971278
 22
5.64570822246414
 13
0.0
 23
0.0
 14
10.0
 24
10.0
 15
10.0
 25
10.0
 16
0.0
 26
0.0
 36
1.0
 17
0.0
 27
0.0
 37
0.0
 42
50.0
 43
0.0
 44
0.0
 45
14.3866760833721
 50
0.0
 51
0.0
 72
   100
 90
   557088
  1

281
     0
 71
     1
 74
     0
110
0.0
120
0.0
130
0.0
111
1.0
121
0.0
131
0.0
112
0.0
122
1.0
132
0.0
 79
     0
146
0.0
  0
VIEWPORT
  5
1B39DA
102
{ACAD_XDICTIONARY
360
1B39DB
102
}
330
15
100
AcDbEntity
 67
     1
  8
実線
100
AcDbViewport
 10
5.249999761581421
 20
3.999999761581421
 30
0.0
 40
8.399999618530275
 41
6.399999618530274
 68
     2
 69
     2
 12
973.77522575311
 22
148.6828135753912
 13
0.0
 23
0.0
 14
1.0
 24
1.0
 15
20.0
 25
20.0
 16
0.0
 26
0.0
 36
1.0
 17
0.0
 27
0.0
 37
0.0
 42
50.0
 43
0.0
 44
0.0
 45
19878.02383915038
 50
0.0
 51
0.0
 72
   100
 90
   819200
  1

281
     0
 71
     1
 74
     0
110
0.0
120
0.0
130
0.0
111
1.0
121
0.0
131
0.0
112
0.0
122
1.0
132
0.0
 79
     0
146
0.0
  0
ENDSEC
  0
SECTION
  2
OBJECTS
  0
DICTIONARY
  5
C
330
0
100
AcDbDictionary
281
     1
  3
ACAD_DETAILVIEWSTYLE
350
35C3BE
  3
ACAD_GROUP
350
D
  3
ACAD_IMAGE_VARS
350
34757C
  3
ACAD_LAYOUT
350
617
  3
ACAD_MLINESTYLE
350
E
  3
ACAD_PLOTSETTINGS
350
618
  3
ACAD_PLOTSTYLENAME
350
615
  3
ACAD_SCALELIST
350
66C31
  3
ACAD_SECTIONVIEWSTYLE
350
35C3BF
  3
AcadDim
350
12B3C
  3
AcDbVariableDictionary
350
6DE
  3
AcDsDecomposeData
350
37C5F4
  3
AEC_DISP_REPS
350
365806
  3
AEC_DISPLAY_PROPS_DEFAULTS
350
365808
  3
AEC_VARS
350
365804
  3
APPDATA
350
34757B
  3
DWGPROPS
350
37C5F1
  0
DICTIONARY
  5
372198
330
8
100
AcDbDictionary
280
     1
281
     1
  0
DICTIONARY
  5
67DE7
330
2
100
AcDbDictionary
280
     1
281
     1
  3
ACAD_LAYERSTATES
360
67DE8
  0
DICTIONARY
  5
66C5B
330
F
100
AcDbDictionary
280
     1
281
     1
  3
ADSK_XREC_LAYER_RECONCILED
360
66C5C
  0
DICTIONARY
  5
66C61
330
280
100
AcDbDictionary
280
     1
281
     1
  3
ADSK_XREC_LAYER_RECONCILED
360
66C62
  0
DICTIONARY
  5
66C67
330
2F4
100
AcDbDictionary
280
     1
281
     1
  3
ADSK_XREC_LAYER_RECONCILED
360
66C68
  0
DICTIONARY
  5
845D5
330
18
100
AcDbDictionary
280
     1
281
     1
  3
ACAD_SORTENTS
360
845D6
  0
DICTIONARY
  5
1B39D7
330
1B39D6
100
AcDbDictionary
280
     1
281
     1
  3
ASDK_XREC_ANNOTATION_SCALE_INFO
360
1B39D8
  0
DICTIONARY
  5
1B39DB
330
1B39DA
100
AcDbDictionary
280
     1
281
     1
  3
ASDK_XREC_ANNOTATION_SCALE_INFO
360
1B39DC
  0
DICTIONARY
  5
35C3BE
102
{ACAD_REACTORS
330
C
102
}
330
C
100
AcDbDictionary
281
     1
  0
DICTIONARY
  5
D
102
{ACAD_REACTORS
330
C
102
}
330
C
100
AcDbDictionary
281
     1
  0
RASTERVARIABLES
  5
34757C
102
{ACAD_REACTORS
330
C
102
}
330
C
100
AcDbRasterVariables
 90
        0
 70
     1
 71
     1
 72
     0
  0
DICTIONARY
  5
617
102
{ACAD_REACTORS
330
C
102
}
330
C
100
AcDbDictionary
281
     1
  3
Model
350
619
  3
ﾚｲｱｳﾄ1
350
61A
  0
DICTIONARY
  5
E
102
{ACAD_REACTORS
330
C
102
}
330
C
100
AcDbDictionary
281
     1
  3
STANDARD
350
1B
  0
DICTIONARY
  5
618
102
{ACAD_REACTORS
330
C
102
}
330
C
100
AcDbDictionary
281
     1
  0
ACDBDICTIONARYWDFLT
  5
615
102
{ACAD_REACTORS
330
C
102
}
330
C
100
AcDbDictionary
281
     1
  3
Normal
350
616
100
AcDbDictionaryWithDefault
340
616
  0
DICTIONARY
  5
66C31
102
{ACAD_REACTORS
330
C
102
}
330
C
100
AcDbDictionary
281
     1
  3
A0
350
66C32
  3
A1
350
66C33
  3
A2
350
66C34
  3
A3
350
66C35
  3
A4
350
66C36
  3
A5
350
66C37
  3
A6
350
66C38
  3
A7
350
66C39
  3
A8
350
66C3A
  3
A9
350
66C3B
  3
B0
350
66C3C
  3
B1
350
66C3D
  3
B2
350
66C3E
  3
B3
350
66C3F
  3
B4
350
66C40
  3
B5
350
66C41
  3
B6
350
66C42
  3
B7
350
66C43
  3
B8
350
66C44
  3
B9
350
66C45
  3
C0
350
66C46
  3
C1
350
66C47
  3
C2
350
66C48
  3
C3
350
66C49
  3
C4
350
66C4A
  3
C5
350
66C4B
  3
C6
350
66C4C
  3
C7
350
66C4D
  3
C8
350
66C4E
  3
C9
350
66C4F
  3
D0
350
66C50
  3
D1
350
66C51
  3
D2
350
66C52
  0
DICTIONARY
  5
35C3BF
102
{ACAD_REACTORS
330
C
102
}
330
C
100
AcDbDictionary
281
     1
  0
XRECORD
  5
12B3C
102
{ACAD_REACTORS
330
C
102
}
330
C
100
AcDbXrecord
280
     1
 90
   990106
  3
OPEN
 60
     0
 61
     0
 62
     1
 63
     3
 64
     1
 65
     0
 66
     0
 67
     3
 68
     1
 69
     0
 70
     0
 71
     0
 72
     0
 40
0.0
170
     2
340
0
  0
DICTIONARY
  5
6DE
102
{ACAD_REACTORS
330
C
102
}
330
C
100
AcDbDictionary
281
     1
  3
DGNFRAME
350
35C3F9
  3
DIMASSOC
350
6DF
  3
HIDETEXT
350
35C3F8
  3
INDEXCTL
350
66CB9
  3
PROJECTNAME
350
6E0
  3
SORTENTS
350
66CB8
  0
DICTIONARY
  5
37C5F4
102
{ACAD_REACTORS
330
C
102
}
330
C
100
AcDbDictionary
281
     1
  3
AcDsRecords
350
37C5F5
  3
AcDsSchemas
350
37C5F6
1001
ACAD
1070
     2
  0
DICTIONARY
  5
365806
102
{ACAD_REACTORS
330
C
102
}
330
C
100
AcDbDictionary
281
     1
  3
AecDbDispRep2dSection
350
365807
  3
AecDbDispRepAnchor
350
365841
  3
AecDbDispRepAnchorEntToNode
350
365842
  3
AecDbDispRepClipVolModel
350
36580E
  3
AecDbDispRepClipVolPlan
350
365810
  3
AecDbDispRepClipVolResSubDiv
350
365813
  3
AecDbDispRepClipVolResult
350
365812
  3
AecDbDispRepDisplayTheme
350
365815
  3
AecDbDispRepEditInPlaceProfile
350
365846
  3
AecDbDispRepEntRef
350
365817
  3
AecDbDispRepLayoutCurve
350
365819
  3
AecDbDispRepLayoutGrid2d
350
36581B
  3
AecDbDispRepLayoutGrid3d
350
36581D
  3
AecDbDispRepMaskBlockRef
350
36581F
  3
AecDbDispRepMaskBlockRefRcp
350
365821
  3
AecDbDispRepMassElemModel
350
365823
  3
AecDbDispRepMassElemPlan100
350
365829
  3
AecDbDispRepMassElemPlan50
350
365827
  3
AecDbDispRepMassElemRcp
350
36582B
  3
AecDbDispRepMassElemSchem
350
365825
  3
AecDbDispRepMassGroupModel
350
36582D
  3
AecDbDispRepMassGroupPlan
350
36582F
  3
AecDbDispRepMassGroupPlan100
350
365833
  3
AecDbDispRepMassGroupPlan50
350
365831
  3
AecDbDispRepMassGroupRcp
350
365835
  3
AecDbDispRepMaterial
350
365844
  3
AecDbDispRepMvBlockRef
350
365837
  3
AecDbDispRepMvBlockRefModel
350
365838
  3
AecDbDispRepMvBlockRefPlan100
350
365839
  3
AecDbDispRepMvBlockRefPlan50
350
36583A
  3
AecDbDispRepPolygonModel
350
36583B
  3
AecDbDispRepPolygonTrueColour
350
36583D
  3
AecDbDispRepSlice
350
36583F
  0
DICTIONARY
  5
365808
102
{ACAD_REACTORS
330
C
102
}
330
C
100
AcDbDictionary
281
     1
  3
*A1
350
365809
  3
*A10
350
365814
  3
*A11
350
365836
  3
*A12
350
36582A
  3
*A13
350
36583E
  3
*A14
350
365840
  3
*A15
350
365830
  3
*A16
350
365845
  3
*A17
350
365847
  3
*A18
350
365824
  3
*A19
350
365811
  3
*A2
350
36583C
  3
*A20
350
365816
  3
*A21
350
365818
  3
*A22
350
365843
  3
*A23
350
36581C
  3
*A24
350
36581E
  3
*A25
350
36580F
  3
*A26
350
365822
  3
*A27
350
365826
  3
*A3
350
365828
  3
*A4
350
36581A
  3
*A5
350
36582C
  3
*A6
350
36582E
  3
*A7
350
365820
  3
*A8
350
365832
  3
*A9
350
365834
  0
DICTIONARY
  5
365804
102
{ACAD_REACTORS
330
C
102
}
330
C
100
AcDbDictionary
281
     1
  3
AEC_VARS_DWG_SETUP
350
365805
  0
DICTIONARY
  5
34757B
102
{ACAD_REACTORS
330
C
102
}
330
C
100
AcDbDictionary
281
     1
  0
XRECORD
  5
37C5F1
102
{ACAD_REACTORS
330
C
102
}
330
C
100
AcDbXrecord
280
     1
  1
DWGPROPS COOKIE
  2

  3

  4

  6

  7

  8
SPAX
  9

300
=
301
=
302
=
303
=
304
=
305
=
306
=
307
=
308
=
309
=
 40
0.0
 41
2448636.244629618
 42
2458075.290921459
  1

 90
        0
  0
DICTIONARY
  5
67DE8
102
{ACAD_REACTORS
330
67DE7
102
}
330
67DE7
100
AcDbDictionary
281
     1
  0
XRECORD
  5
66C5C
102
{ACAD_REACTORS
330
66C5B
102
}
330
66C5B
100
AcDbXrecord
280
     1
290
     1
  0
XRECORD
  5
66C62
102
{ACAD_REACTORS
330
66C61
102
}
330
66C61
100
AcDbXrecord
280
     1
290
     1
  0
XRECORD
  5
66C68
102
{ACAD_REACTORS
330
66C67
102
}
330
66C67
100
AcDbXrecord
280
     1
290
     1
  0
SORTENTSTABLE
  5
845D6
102
{ACAD_REACTORS
330
845D5
102
}
330
845D5
100
AcDbSortentsTable
330
18
331
11B04
  5
11B04
331
12B3E
  5
12B3E
331
368D41
  5
368D41
331
368D43
  5
368D43
331
368D44
  5
368D44
331
368D45
  5
368D45
331
368D47
  5
368D47
331
368D48
  5
368D48
331
368D4C
  5
368D4C
331
368D4F
  5
368D4F
331
378E4F
  5
378E4F
331
3791A3
  5
3791A3
331
3791A4
  5
3791A4
331
3791A5
  5
3791A5
331
3791A6
  5
3791A6
331
3791A7
  5
3791A7
331
3791A8
  5
3791A8
331
3791A9
  5
3791A9
331
3791AA
  5
3791AA
331
3791AB
  5
3791AB
331
3791AC
  5
3791AC
331
3791AD
  5
3791AD
331
3791AE
  5
3791AE
331
3791AF
  5
3791AF
331
3791B0
  5
3791B0
331
3791B1
  5
3791B1
331
3791B2
  5
3791B2
331
3791B3
  5
3791B3
331
3791B4
  5
3791B4
331
3791B5
  5
3791B5
331
3791B6
  5
3791B6
331
3791B7
  5
3791B7
331
3791B8
  5
3791B8
331
3791B9
  5
3791B9
331
3791BA
  5
3791BA
331
3791BB
  5
3791BB
331
3791BC
  5
3791BC
331
3791BD
  5
3791BD
331
3791BE
  5
3791BE
331
3791BF
  5
3791BF
331
3791C0
  5
3791C0
331
3791C1
  5
3791C1
331
3791C2
  5
3791C2
331
3791C3
  5
3791C3
331
3791C4
  5
3791C4
331
3791C5
  5
3791C5
331
3791C6
  5
3791C6
331
3791C7
  5
3791C7
331
3791C8
  5
3791C8
331
3791C9
  5
3791C9
331
3791CA
  5
3791CA
331
3791CB
  5
3791CB
331
3791CC
  5
3791CC
331
3791CD
  5
3791CD
331
3791CE
  5
3791CE
331
3791CF
  5
3791CF
331
3791D0
  5
3791D0
331
3791D1
  5
3791D1
331
3791D2
  5
3791D2
331
3791D3
  5
3791D3
331
3791D4
  5
3791D4
331
3791D5
  5
3791D5
331
3791D6
  5
3791D6
331
3791D7
  5
3791D7
331
3791D8
  5
3791D8
331
3791D9
  5
3791D9
331
3791DA
  5
3791DA
331
3791DB
  5
3791DB
331
3791DC
  5
3791DC
331
3791DD
  5
3791DD
331
3791DE
  5
3791DE
331
3791DF
  5
3791DF
331
3791E0
  5
3791E0
331
3791E1
  5
3791E1
331
3791E2
  5
3791E2
331
3791E3
  5
3791E3
331
3791E4
  5
3791E4
331
3791E5
  5
3791E5
331
3791E6
  5
3791E6
331
3791E7
  5
3791E7
331
3791E8
  5
3791E8
331
3791E9
  5
3791E9
331
3791EA
  5
3791EA
331
3791EB
  5
3791EB
331
3791EC
  5
3791EC
331
3791ED
  5
3791ED
331
3791EE
  5
3791EE
331
3791EF
  5
3791EF
331
3791F0
  5
3791F0
331
3791F1
  5
3791F1
331
3791F2
  5
3791F2
331
3791F3
  5
3791F3
331
3791F4
  5
3791F4
331
3791F5
  5
3791F5
331
3791F6
  5
3791F6
331
3791F7
  5
3791F7
331
3791F8
  5
3791F8
331
3791F9
  5
3791F9
331
3791FA
  5
3791FA
331
3791FB
  5
3791FB
331
3791FC
  5
3791FC
331
3791FD
  5
3791FD
331
3791FE
  5
3791FE
331
3791FF
  5
3791FF
331
379200
  5
379200
331
379201
  5
379201
331
379202
  5
379202
331
379203
  5
379203
331
379204
  5
379204
331
379205
  5
379205
331
379206
  5
379206
331
379207
  5
379207
331
379208
  5
379208
331
379209
  5
379209
331
37920A
  5
37920A
331
37920B
  5
37920B
331
37920C
  5
37920C
331
37920D
  5
37920D
331
37920E
  5
37920E
331
37920F
  5
37920F
331
379210
  5
379210
331
379211
  5
379211
331
379212
  5
379212
331
379213
  5
379213
331
379214
  5
379214
331
379215
  5
379215
331
379216
  5
379216
331
379217
  5
379217
331
379218
  5
379218
331
379219
  5
379219
331
37921A
  5
37921A
331
37921B
  5
37921B
331
37921C
  5
37921C
331
37921D
  5
37921D
331
37921E
  5
37921E
331
37921F
  5
37921F
331
379220
  5
379220
331
379221
  5
379221
331
379222
  5
379222
331
379223
  5
379223
331
379224
  5
379224
331
379225
  5
379225
331
379226
  5
379226
331
379227
  5
379227
331
379228
  5
379228
331
379229
  5
379229
331
37922A
  5
37922A
331
37922B
  5
37922B
331
37922C
  5
37922C
331
37922D
  5
37922D
331
37922E
  5
37922E
331
37922F
  5
37922F
331
379230
  5
379230
331
379231
  5
379231
331
379232
  5
379232
331
379233
  5
379233
331
379234
  5
379234
331
379235
  5
379235
331
379236
  5
379236
331
379237
  5
379237
331
379238
  5
379238
331
379239
  5
379239
331
37923A
  5
37923A
331
37923B
  5
37923B
331
37923C
  5
37923C
331
37923D
  5
37923D
331
37923E
  5
37923E
331
37923F
  5
37923F
331
379240
  5
379240
331
379241
  5
379241
331
379242
  5
379242
331
379243
  5
379243
331
379244
  5
379244
331
379245
  5
379245
331
379246
  5
379246
331
379247
  5
379247
331
379248
  5
379248
331
379249
  5
379249
331
37924A
  5
37924A
331
37924B
  5
37924B
331
37924C
  5
37924C
331
37924D
  5
37924D
331
37924E
  5
37924E
331
37924F
  5
37924F
331
379250
  5
379250
331
379251
  5
379251
331
379252
  5
379252
331
379253
  5
379253
331
379254
  5
379254
331
379255
  5
379255
331
379256
  5
379256
331
379257
  5
379257
331
379258
  5
379258
331
379259
  5
379259
331
37925A
  5
37925A
331
37925B
  5
37925B
331
37925C
  5
37925C
331
37925D
  5
37925D
331
37925E
  5
37925E
331
37925F
  5
37925F
331
379260
  5
379260
331
379261
  5
379261
331
379262
  5
379262
331
379263
  5
379263
331
379264
  5
379264
331
379265
  5
379265
331
379266
  5
379266
331
379267
  5
379267
331
379268
  5
379268
331
379269
  5
379269
331
37926A
  5
37926A
331
37926B
  5
37926B
331
37926C
  5
37926C
331
37926D
  5
37926D
331
37926E
  5
37926E
331
37926F
  5
37926F
331
379270
  5
379270
331
379271
  5
379271
331
379272
  5
379272
331
379273
  5
379273
331
379274
  5
379274
331
379275
  5
379275
331
379276
  5
379276
331
379277
  5
379277
331
379278
  5
379278
331
379279
  5
379279
331
37927A
  5
37927A
331
37927B
  5
37927B
331
37927C
  5
37927C
331
37927D
  5
37927D
331
37927E
  5
37927E
331
37927F
  5
37927F
331
379280
  5
379280
331
379281
  5
379281
331
379282
  5
379282
331
379283
  5
379283
331
379284
  5
379284
331
379285
  5
379285
331
379286
  5
379286
331
379287
  5
379287
331
379288
  5
379288
331
379289
  5
379289
331
37928A
  5
37928A
331
37928B
  5
37928B
331
37928C
  5
37928C
331
37928D
  5
37928D
331
37928E
  5
37928E
331
37928F
  5
37928F
331
379290
  5
379290
331
379291
  5
379291
331
379292
  5
379292
331
379293
  5
379293
331
379294
  5
379294
331
379295
  5
379295
331
379296
  5
379296
331
379297
  5
379297
331
379298
  5
379298
331
379299
  5
379299
331
37929A
  5
37929A
331
37929B
  5
37929B
331
37929C
  5
37929C
331
37929D
  5
37929D
331
37929E
  5
37929E
331
37929F
  5
37929F
331
3792A0
  5
3792A0
331
3792A1
  5
3792A1
331
3792A2
  5
3792A2
331
3792A3
  5
3792A3
331
3792A4
  5
3792A4
331
3792A5
  5
3792A5
331
3792A6
  5
3792A6
331
3792A7
  5
3792A7
331
3792A8
  5
3792A8
331
3792A9
  5
3792A9
331
3792AA
  5
3792AA
331
3792AB
  5
3792AB
331
3792AC
  5
3792AC
331
3792AD
  5
3792AD
331
3792AE
  5
3792AE
331
3792AF
  5
3792AF
331
3792B0
  5
3792B0
331
3792B1
  5
3792B1
331
3792B2
  5
3792B2
331
3792B3
  5
3792B3
331
3792B4
  5
3792B4
331
3792B5
  5
3792B5
331
3792B6
  5
3792B6
331
3792B7
  5
3792B7
331
3792B8
  5
3792B8
331
3792B9
  5
3792B9
331
3792BA
  5
3792BA
331
3792BB
  5
3792BB
331
3792BC
  5
3792BC
331
3792BD
  5
3792BD
331
3792BE
  5
3792BE
331
3792BF
  5
3792BF
331
3792C0
  5
3792C0
331
3792C1
  5
3792C1
331
3792C2
  5
3792C2
331
3792C3
  5
3792C3
331
3792C4
  5
3792C4
331
3792C5
  5
3792C5
331
3792C6
  5
3792C6
331
3792C7
  5
3792C7
331
3792C8
  5
3792C8
331
3792C9
  5
3792C9
331
3792CA
  5
3792CA
331
3792CB
  5
3792CB
331
3792CC
  5
3792CC
331
3792CD
  5
3792CD
331
3792CE
  5
3792CE
331
3792CF
  5
3792CF
331
3792D0
  5
3792D0
331
3792D1
  5
3792D1
331
3792D2
  5
3792D2
331
3792D3
  5
3792D3
331
3792D4
  5
3792D4
331
3792D5
  5
3792D5
331
3792D6
  5
3792D6
331
3792D7
  5
3792D7
331
3792D8
  5
3792D8
331
3792D9
  5
3792D9
331
3792DA
  5
3792DA
331
3792DB
  5
3792DB
331
3792DC
  5
3792DC
331
3792DD
  5
3792DD
331
3792DE
  5
3792DE
331
3792DF
  5
3792DF
331
3792E0
  5
3792E0
331
3792E1
  5
3792E1
331
3792E2
  5
3792E2
331
3792E3
  5
3792E3
331
3792E4
  5
3792E4
331
3792E5
  5
3792E5
331
3792E6
  5
3792E6
331
3792E7
  5
3792E7
331
3792E8
  5
3792E8
331
3792E9
  5
3792E9
331
3792EA
  5
3792EA
331
3792EB
  5
3792EB
331
3792EC
  5
3792EC
331
3792ED
  5
3792ED
331
3792EE
  5
3792EE
331
3792EF
  5
3792EF
331
3792F0
  5
3792F0
331
3792F1
  5
3792F1
331
3792F2
  5
3792F2
331
3792F3
  5
3792F3
331
3792F4
  5
3792F4
331
3792F5
  5
3792F5
331
3792F6
  5
3792F6
331
3792F7
  5
3792F7
331
3792F8
  5
3792F8
331
3792F9
  5
3792F9
  0
XRECORD
  5
1B39D8
102
{ACAD_REACTORS
330
1B39D7
102
}
330
1B39D7
100
AcDbXrecord
280
     1
 90
        1
340
66C32
  0
XRECORD
  5
1B39DC
102
{ACAD_REACTORS
330
1B39DB
102
}
330
1B39DB
100
AcDbXrecord
280
     1
 90
        1
340
66C32
  0
LAYOUT
  5
619
102
{ACAD_REACTORS
330
617
102
}
330
617
100
AcDbPlotSettings
  1

  2
JUST PDF 3
  4
A4
  6

 40
3.174999952316284
 41
3.174999952316284
 42
3.175003051757812
 43
3.17498779296875
 44
209.8886566162109
 45
297.0530090332031
 46
14.27171755861559
 47
9.855173074625782
 48
3739.622797515977
 49
-17229.55178669334
140
4264.608453000693
141
-16416.57376127734
142
1.0
143
3.0
 70
  3748
 72
     1
 73
     0
 74
     4
  7
spax form.ctb
 75
     0
147
0.8211385087795333
148
-3739.622797515977
149
17229.55178669334
100
AcDbLayout
  1
Model
 70
     1
 71
     0
 10
0.0
 20
0.0
 11
12.0
 21
9.0
 12
0.0
 22
0.0
 32
0.0
 14
3755.880316270192
 24
-16604.39094232373
 34
0.0
 15
3855.840316270192
 25
-16495.32086189193
 35
0.0
146
0.0
 13
0.0
 23
0.0
 33
0.0
 16
1.0
 26
0.0
 36
0.0
 17
0.0
 27
1.0
 37
0.0
 76
     0
330
18
331
35C3FF
1001
ACAD_PSEXT
1000
JUST PDF 3
1000
JUST PDF 3
1000
JUST PDF 3 Port:
1000

1070
     0
  0
LAYOUT
  5
61A
102
{ACAD_REACTORS
330
617
102
}
102
{ACAD_XDICTIONARY
360
37C5F2
102
}
330
617
100
AcDbPlotSettings
  1

  2
none_device
  4
Letter_(8.50_x_11.00_Inches)
  6

 40
6.349999904632568
 41
6.349999904632568
 42
6.350006103515625
 43
6.350006103515625
 44
215.8999938964844
 45
279.3999938964844
 46
0.0
 47
0.0
 48
0.0
 49
0.0
140
0.0
141
0.0
142
1.0
143
1.0
 70
   688
 72
     0
 73
     1
 74
     5
  7
spax form.ctb
 75
    16
147
1.0
148
0.0
149
0.0
100
AcDbLayout
  1
ﾚｲｱｳﾄ1
 70
     0
 71
     1
 10
-0.2500002402958907
 20
-0.2499999962453767
 11
10.74999951940822
 21
8.249999763458733
 12
0.0
 22
0.0
 32
0.0
 14
1.049999952316284
 24
0.7999999523162842
 34
0.0
 15
9.44999957084656
 25
7.199999570846558
 35
0.0
146
0.0
 13
0.0
 23
0.0
 33
0.0
 16
1.0
 26
0.0
 36
0.0
 17
0.0
 27
1.0
 37
0.0
 76
     0
330
15
331
1B39D6
1001
ACAD_PSEXT
1000
なし
1000
なし
1000
適切ではありません
1000
新しいプロッタ環境設定名を選択しない限り、レイアウトは印刷されません。
1070
     0
  0
MLINESTYLE
  5
1B
102
{ACAD_REACTORS
330
E
102
}
330
E
100
AcDbMlineStyle
  2
STANDARD
 70
     0
  3

 62
     0
 51
90.0
 52
90.0
 71
     2
 49
0.5
 62
   256
  6
BYLAYER
 49
-0.5
 62
   256
  6
BYLAYER
  0
ACDBPLACEHOLDER
  5
616
102
{ACAD_REACTORS
330
615
102
}
330
615
  0
SCALE
  5
66C32
102
{ACAD_REACTORS
330
66C31
102
}
330
66C31
100
AcDbScale
 70
     0
300
1:1
140
1.0
141
1.0
290
     1
1001
ACAD
1000
AcRTDxfName
1000
SCALE
  0
SCALE
  5
66C33
102
{ACAD_REACTORS
330
66C31
102
}
330
66C31
100
AcDbScale
 70
     0
300
1:2
140
1.0
141
2.0
290
     0
1001
ACAD
1000
AcRTDxfName
1000
SCALE
  0
SCALE
  5
66C34
102
{ACAD_REACTORS
330
66C31
102
}
330
66C31
100
AcDbScale
 70
     0
300
1:4
140
1.0
141
4.0
290
     0
1001
ACAD
1000
AcRTDxfName
1000
SCALE
  0
SCALE
  5
66C35
102
{ACAD_REACTORS
330
66C31
102
}
330
66C31
100
AcDbScale
 70
     0
300
1:5
140
1.0
141
5.0
290
     0
1001
ACAD
1000
AcRTDxfName
1000
SCALE
  0
SCALE
  5
66C36
102
{ACAD_REACTORS
330
66C31
102
}
330
66C31
100
AcDbScale
 70
     0
300
1:8
140
1.0
141
8.0
290
     0
1001
ACAD
1000
AcRTDxfName
1000
SCALE
  0
SCALE
  5
66C37
102
{ACAD_REACTORS
330
66C31
102
}
330
66C31
100
AcDbScale
 70
     0
300
1:10
140
1.0
141
10.0
290
     0
1001
ACAD
1000
AcRTDxfName
1000
SCALE
  0
SCALE
  5
66C38
102
{ACAD_REACTORS
330
66C31
102
}
330
66C31
100
AcDbScale
 70
     0
300
1:16
140
1.0
141
16.0
290
     0
1001
ACAD
1000
AcRTDxfName
1000
SCALE
  0
SCALE
  5
66C39
102
{ACAD_REACTORS
330
66C31
102
}
330
66C31
100
AcDbScale
 70
     0
300
1:20
140
1.0
141
20.0
290
     0
1001
ACAD
1000
AcRTDxfName
1000
SCALE
  0
SCALE
  5
66C3A
102
{ACAD_REACTORS
330
66C31
102
}
330
66C31
100
AcDbScale
 70
     0
300
1:30
140
1.0
141
30.0
290
     0
1001
ACAD
1000
AcRTDxfName
1000
SCALE
  0
SCALE
  5
66C3B
102
{ACAD_REACTORS
330
66C31
102
}
330
66C31
100
AcDbScale
 70
     0
300
1:40
140
1.0
141
40.0
290
     0
1001
ACAD
1000
AcRTDxfName
1000
SCALE
  0
SCALE
  5
66C3C
102
{ACAD_REACTORS
330
66C31
102
}
330
66C31
100
AcDbScale
 70
     0
300
1:50
140
1.0
141
50.0
290
     0
1001
ACAD
1000
AcRTDxfName
1000
SCALE
  0
SCALE
  5
66C3D
102
{ACAD_REACTORS
330
66C31
102
}
330
66C31
100
AcDbScale
 70
     0
300
1:100
140
1.0
141
100.0
290
     0
1001
ACAD
1000
AcRTDxfName
1000
SCALE
  0
SCALE
  5
66C3E
102
{ACAD_REACTORS
330
66C31
102
}
330
66C31
100
AcDbScale
 70
     0
300
2:1
140
2.0
141
1.0
290
     0
1001
ACAD
1000
AcRTDxfName
1000
SCALE
  0
SCALE
  5
66C3F
102
{ACAD_REACTORS
330
66C31
102
}
330
66C31
100
AcDbScale
 70
     0
300
4:1
140
4.0
141
1.0
290
     0
1001
ACAD
1000
AcRTDxfName
1000
SCALE
  0
SCALE
  5
66C40
102
{ACAD_REACTORS
330
66C31
102
}
330
66C31
100
AcDbScale
 70
     0
300
8:1
140
8.0
141
1.0
290
     0
1001
ACAD
1000
AcRTDxfName
1000
SCALE
  0
SCALE
  5
66C41
102
{ACAD_REACTORS
330
66C31
102
}
330
66C31
100
AcDbScale
 70
     0
300
10:1
140
10.0
141
1.0
290
     0
1001
ACAD
1000
AcRTDxfName
1000
SCALE
  0
SCALE
  5
66C42
102
{ACAD_REACTORS
330
66C31
102
}
330
66C31
100
AcDbScale
 70
     0
300
100:1
140
100.0
141
1.0
290
     0
1001
ACAD
1000
AcRTDxfName
1000
SCALE
  0
SCALE
  5
66C43
102
{ACAD_REACTORS
330
66C31
102
}
330
66C31
100
AcDbScale
 70
     0
300
1/128" = 1'-0"
140
0.0078125
141
12.0
290
     0
1001
ACAD
1000
AcRTDxfName
1000
SCALE
  0
SCALE
  5
66C44
102
{ACAD_REACTORS
330
66C31
102
}
330
66C31
100
AcDbScale
 70
     0
300
1/64" = 1'-0"
140
0.015625
141
12.0
290
     0
1001
ACAD
1000
AcRTDxfName
1000
SCALE
  0
SCALE
  5
66C45
102
{ACAD_REACTORS
330
66C31
102
}
330
66C31
100
AcDbScale
 70
     0
300
1/32" = 1'-0"
140
0.03125
141
12.0
290
     0
1001
ACAD
1000
AcRTDxfName
1000
SCALE
  0
SCALE
  5
66C46
102
{ACAD_REACTORS
330
66C31
102
}
330
66C31
100
AcDbScale
 70
     0
300
1/16" = 1'-0"
140
0.0625
141
12.0
290
     0
1001
ACAD
1000
AcRTDxfName
1000
SCALE
  0
SCALE
  5
66C47
102
{ACAD_REACTORS
330
66C31
102
}
330
66C31
100
AcDbScale
 70
     0
300
3/32" = 1'-0"
140
0.09375
141
12.0
290
     0
1001
ACAD
1000
AcRTDxfName
1000
SCALE
  0
SCALE
  5
66C48
102
{ACAD_REACTORS
330
66C31
102
}
330
66C31
100
AcDbScale
 70
     0
300
1/8" = 1'-0"
140
0.125
141
12.0
290
     0
1001
ACAD
1000
AcRTDxfName
1000
SCALE
  0
SCALE
  5
66C49
102
{ACAD_REACTORS
330
66C31
102
}
330
66C31
100
AcDbScale
 70
     0
300
3/16" = 1'-0"
140
0.1875
141
12.0
290
     0
1001
ACAD
1000
AcRTDxfName
1000
SCALE
  0
SCALE
  5
66C4A
102
{ACAD_REACTORS
330
66C31
102
}
330
66C31
100
AcDbScale
 70
     0
300
1/4" = 1'-0"
140
0.25
141
12.0
290
     0
1001
ACAD
1000
AcRTDxfName
1000
SCALE
  0
SCALE
  5
66C4B
102
{ACAD_REACTORS
330
66C31
102
}
330
66C31
100
AcDbScale
 70
     0
300
3/8" = 1'-0"
140
0.375
141
12.0
290
     0
1001
ACAD
1000
AcRTDxfName
1000
SCALE
  0
SCALE
  5
66C4C
102
{ACAD_REACTORS
330
66C31
102
}
330
66C31
100
AcDbScale
 70
     0
300
1/2" = 1'-0"
140
0.5
141
12.0
290
     0
1001
ACAD
1000
AcRTDxfName
1000
SCALE
  0
SCALE
  5
66C4D
102
{ACAD_REACTORS
330
66C31
102
}
330
66C31
100
AcDbScale
 70
     0
300
3/4" = 1'-0"
140
0.75
141
12.0
290
     0
1001
ACAD
1000
AcRTDxfName
1000
SCALE
  0
SCALE
  5
66C4E
102
{ACAD_REACTORS
330
66C31
102
}
330
66C31
100
AcDbScale
 70
     0
300
1" = 1'-0"
140
1.0
141
12.0
290
     0
1001
ACAD
1000
AcRTDxfName
1000
SCALE
  0
SCALE
  5
66C4F
102
{ACAD_REACTORS
330
66C31
102
}
330
66C31
100
AcDbScale
 70
     0
300
1-1/2" = 1'-0"
140
1.5
141
12.0
290
     0
1001
ACAD
1000
AcRTDxfName
1000
SCALE
  0
SCALE
  5
66C50
102
{ACAD_REACTORS
330
66C31
102
}
330
66C31
100
AcDbScale
 70
     0
300
3" = 1'-0"
140
3.0
141
12.0
290
     0
1001
ACAD
1000
AcRTDxfName
1000
SCALE
  0
SCALE
  5
66C51
102
{ACAD_REACTORS
330
66C31
102
}
330
66C31
100
AcDbScale
 70
     0
300
6" = 1'-0"
140
6.0
141
12.0
290
     0
1001
ACAD
1000
AcRTDxfName
1000
SCALE
  0
SCALE
  5
66C52
102
{ACAD_REACTORS
330
66C31
102
}
330
66C31
100
AcDbScale
 70
     0
300
1'-0" = 1'-0"
140
12.0
141
12.0
290
     0
1001
ACAD
1000
AcRTDxfName
1000
SCALE
  0
DICTIONARYVAR
  5
35C3F9
102
{ACAD_REACTORS
330
6DE
102
}
330
6DE
100
DictionaryVariables
280
     0
  1
2
  0
DICTIONARYVAR
  5
6DF
102
{ACAD_REACTORS
330
6DE
102
}
330
6DE
100
DictionaryVariables
280
     0
  1
1
  0
DICTIONARYVAR
  5
35C3F8
102
{ACAD_REACTORS
330
6DE
102
}
330
6DE
100
DictionaryVariables
280
     0
  1
1
  0
DICTIONARYVAR
  5
66CB9
102
{ACAD_REACTORS
330
6DE
102
}
330
6DE
100
DictionaryVariables
280
     0
  1
0
  0
DICTIONARYVAR
  5
6E0
102
{ACAD_REACTORS
330
6DE
102
}
330
6DE
100
DictionaryVariables
280
     0
  1

  0
DICTIONARYVAR
  5
66CB8
102
{ACAD_REACTORS
330
6DE
102
}
330
6DE
100
DictionaryVariables
280
     0
  1
127
  0
DICTIONARY
  5
37C5F5
102
{ACAD_REACTORS
330
37C5F4
102
}
330
37C5F4
100
AcDbDictionary
281
     1
  0
DICTIONARY
  5
37C5F6
102
{ACAD_REACTORS
330
37C5F4
102
}
330
37C5F4
100
AcDbDictionary
281
     1
  3
8796077197496
350
37C5F7
  3
8796077197512
350
37C5F8
  3
8796077197528
350
37C5F9
  3
8796077197544
350
37C5FA
  3
8796077197560
350
37C5FB
  3
8796077197576
350
37C5FC
  0
ACAD_PROXY_OBJECT
  5
365807
102
{ACAD_REACTORS
330
365806
102
}
330
365806
100
AcDbProxyObject
 90
      499
 91
      519
 95
   524319
 70
     0
 93
      107
310
51B4D1465180051946946A818027
340
365809
 94
        0
1001
ACAD
1000
AcRTDxfName
1000
AEC_DISP_REP_2D_SECTION
1000
AcRTDxfName
1000
AEC_DISP_REP_2D_SECTION
1000
AcRTDxfName
1000
AEC_DISP_REP_2D_SECTION
1000
AcRTDxfName
1000
AEC_DISP_REP_2D_SECTION
1000
AcRTDxfName
1000
AEC_DISP_REP_2D_SECTION
1000
AcRTDxfName
1000
AEC_DISP_REP_2D_SECTION
1000
AcRTDxfName
1000
AEC_DISP_REP_2D_SECTION
1000
AcRTDxfName
1000
AEC_DISP_REP_2D_SECTION
1000
AcRTDxfName
1000
AEC_DISP_REP_2D_SECTION
1000
AcRTDxfName
1000
AEC_DISP_REP_2D_SECTION
1000
AcRTDxfName
1000
AEC_DISP_REP_2D_SECTION
1000
AcRTDxfName
1000
AEC_DISP_REP_2D_SECTION
1000
AcRTDxfName
1000
AEC_DISP_REP_2D_SECTION
1000
AcRTDxfName
1000
AEC_DISP_REP_2D_SECTION
1000
AcRTDxfName
1000
AEC_DISP_REP_2D_SECTION
  0
ACAD_PROXY_OBJECT
  5
365841
102
{ACAD_REACTORS
330
365806
102
}
330
365806
100
AcDbProxyObject
 90
      499
 91
      564
 95
   524319
 70
     0
 93
      107
310
51B4D1465180051946946A818027
340
0
 94
        0
1001
ACAD
1000
AcRTDxfName
1000
AEC_DISP_REP_ANCHOR
1000
AcRTDxfName
1000
AEC_DISP_REP_ANCHOR
1000
AcRTDxfName
1000
AEC_DISP_REP_ANCHOR
1000
AcRTDxfName
1000
AEC_DISP_REP_ANCHOR
1000
AcRTDxfName
1000
AEC_DISP_REP_ANCHOR
1000
AcRTDxfName
1000
AEC_DISP_REP_ANCHOR
1000
AcRTDxfName
1000
AEC_DISP_REP_ANCHOR
1000
AcRTDxfName
1000
AEC_DISP_REP_ANCHOR
1000
AcRTDxfName
1000
AEC_DISP_REP_ANCHOR
1000
AcRTDxfName
1000
AEC_DISP_REP_ANCHOR
1000
AcRTDxfName
1000
AEC_DISP_REP_ANCHOR
1000
AcRTDxfName
1000
AEC_DISP_REP_ANCHOR
1000
AcRTDxfName
1000
AEC_DISP_REP_ANCHOR
1000
AcRTDxfName
1000
AEC_DISP_REP_ANCHOR
1000
AcRTDxfName
1000
AEC_DISP_REP_ANCHOR
  0
ACAD_PROXY_OBJECT
  5
365842
102
{ACAD_REACTORS
330
365806
102
}
330
365806
100
AcDbProxyObject
 90
      499
 91
      565
 95
   524319
 70
     0
 93
      107
310
51B4D1465180051946946A818027
340
365843
 94
        0
1001
ACAD
1000
AcRTDxfName
1000
AEC_DISP_REP_ANCHOR_ENT_TO_NODE
1000
AcRTDxfName
1000
AEC_DISP_REP_ANCHOR_ENT_TO_NODE
1000
AcRTDxfName
1000
AEC_DISP_REP_ANCHOR_ENT_TO_NODE
1000
AcRTDxfName
1000
AEC_DISP_REP_ANCHOR_ENT_TO_NODE
1000
AcRTDxfName
1000
AEC_DISP_REP_ANCHOR_ENT_TO_NODE
1000
AcRTDxfName
1000
AEC_DISP_REP_ANCHOR_ENT_TO_NODE
1000
AcRTDxfName
1000
AEC_DISP_REP_ANCHOR_ENT_TO_NODE
1000
AcRTDxfName
1000
AEC_DISP_REP_ANCHOR_ENT_TO_NODE
1000
AcRTDxfName
1000
AEC_DISP_REP_ANCHOR_ENT_TO_NODE
1000
AcRTDxfName
1000
AEC_DISP_REP_ANCHOR_ENT_TO_NODE
1000
AcRTDxfName
1000
AEC_DISP_REP_ANCHOR_ENT_TO_NODE
1000
AcRTDxfName
1000
AEC_DISP_REP_ANCHOR_ENT_TO_NODE
1000
AcRTDxfName
1000
AEC_DISP_REP_ANCHOR_ENT_TO_NODE
1000
AcRTDxfName
1000
AEC_DISP_REP_ANCHOR_ENT_TO_NODE
1000
AcRTDxfName
1000
AEC_DISP_REP_ANCHOR_ENT_TO_NODE
  0
ACAD_PROXY_OBJECT
  5
36580E
102
{ACAD_REACTORS
330
365806
102
}
330
365806
100
AcDbProxyObject
 90
      499
 91
      521
 95
   524319
 70
     0
 93
      117
310
51B4D146518005194694651AA06008
340
36580F
 94
        0
1001
ACAD
1000
AcRTDxfName
1000
AEC_DISP_REP_CLIP_VOLUME_MODEL
1000
AcRTDxfName
1000
AEC_DISP_REP_CLIP_VOLUME_MODEL
1000
AcRTDxfName
1000
AEC_DISP_REP_CLIP_VOLUME_MODEL
1000
AcRTDxfName
1000
AEC_DISP_REP_CLIP_VOLUME_MODEL
1000
AcRTDxfName
1000
AEC_DISP_REP_CLIP_VOLUME_MODEL
1000
AcRTDxfName
1000
AEC_DISP_REP_CLIP_VOLUME_MODEL
1000
AcRTDxfName
1000
AEC_DISP_REP_CLIP_VOLUME_MODEL
1000
AcRTDxfName
1000
AEC_DISP_REP_CLIP_VOLUME_MODEL
1000
AcRTDxfName
1000
AEC_DISP_REP_CLIP_VOLUME_MODEL
1000
AcRTDxfName
1000
AEC_DISP_REP_CLIP_VOLUME_MODEL
1000
AcRTDxfName
1000
AEC_DISP_REP_CLIP_VOLUME_MODEL
1000
AcRTDxfName
1000
AEC_DISP_REP_CLIP_VOLUME_MODEL
1000
AcRTDxfName
1000
AEC_DISP_REP_CLIP_VOLUME_MODEL
1000
AcRTDxfName
1000
AEC_DISP_REP_CLIP_VOLUME_MODEL
1000
AcRTDxfName
1000
AEC_DISP_REP_CLIP_VOLUME_MODEL
  0
ACAD_PROXY_OBJECT
  5
365810
102
{ACAD_REACTORS
330
365806
102
}
330
365806
100
AcDbProxyObject
 90
      499
 91
      523
 95
   524319
 70
     0
 93
      117
310
51B4D146518005194694651AA06008
340
365811
 94
        0
1001
ACAD
1000
AcRTDxfName
1000
AEC_DISP_REP_CLIP_VOLUME_PLAN
1000
AcRTDxfName
1000
AEC_DISP_REP_CLIP_VOLUME_PLAN
1000
AcRTDxfName
1000
AEC_DISP_REP_CLIP_VOLUME_PLAN
1000
AcRTDxfName
1000
AEC_DISP_REP_CLIP_VOLUME_PLAN
1000
AcRTDxfName
1000
AEC_DISP_REP_CLIP_VOLUME_PLAN
1000
AcRTDxfName
1000
AEC_DISP_REP_CLIP_VOLUME_PLAN
1000
AcRTDxfName
1000
AEC_DISP_REP_CLIP_VOLUME_PLAN
1000
AcRTDxfName
1000
AEC_DISP_REP_CLIP_VOLUME_PLAN
1000
AcRTDxfName
1000
AEC_DISP_REP_CLIP_VOLUME_PLAN
1000
AcRTDxfName
1000
AEC_DISP_REP_CLIP_VOLUME_PLAN
1000
AcRTDxfName
1000
AEC_DISP_REP_CLIP_VOLUME_PLAN
1000
AcRTDxfName
1000
AEC_DISP_REP_CLIP_VOLUME_PLAN
1000
AcRTDxfName
1000
AEC_DISP_REP_CLIP_VOLUME_PLAN
1000
AcRTDxfName
1000
AEC_DISP_REP_CLIP_VOLUME_PLAN
1000
AcRTDxfName
1000
AEC_DISP_REP_CLIP_VOLUME_PLAN
  0
ACAD_PROXY_OBJECT
  5
365813
102
{ACAD_REACTORS
330
365806
102
}
330
365806
100
AcDbProxyObject
 90
      499
 91
      525
 95
   524319
 70
     0
 93
      117
310
51B4D146518005194694651AA06008
340
365814
 94
        0
1001
ACAD
1000
AcRTDxfName
1000
AEC_DISP_REP_CLIP_VOLUME_RESULT_SUBDIV
1000
AcRTDxfName
1000
AEC_DISP_REP_CLIP_VOLUME_RESULT_SUBDIV
1000
AcRTDxfName
1000
AEC_DISP_REP_CLIP_VOLUME_RESULT_SUBDIV
1000
AcRTDxfName
1000
AEC_DISP_REP_CLIP_VOLUME_RESULT_SUBDIV
1000
AcRTDxfName
1000
AEC_DISP_REP_CLIP_VOLUME_RESULT_SUBDIV
1000
AcRTDxfName
1000
AEC_DISP_REP_CLIP_VOLUME_RESULT_SUBDIV
1000
AcRTDxfName
1000
AEC_DISP_REP_CLIP_VOLUME_RESULT_SUBDIV
1000
AcRTDxfName
1000
AEC_DISP_REP_CLIP_VOLUME_RESULT_SUBDIV
1000
AcRTDxfName
1000
AEC_DISP_REP_CLIP_VOLUME_RESULT_SUBDIV
1000
AcRTDxfName
1000
AEC_DISP_REP_CLIP_VOLUME_RESULT_SUBDIV
1000
AcRTDxfName
1000
AEC_DISP_REP_CLIP_VOLUME_RESULT_SUBDIV
1000
AcRTDxfName
1000
AEC_DISP_REP_CLIP_VOLUME_RESULT_SUBDIV
1000
AcRTDxfName
1000
AEC_DISP_REP_CLIP_VOLUME_RESULT_SUBDIV
1000
AcRTDxfName
1000
AEC_DISP_REP_CLIP_VOLUME_RESULT_SUBDIV
1000
AcRTDxfName
1000
AEC_DISP_REP_CLIP_VOLUME_RESULT_SUBDIV
  0
ACAD_PROXY_OBJECT
  5
365812
102
{ACAD_REACTORS
330
365806
102
}
330
365806
100
AcDbProxyObject
 90
      499
 91
      524
 95
   524319
 70
     0
 93
      107
310
51B4D1465180051946946A818027
340
0
 94
        0
1001
ACAD
1000
AcRTDxfName
1000
AEC_DISP_REP_CLIP_VOLUME_RESULT
1000
AcRTDxfName
1000
AEC_DISP_REP_CLIP_VOLUME_RESULT
1000
AcRTDxfName
1000
AEC_DISP_REP_CLIP_VOLUME_RESULT
1000
AcRTDxfName
1000
AEC_DISP_REP_CLIP_VOLUME_RESULT
1000
AcRTDxfName
1000
AEC_DISP_REP_CLIP_VOLUME_RESULT
1000
AcRTDxfName
1000
AEC_DISP_REP_CLIP_VOLUME_RESULT
1000
AcRTDxfName
1000
AEC_DISP_REP_CLIP_VOLUME_RESULT
1000
AcRTDxfName
1000
AEC_DISP_REP_CLIP_VOLUME_RESULT
1000
AcRTDxfName
1000
AEC_DISP_REP_CLIP_VOLUME_RESULT
1000
AcRTDxfName
1000
AEC_DISP_REP_CLIP_VOLUME_RESULT
1000
AcRTDxfName
1000
AEC_DISP_REP_CLIP_VOLUME_RESULT
1000
AcRTDxfName
1000
AEC_DISP_REP_CLIP_VOLUME_RESULT
1000
AcRTDxfName
1000
AEC_DISP_REP_CLIP_VOLUME_RESULT
1000
AcRTDxfName
1000
AEC_DISP_REP_CLIP_VOLUME_RESULT
1000
AcRTDxfName
1000
AEC_DISP_REP_CLIP_VOLUME_RESULT
  0
ACAD_PROXY_OBJECT
  5
365815
102
{ACAD_REACTORS
330
365806
102
}
330
365806
100
AcDbProxyObject
 90
      499
 91
      527
 95
   524319
 70
     0
 93
      107
310
51B4D1465180051946946A818027
340
365816
 94
        0
1001
ACAD
1000
AcRTDxfName
1000
AEC_DISP_REP_DISPLAYTHEME
1000
AcRTDxfName
1000
AEC_DISP_REP_DISPLAYTHEME
1000
AcRTDxfName
1000
AEC_DISP_REP_DISPLAYTHEME
1000
AcRTDxfName
1000
AEC_DISP_REP_DISPLAYTHEME
1000
AcRTDxfName
1000
AEC_DISP_REP_DISPLAYTHEME
1000
AcRTDxfName
1000
AEC_DISP_REP_DISPLAYTHEME
1000
AcRTDxfName
1000
AEC_DISP_REP_DISPLAYTHEME
1000
AcRTDxfName
1000
AEC_DISP_REP_DISPLAYTHEME
1000
AcRTDxfName
1000
AEC_DISP_REP_DISPLAYTHEME
1000
AcRTDxfName
1000
AEC_DISP_REP_DISPLAYTHEME
1000
AcRTDxfName
1000
AEC_DISP_REP_DISPLAYTHEME
1000
AcRTDxfName
1000
AEC_DISP_REP_DISPLAYTHEME
1000
AcRTDxfName
1000
AEC_DISP_REP_DISPLAYTHEME
1000
AcRTDxfName
1000
AEC_DISP_REP_DISPLAYTHEME
1000
AcRTDxfName
1000
AEC_DISP_REP_DISPLAYTHEME
  0
ACAD_PROXY_OBJECT
  5
365846
102
{ACAD_REACTORS
330
365806
102
}
330
365806
100
AcDbProxyObject
 90
      499
 91
      569
 95
   524319
 70
     0
 93
      107
310
51B4D1465180051946946A818027
340
365847
 94
        0
1001
ACAD
1000
AcRTDxfName
1000
AEC_DISP_REP_EDITINPLACEPROFILE
1000
AcRTDxfName
1000
AEC_DISP_REP_EDITINPLACEPROFILE
1000
AcRTDxfName
1000
AEC_DISP_REP_EDITINPLACEPROFILE
1000
AcRTDxfName
1000
AEC_DISP_REP_EDITINPLACEPROFILE
1000
AcRTDxfName
1000
AEC_DISP_REP_EDITINPLACEPROFILE
1000
AcRTDxfName
1000
AEC_DISP_REP_EDITINPLACEPROFILE
1000
AcRTDxfName
1000
AEC_DISP_REP_EDITINPLACEPROFILE
1000
AcRTDxfName
1000
AEC_DISP_REP_EDITINPLACEPROFILE
1000
AcRTDxfName
1000
AEC_DISP_REP_EDITINPLACEPROFILE
1000
AcRTDxfName
1000
AEC_DISP_REP_EDITINPLACEPROFILE
1000
AcRTDxfName
1000
AEC_DISP_REP_EDITINPLACEPROFILE
1000
AcRTDxfName
1000
AEC_DISP_REP_EDITINPLACEPROFILE
1000
AcRTDxfName
1000
AEC_DISP_REP_EDITINPLACEPROFILE
1000
AcRTDxfName
1000
AEC_DISP_REP_EDITINPLACEPROFILE
1000
AcRTDxfName
1000
AEC_DISP_REP_EDITINPLACEPROFILE
  0
ACAD_PROXY_OBJECT
  5
365817
102
{ACAD_REACTORS
330
365806
102
}
330
365806
100
AcDbProxyObject
 90
      499
 91
      529
 95
   524319
 70
     0
 93
      107
310
51B4D1465180051946946A818027
340
365818
 94
        0
1001
ACAD
1000
AcRTDxfName
1000
AEC_DISP_REP_ENT_REF
1000
AcRTDxfName
1000
AEC_DISP_REP_ENT_REF
1000
AcRTDxfName
1000
AEC_DISP_REP_ENT_REF
1000
AcRTDxfName
1000
AEC_DISP_REP_ENT_REF
1000
AcRTDxfName
1000
AEC_DISP_REP_ENT_REF
1000
AcRTDxfName
1000
AEC_DISP_REP_ENT_REF
1000
AcRTDxfName
1000
AEC_DISP_REP_ENT_REF
1000
AcRTDxfName
1000
AEC_DISP_REP_ENT_REF
1000
AcRTDxfName
1000
AEC_DISP_REP_ENT_REF
1000
AcRTDxfName
1000
AEC_DISP_REP_ENT_REF
1000
AcRTDxfName
1000
AEC_DISP_REP_ENT_REF
1000
AcRTDxfName
1000
AEC_DISP_REP_ENT_REF
1000
AcRTDxfName
1000
AEC_DISP_REP_ENT_REF
1000
AcRTDxfName
1000
AEC_DISP_REP_ENT_REF
1000
AcRTDxfName
1000
AEC_DISP_REP_ENT_REF
  0
ACAD_PROXY_OBJECT
  5
365819
102
{ACAD_REACTORS
330
365806
102
}
330
365806
100
AcDbProxyObject
 90
      499
 91
      531
 95
   524319
 70
     0
 93
      107
310
51B4D1465180051946946A818027
340
36581A
 94
        0
1001
ACAD
1000
AcRTDxfName
1000
AEC_DISP_REP_LAYOUT_CURVE
1000
AcRTDxfName
1000
AEC_DISP_REP_LAYOUT_CURVE
1000
AcRTDxfName
1000
AEC_DISP_REP_LAYOUT_CURVE
1000
AcRTDxfName
1000
AEC_DISP_REP_LAYOUT_CURVE
1000
AcRTDxfName
1000
AEC_DISP_REP_LAYOUT_CURVE
1000
AcRTDxfName
1000
AEC_DISP_REP_LAYOUT_CURVE
1000
AcRTDxfName
1000
AEC_DISP_REP_LAYOUT_CURVE
1000
AcRTDxfName
1000
AEC_DISP_REP_LAYOUT_CURVE
1000
AcRTDxfName
1000
AEC_DISP_REP_LAYOUT_CURVE
1000
AcRTDxfName
1000
AEC_DISP_REP_LAYOUT_CURVE
1000
AcRTDxfName
1000
AEC_DISP_REP_LAYOUT_CURVE
1000
AcRTDxfName
1000
AEC_DISP_REP_LAYOUT_CURVE
1000
AcRTDxfName
1000
AEC_DISP_REP_LAYOUT_CURVE
1000
AcRTDxfName
1000
AEC_DISP_REP_LAYOUT_CURVE
1000
AcRTDxfName
1000
AEC_DISP_REP_LAYOUT_CURVE
  0
ACAD_PROXY_OBJECT
  5
36581B
102
{ACAD_REACTORS
330
365806
102
}
330
365806
100
AcDbProxyObject
 90
      499
 91
      533
 95
   524319
 70
     0
 93
      107
310
51B4D1465180051946946A818027
340
36581C
 94
        0
1001
ACAD
1000
AcRTDxfName
1000
AEC_DISP_REP_LAYOUT_GRID2D
1000
AcRTDxfName
1000
AEC_DISP_REP_LAYOUT_GRID2D
1000
AcRTDxfName
1000
AEC_DISP_REP_LAYOUT_GRID2D
1000
AcRTDxfName
1000
AEC_DISP_REP_LAYOUT_GRID2D
1000
AcRTDxfName
1000
AEC_DISP_REP_LAYOUT_GRID2D
1000
AcRTDxfName
1000
AEC_DISP_REP_LAYOUT_GRID2D
1000
AcRTDxfName
1000
AEC_DISP_REP_LAYOUT_GRID2D
1000
AcRTDxfName
1000
AEC_DISP_REP_LAYOUT_GRID2D
1000
AcRTDxfName
1000
AEC_DISP_REP_LAYOUT_GRID2D
1000
AcRTDxfName
1000
AEC_DISP_REP_LAYOUT_GRID2D
1000
AcRTDxfName
1000
AEC_DISP_REP_LAYOUT_GRID2D
1000
AcRTDxfName
1000
AEC_DISP_REP_LAYOUT_GRID2D
1000
AcRTDxfName
1000
AEC_DISP_REP_LAYOUT_GRID2D
1000
AcRTDxfName
1000
AEC_DISP_REP_LAYOUT_GRID2D
1000
AcRTDxfName
1000
AEC_DISP_REP_LAYOUT_GRID2D
  0
ACAD_PROXY_OBJECT
  5
36581D
102
{ACAD_REACTORS
330
365806
102
}
330
365806
100
AcDbProxyObject
 90
      499
 91
      535
 95
   524319
 70
     0
 93
      107
310
51B4D1465180051946946A818027
340
36581E
 94
        0
1001
ACAD
1000
AcRTDxfName
1000
AEC_DISP_REP_LAYOUT_GRID3D
1000
AcRTDxfName
1000
AEC_DISP_REP_LAYOUT_GRID3D
1000
AcRTDxfName
1000
AEC_DISP_REP_LAYOUT_GRID3D
1000
AcRTDxfName
1000
AEC_DISP_REP_LAYOUT_GRID3D
1000
AcRTDxfName
1000
AEC_DISP_REP_LAYOUT_GRID3D
1000
AcRTDxfName
1000
AEC_DISP_REP_LAYOUT_GRID3D
1000
AcRTDxfName
1000
AEC_DISP_REP_LAYOUT_GRID3D
1000
AcRTDxfName
1000
AEC_DISP_REP_LAYOUT_GRID3D
1000
AcRTDxfName
1000
AEC_DISP_REP_LAYOUT_GRID3D
1000
AcRTDxfName
1000
AEC_DISP_REP_LAYOUT_GRID3D
1000
AcRTDxfName
1000
AEC_DISP_REP_LAYOUT_GRID3D
1000
AcRTDxfName
1000
AEC_DISP_REP_LAYOUT_GRID3D
1000
AcRTDxfName
1000
AEC_DISP_REP_LAYOUT_GRID3D
1000
AcRTDxfName
1000
AEC_DISP_REP_LAYOUT_GRID3D
1000
AcRTDxfName
1000
AEC_DISP_REP_LAYOUT_GRID3D
  0
ACAD_PROXY_OBJECT
  5
36581F
102
{ACAD_REACTORS
330
365806
102
}
330
365806
100
AcDbProxyObject
 90
      499
 91
      537
 95
   524319
 70
     0
 93
      107
310
51B4D1465180051946946A818027
340
365820
 94
        0
1001
ACAD
1000
AcRTDxfName
1000
AEC_DISP_REP_MASKBLOCK_REF
1000
AcRTDxfName
1000
AEC_DISP_REP_MASKBLOCK_REF
1000
AcRTDxfName
1000
AEC_DISP_REP_MASKBLOCK_REF
1000
AcRTDxfName
1000
AEC_DISP_REP_MASKBLOCK_REF
1000
AcRTDxfName
1000
AEC_DISP_REP_MASKBLOCK_REF
1000
AcRTDxfName
1000
AEC_DISP_REP_MASKBLOCK_REF
1000
AcRTDxfName
1000
AEC_DISP_REP_MASKBLOCK_REF
1000
AcRTDxfName
1000
AEC_DISP_REP_MASKBLOCK_REF
1000
AcRTDxfName
1000
AEC_DISP_REP_MASKBLOCK_REF
1000
AcRTDxfName
1000
AEC_DISP_REP_MASKBLOCK_REF
1000
AcRTDxfName
1000
AEC_DISP_REP_MASKBLOCK_REF
1000
AcRTDxfName
1000
AEC_DISP_REP_MASKBLOCK_REF
1000
AcRTDxfName
1000
AEC_DISP_REP_MASKBLOCK_REF
1000
AcRTDxfName
1000
AEC_DISP_REP_MASKBLOCK_REF
1000
AcRTDxfName
1000
AEC_DISP_REP_MASKBLOCK_REF
  0
ACAD_PROXY_OBJECT
  5
365821
102
{ACAD_REACTORS
330
365806
102
}
330
365806
100
AcDbProxyObject
 90
      499
 91
      539
 95
   524319
 70
     0
 93
      117
310
51B4D146518005194694651AA06008
340
365822
 94
        0
1001
ACAD
1000
AcRTDxfName
1000
AEC_DISP_REP_MASKBLOCK_REF_RCP
1000
AcRTDxfName
1000
AEC_DISP_REP_MASKBLOCK_REF_RCP
1000
AcRTDxfName
1000
AEC_DISP_REP_MASKBLOCK_REF_RCP
1000
AcRTDxfName
1000
AEC_DISP_REP_MASKBLOCK_REF_RCP
1000
AcRTDxfName
1000
AEC_DISP_REP_MASKBLOCK_REF_RCP
1000
AcRTDxfName
1000
AEC_DISP_REP_MASKBLOCK_REF_RCP
1000
AcRTDxfName
1000
AEC_DISP_REP_MASKBLOCK_REF_RCP
1000
AcRTDxfName
1000
AEC_DISP_REP_MASKBLOCK_REF_RCP
1000
AcRTDxfName
1000
AEC_DISP_REP_MASKBLOCK_REF_RCP
1000
AcRTDxfName
1000
AEC_DISP_REP_MASKBLOCK_REF_RCP
1000
AcRTDxfName
1000
AEC_DISP_REP_MASKBLOCK_REF_RCP
1000
AcRTDxfName
1000
AEC_DISP_REP_MASKBLOCK_REF_RCP
1000
AcRTDxfName
1000
AEC_DISP_REP_MASKBLOCK_REF_RCP
1000
AcRTDxfName
1000
AEC_DISP_REP_MASKBLOCK_REF_RCP
1000
AcRTDxfName
1000
AEC_DISP_REP_MASKBLOCK_REF_RCP
  0
ACAD_PROXY_OBJECT
  5
365823
102
{ACAD_REACTORS
330
365806
102
}
330
365806
100
AcDbProxyObject
 90
      499
 91
      540
 95
   524319
 70
     0
 93
      117
310
51B4D146518005194694651AA06008
340
365824
 94
        0
1001
ACAD
1000
AcRTDxfName
1000
AEC_DISP_REP_MASS_ELEM_MODEL
1000
AcRTDxfName
1000
AEC_DISP_REP_MASS_ELEM_MODEL
1000
AcRTDxfName
1000
AEC_DISP_REP_MASS_ELEM_MODEL
1000
AcRTDxfName
1000
AEC_DISP_REP_MASS_ELEM_MODEL
1000
AcRTDxfName
1000
AEC_DISP_REP_MASS_ELEM_MODEL
1000
AcRTDxfName
1000
AEC_DISP_REP_MASS_ELEM_MODEL
1000
AcRTDxfName
1000
AEC_DISP_REP_MASS_ELEM_MODEL
1000
AcRTDxfName
1000
AEC_DISP_REP_MASS_ELEM_MODEL
1000
AcRTDxfName
1000
AEC_DISP_REP_MASS_ELEM_MODEL
1000
AcRTDxfName
1000
AEC_DISP_REP_MASS_ELEM_MODEL
1000
AcRTDxfName
1000
AEC_DISP_REP_MASS_ELEM_MODEL
1000
AcRTDxfName
1000
AEC_DISP_REP_MASS_ELEM_MODEL
1000
AcRTDxfName
1000
AEC_DISP_REP_MASS_ELEM_MODEL
1000
AcRTDxfName
1000
AEC_DISP_REP_MASS_ELEM_MODEL
1000
AcRTDxfName
1000
AEC_DISP_REP_MASS_ELEM_MODEL
  0
ACAD_PROXY_OBJECT
  5
365829
102
{ACAD_REACTORS
330
365806
102
}
330
365806
100
AcDbProxyObject
 90
      499
 91
      545
 95
   524319
 70
     0
 93
      127
310
51B4D146518005194694651946A81802
340
36582A
 94
        0
1001
ACAD
1000
AcRTDxfName
1000
AEC_DISPREPAECDBDISPREPMASSELEMPLAN100
1000
AcRTDxfName
1000
AEC_DISPREPAECDBDISPREPMASSELEMPLAN100
1000
AcRTDxfName
1000
AEC_DISPREPAECDBDISPREPMASSELEMPLAN100
1000
AcRTDxfName
1000
AEC_DISPREPAECDBDISPREPMASSELEMPLAN100
1000
AcRTDxfName
1000
AEC_DISPREPAECDBDISPREPMASSELEMPLAN100
1000
AcRTDxfName
1000
AEC_DISPREPAECDBDISPREPMASSELEMPLAN100
1000
AcRTDxfName
1000
AEC_DISPREPAECDBDISPREPMASSELEMPLAN100
1000
AcRTDxfName
1000
AEC_DISPREPAECDBDISPREPMASSELEMPLAN100
1000
AcRTDxfName
1000
AEC_DISPREPAECDBDISPREPMASSELEMPLAN100
1000
AcRTDxfName
1000
AEC_DISPREPAECDBDISPREPMASSELEMPLAN100
1000
AcRTDxfName
1000
AEC_DISPREPAECDBDISPREPMASSELEMPLAN100
1000
AcRTDxfName
1000
AEC_DISPREPAECDBDISPREPMASSELEMPLAN100
1000
AcRTDxfName
1000
AEC_DISPREPAECDBDISPREPMASSELEMPLAN100
1000
AcRTDxfName
1000
AEC_DISPREPAECDBDISPREPMASSELEMPLAN100
1000
AcRTDxfName
1000
AEC_DISPREPAECDBDISPREPMASSELEMPLAN100
  0
ACAD_PROXY_OBJECT
  5
365827
102
{ACAD_REACTORS
330
365806
102
}
330
365806
100
AcDbProxyObject
 90
      499
 91
      543
 95
   524319
 70
     0
 93
      127
310
51B4D146518005194694651946A81802
340
365828
 94
        0
1001
ACAD
1000
AcRTDxfName
1000
AEC_DISPREPAECDBDISPREPMASSELEMPLAN50
1000
AcRTDxfName
1000
AEC_DISPREPAECDBDISPREPMASSELEMPLAN50
1000
AcRTDxfName
1000
AEC_DISPREPAECDBDISPREPMASSELEMPLAN50
1000
AcRTDxfName
1000
AEC_DISPREPAECDBDISPREPMASSELEMPLAN50
1000
AcRTDxfName
1000
AEC_DISPREPAECDBDISPREPMASSELEMPLAN50
1000
AcRTDxfName
1000
AEC_DISPREPAECDBDISPREPMASSELEMPLAN50
1000
AcRTDxfName
1000
AEC_DISPREPAECDBDISPREPMASSELEMPLAN50
1000
AcRTDxfName
1000
AEC_DISPREPAECDBDISPREPMASSELEMPLAN50
1000
AcRTDxfName
1000
AEC_DISPREPAECDBDISPREPMASSELEMPLAN50
1000
AcRTDxfName
1000
AEC_DISPREPAECDBDISPREPMASSELEMPLAN50
1000
AcRTDxfName
1000
AEC_DISPREPAECDBDISPREPMASSELEMPLAN50
1000
AcRTDxfName
1000
AEC_DISPREPAECDBDISPREPMASSELEMPLAN50
1000
AcRTDxfName
1000
AEC_DISPREPAECDBDISPREPMASSELEMPLAN50
1000
AcRTDxfName
1000
AEC_DISPREPAECDBDISPREPMASSELEMPLAN50
1000
AcRTDxfName
1000
AEC_DISPREPAECDBDISPREPMASSELEMPLAN50
  0
ACAD_PROXY_OBJECT
  5
36582B
102
{ACAD_REACTORS
330
365806
102
}
330
365806
100
AcDbProxyObject
 90
      499
 91
      546
 95
   524319
 70
     0
 93
      127
310
51B4D146518005194694651946A81802
340
36582C
 94
        0
1001
ACAD
1000
AcRTDxfName
1000
AEC_DISP_REP_MASS_ELEM_RCP
1000
AcRTDxfName
1000
AEC_DISP_REP_MASS_ELEM_RCP
1000
AcRTDxfName
1000
AEC_DISP_REP_MASS_ELEM_RCP
1000
AcRTDxfName
1000
AEC_DISP_REP_MASS_ELEM_RCP
1000
AcRTDxfName
1000
AEC_DISP_REP_MASS_ELEM_RCP
1000
AcRTDxfName
1000
AEC_DISP_REP_MASS_ELEM_RCP
1000
AcRTDxfName
1000
AEC_DISP_REP_MASS_ELEM_RCP
1000
AcRTDxfName
1000
AEC_DISP_REP_MASS_ELEM_RCP
1000
AcRTDxfName
1000
AEC_DISP_REP_MASS_ELEM_RCP
1000
AcRTDxfName
1000
AEC_DISP_REP_MASS_ELEM_RCP
1000
AcRTDxfName
1000
AEC_DISP_REP_MASS_ELEM_RCP
1000
AcRTDxfName
1000
AEC_DISP_REP_MASS_ELEM_RCP
1000
AcRTDxfName
1000
AEC_DISP_REP_MASS_ELEM_RCP
1000
AcRTDxfName
1000
AEC_DISP_REP_MASS_ELEM_RCP
1000
AcRTDxfName
1000
AEC_DISP_REP_MASS_ELEM_RCP
  0
ACAD_PROXY_OBJECT
  5
365825
102
{ACAD_REACTORS
330
365806
102
}
330
365806
100
AcDbProxyObject
 90
      499
 91
      542
 95
   524319
 70
     0
 93
      117
310
51B4D146518005194694651AA06008
340
365826
 94
        0
1001
ACAD
1000
AcRTDxfName
1000
AEC_DISP_REP_MASS_ELEM_SCHEM
1000
AcRTDxfName
1000
AEC_DISP_REP_MASS_ELEM_SCHEM
1000
AcRTDxfName
1000
AEC_DISP_REP_MASS_ELEM_SCHEM
1000
AcRTDxfName
1000
AEC_DISP_REP_MASS_ELEM_SCHEM
1000
AcRTDxfName
1000
AEC_DISP_REP_MASS_ELEM_SCHEM
1000
AcRTDxfName
1000
AEC_DISP_REP_MASS_ELEM_SCHEM
1000
AcRTDxfName
1000
AEC_DISP_REP_MASS_ELEM_SCHEM
1000
AcRTDxfName
1000
AEC_DISP_REP_MASS_ELEM_SCHEM
1000
AcRTDxfName
1000
AEC_DISP_REP_MASS_ELEM_SCHEM
1000
AcRTDxfName
1000
AEC_DISP_REP_MASS_ELEM_SCHEM
1000
AcRTDxfName
1000
AEC_DISP_REP_MASS_ELEM_SCHEM
1000
AcRTDxfName
1000
AEC_DISP_REP_MASS_ELEM_SCHEM
1000
AcRTDxfName
1000
AEC_DISP_REP_MASS_ELEM_SCHEM
1000
AcRTDxfName
1000
AEC_DISP_REP_MASS_ELEM_SCHEM
1000
AcRTDxfName
1000
AEC_DISP_REP_MASS_ELEM_SCHEM
  0
ACAD_PROXY_OBJECT
  5
36582D
102
{ACAD_REACTORS
330
365806
102
}
330
365806
100
AcDbProxyObject
 90
      499
 91
      547
 95
   524319
 70
     0
 93
      117
310
51B4D146518005194694651AA06008
340
36582E
 94
        0
1001
ACAD
1000
AcRTDxfName
1000
AEC_DISP_REP_MASS_GROUP_MODEL
1000
AcRTDxfName
1000
AEC_DISP_REP_MASS_GROUP_MODEL
1000
AcRTDxfName
1000
AEC_DISP_REP_MASS_GROUP_MODEL
1000
AcRTDxfName
1000
AEC_DISP_REP_MASS_GROUP_MODEL
1000
AcRTDxfName
1000
AEC_DISP_REP_MASS_GROUP_MODEL
1000
AcRTDxfName
1000
AEC_DISP_REP_MASS_GROUP_MODEL
1000
AcRTDxfName
1000
AEC_DISP_REP_MASS_GROUP_MODEL
1000
AcRTDxfName
1000
AEC_DISP_REP_MASS_GROUP_MODEL
1000
AcRTDxfName
1000
AEC_DISP_REP_MASS_GROUP_MODEL
1000
AcRTDxfName
1000
AEC_DISP_REP_MASS_GROUP_MODEL
1000
AcRTDxfName
1000
AEC_DISP_REP_MASS_GROUP_MODEL
1000
AcRTDxfName
1000
AEC_DISP_REP_MASS_GROUP_MODEL
1000
AcRTDxfName
1000
AEC_DISP_REP_MASS_GROUP_MODEL
1000
AcRTDxfName
1000
AEC_DISP_REP_MASS_GROUP_MODEL
1000
AcRTDxfName
1000
AEC_DISP_REP_MASS_GROUP_MODEL
  0
ACAD_PROXY_OBJECT
  5
36582F
102
{ACAD_REACTORS
330
365806
102
}
330
365806
100
AcDbProxyObject
 90
      499
 91
      549
 95
   524319
 70
     0
 93
      117
310
51B4D146518005194694651AA06008
340
365830
 94
        0
1001
ACAD
1000
AcRTDxfName
1000
AEC_DISP_REP_MASS_GROUP_PLAN
1000
AcRTDxfName
1000
AEC_DISP_REP_MASS_GROUP_PLAN
1000
AcRTDxfName
1000
AEC_DISP_REP_MASS_GROUP_PLAN
1000
AcRTDxfName
1000
AEC_DISP_REP_MASS_GROUP_PLAN
1000
AcRTDxfName
1000
AEC_DISP_REP_MASS_GROUP_PLAN
1000
AcRTDxfName
1000
AEC_DISP_REP_MASS_GROUP_PLAN
1000
AcRTDxfName
1000
AEC_DISP_REP_MASS_GROUP_PLAN
1000
AcRTDxfName
1000
AEC_DISP_REP_MASS_GROUP_PLAN
1000
AcRTDxfName
1000
AEC_DISP_REP_MASS_GROUP_PLAN
1000
AcRTDxfName
1000
AEC_DISP_REP_MASS_GROUP_PLAN
1000
AcRTDxfName
1000
AEC_DISP_REP_MASS_GROUP_PLAN
1000
AcRTDxfName
1000
AEC_DISP_REP_MASS_GROUP_PLAN
1000
AcRTDxfName
1000
AEC_DISP_REP_MASS_GROUP_PLAN
1000
AcRTDxfName
1000
AEC_DISP_REP_MASS_GROUP_PLAN
1000
AcRTDxfName
1000
AEC_DISP_REP_MASS_GROUP_PLAN
  0
ACAD_PROXY_OBJECT
  5
365833
102
{ACAD_REACTORS
330
365806
102
}
330
365806
100
AcDbProxyObject
 90
      499
 91
      552
 95
   524319
 70
     0
 93
      127
310
51B4D146518005194694651946A81802
340
365834
 94
        0
1001
ACAD
1000
AcRTDxfName
1000
AEC_DISPREPAECDBDISPREPMASSGROUPPLAN100
1000
AcRTDxfName
1000
AEC_DISPREPAECDBDISPREPMASSGROUPPLAN100
1000
AcRTDxfName
1000
AEC_DISPREPAECDBDISPREPMASSGROUPPLAN100
1000
AcRTDxfName
1000
AEC_DISPREPAECDBDISPREPMASSGROUPPLAN100
1000
AcRTDxfName
1000
AEC_DISPREPAECDBDISPREPMASSGROUPPLAN100
1000
AcRTDxfName
1000
AEC_DISPREPAECDBDISPREPMASSGROUPPLAN100
1000
AcRTDxfName
1000
AEC_DISPREPAECDBDISPREPMASSGROUPPLAN100
1000
AcRTDxfName
1000
AEC_DISPREPAECDBDISPREPMASSGROUPPLAN100
1000
AcRTDxfName
1000
AEC_DISPREPAECDBDISPREPMASSGROUPPLAN100
1000
AcRTDxfName
1000
AEC_DISPREPAECDBDISPREPMASSGROUPPLAN100
1000
AcRTDxfName
1000
AEC_DISPREPAECDBDISPREPMASSGROUPPLAN100
1000
AcRTDxfName
1000
AEC_DISPREPAECDBDISPREPMASSGROUPPLAN100
1000
AcRTDxfName
1000
AEC_DISPREPAECDBDISPREPMASSGROUPPLAN100
1000
AcRTDxfName
1000
AEC_DISPREPAECDBDISPREPMASSGROUPPLAN100
1000
AcRTDxfName
1000
AEC_DISPREPAECDBDISPREPMASSGROUPPLAN100
  0
ACAD_PROXY_OBJECT
  5
365831
102
{ACAD_REACTORS
330
365806
102
}
330
365806
100
AcDbProxyObject
 90
      499
 91
      550
 95
   524319
 70
     0
 93
      127
310
51B4D146518005194694651946A81802
340
365832
 94
        0
1001
ACAD
1000
AcRTDxfName
1000
AEC_DISPREPAECDBDISPREPMASSGROUPPLAN50
1000
AcRTDxfName
1000
AEC_DISPREPAECDBDISPREPMASSGROUPPLAN50
1000
AcRTDxfName
1000
AEC_DISPREPAECDBDISPREPMASSGROUPPLAN50
1000
AcRTDxfName
1000
AEC_DISPREPAECDBDISPREPMASSGROUPPLAN50
1000
AcRTDxfName
1000
AEC_DISPREPAECDBDISPREPMASSGROUPPLAN50
1000
AcRTDxfName
1000
AEC_DISPREPAECDBDISPREPMASSGROUPPLAN50
1000
AcRTDxfName
1000
AEC_DISPREPAECDBDISPREPMASSGROUPPLAN50
1000
AcRTDxfName
1000
AEC_DISPREPAECDBDISPREPMASSGROUPPLAN50
1000
AcRTDxfName
1000
AEC_DISPREPAECDBDISPREPMASSGROUPPLAN50
1000
AcRTDxfName
1000
AEC_DISPREPAECDBDISPREPMASSGROUPPLAN50
1000
AcRTDxfName
1000
AEC_DISPREPAECDBDISPREPMASSGROUPPLAN50
1000
AcRTDxfName
1000
AEC_DISPREPAECDBDISPREPMASSGROUPPLAN50
1000
AcRTDxfName
1000
AEC_DISPREPAECDBDISPREPMASSGROUPPLAN50
1000
AcRTDxfName
1000
AEC_DISPREPAECDBDISPREPMASSGROUPPLAN50
1000
AcRTDxfName
1000
AEC_DISPREPAECDBDISPREPMASSGROUPPLAN50
  0
ACAD_PROXY_OBJECT
  5
365835
102
{ACAD_REACTORS
330
365806
102
}
330
365806
100
AcDbProxyObject
 90
      499
 91
      553
 95
   524319
 70
     0
 93
      127
310
51B4D146518005194694651946A81802
340
365836
 94
        0
1001
ACAD
1000
AcRTDxfName
1000
AEC_DISP_REP_MASS_GROUP_RCP
1000
AcRTDxfName
1000
AEC_DISP_REP_MASS_GROUP_RCP
1000
AcRTDxfName
1000
AEC_DISP_REP_MASS_GROUP_RCP
1000
AcRTDxfName
1000
AEC_DISP_REP_MASS_GROUP_RCP
1000
AcRTDxfName
1000
AEC_DISP_REP_MASS_GROUP_RCP
1000
AcRTDxfName
1000
AEC_DISP_REP_MASS_GROUP_RCP
1000
AcRTDxfName
1000
AEC_DISP_REP_MASS_GROUP_RCP
1000
AcRTDxfName
1000
AEC_DISP_REP_MASS_GROUP_RCP
1000
AcRTDxfName
1000
AEC_DISP_REP_MASS_GROUP_RCP
1000
AcRTDxfName
1000
AEC_DISP_REP_MASS_GROUP_RCP
1000
AcRTDxfName
1000
AEC_DISP_REP_MASS_GROUP_RCP
1000
AcRTDxfName
1000
AEC_DISP_REP_MASS_GROUP_RCP
1000
AcRTDxfName
1000
AEC_DISP_REP_MASS_GROUP_RCP
1000
AcRTDxfName
1000
AEC_DISP_REP_MASS_GROUP_RCP
1000
AcRTDxfName
1000
AEC_DISP_REP_MASS_GROUP_RCP
  0
ACAD_PROXY_OBJECT
  5
365844
102
{ACAD_REACTORS
330
365806
102
}
330
365806
100
AcDbProxyObject
 90
      499
 91
      567
 95
   524319
 70
     0
 93
      107
310
51B4D1465180051946946A818027
340
365845
 94
        0
1001
ACAD
1000
AcRTDxfName
1000
AEC_DISP_REP_MATERIAL
1000
AcRTDxfName
1000
AEC_DISP_REP_MATERIAL
1000
AcRTDxfName
1000
AEC_DISP_REP_MATERIAL
1000
AcRTDxfName
1000
AEC_DISP_REP_MATERIAL
1000
AcRTDxfName
1000
AEC_DISP_REP_MATERIAL
1000
AcRTDxfName
1000
AEC_DISP_REP_MATERIAL
1000
AcRTDxfName
1000
AEC_DISP_REP_MATERIAL
1000
AcRTDxfName
1000
AEC_DISP_REP_MATERIAL
1000
AcRTDxfName
1000
AEC_DISP_REP_MATERIAL
1000
AcRTDxfName
1000
AEC_DISP_REP_MATERIAL
1000
AcRTDxfName
1000
AEC_DISP_REP_MATERIAL
1000
AcRTDxfName
1000
AEC_DISP_REP_MATERIAL
1000
AcRTDxfName
1000
AEC_DISP_REP_MATERIAL
1000
AcRTDxfName
1000
AEC_DISP_REP_MATERIAL
1000
AcRTDxfName
1000
AEC_DISP_REP_MATERIAL
  0
ACAD_PROXY_OBJECT
  5
365837
102
{ACAD_REACTORS
330
365806
102
}
330
365806
100
AcDbProxyObject
 90
      499
 91
      554
 95
   524319
 70
     0
 93
      107
310
51B4D1465180051946946A818027
340
0
 94
        0
1001
ACAD
1000
AcRTDxfName
1000
AEC_DISP_REP_MVBLOCK_REF
1000
AcRTDxfName
1000
AEC_DISP_REP_MVBLOCK_REF
1000
AcRTDxfName
1000
AEC_DISP_REP_MVBLOCK_REF
1000
AcRTDxfName
1000
AEC_DISP_REP_MVBLOCK_REF
1000
AcRTDxfName
1000
AEC_DISP_REP_MVBLOCK_REF
1000
AcRTDxfName
1000
AEC_DISP_REP_MVBLOCK_REF
1000
AcRTDxfName
1000
AEC_DISP_REP_MVBLOCK_REF
1000
AcRTDxfName
1000
AEC_DISP_REP_MVBLOCK_REF
1000
AcRTDxfName
1000
AEC_DISP_REP_MVBLOCK_REF
1000
AcRTDxfName
1000
AEC_DISP_REP_MVBLOCK_REF
1000
AcRTDxfName
1000
AEC_DISP_REP_MVBLOCK_REF
1000
AcRTDxfName
1000
AEC_DISP_REP_MVBLOCK_REF
1000
AcRTDxfName
1000
AEC_DISP_REP_MVBLOCK_REF
1000
AcRTDxfName
1000
AEC_DISP_REP_MVBLOCK_REF
1000
AcRTDxfName
1000
AEC_DISP_REP_MVBLOCK_REF
  0
ACAD_PROXY_OBJECT
  5
365838
102
{ACAD_REACTORS
330
365806
102
}
330
365806
100
AcDbProxyObject
 90
      499
 91
      555
 95
   524319
 70
     0
 93
      117
310
51B4D146518005194694651AA06008
340
0
 94
        0
1001
ACAD
1000
AcRTDxfName
1000
AEC_DISP_REP_MVBLOCK_REF_MODEL
1000
AcRTDxfName
1000
AEC_DISP_REP_MVBLOCK_REF_MODEL
1000
AcRTDxfName
1000
AEC_DISP_REP_MVBLOCK_REF_MODEL
1000
AcRTDxfName
1000
AEC_DISP_REP_MVBLOCK_REF_MODEL
1000
AcRTDxfName
1000
AEC_DISP_REP_MVBLOCK_REF_MODEL
1000
AcRTDxfName
1000
AEC_DISP_REP_MVBLOCK_REF_MODEL
1000
AcRTDxfName
1000
AEC_DISP_REP_MVBLOCK_REF_MODEL
1000
AcRTDxfName
1000
AEC_DISP_REP_MVBLOCK_REF_MODEL
1000
AcRTDxfName
1000
AEC_DISP_REP_MVBLOCK_REF_MODEL
1000
AcRTDxfName
1000
AEC_DISP_REP_MVBLOCK_REF_MODEL
1000
AcRTDxfName
1000
AEC_DISP_REP_MVBLOCK_REF_MODEL
1000
AcRTDxfName
1000
AEC_DISP_REP_MVBLOCK_REF_MODEL
1000
AcRTDxfName
1000
AEC_DISP_REP_MVBLOCK_REF_MODEL
1000
AcRTDxfName
1000
AEC_DISP_REP_MVBLOCK_REF_MODEL
1000
AcRTDxfName
1000
AEC_DISP_REP_MVBLOCK_REF_MODEL
  0
ACAD_PROXY_OBJECT
  5
365839
102
{ACAD_REACTORS
330
365806
102
}
330
365806
100
AcDbProxyObject
 90
      499
 91
      556
 95
   524319
 70
     0
 93
      117
310
51B4D146518005194694651AA06008
340
0
 94
        0
1001
ACAD
1000
AcRTDxfName
1000
AEC_AECDBDISPREPMVBLOCKREFPLAN100
1000
AcRTDxfName
1000
AEC_AECDBDISPREPMVBLOCKREFPLAN100
1000
AcRTDxfName
1000
AEC_AECDBDISPREPMVBLOCKREFPLAN100
1000
AcRTDxfName
1000
AEC_AECDBDISPREPMVBLOCKREFPLAN100
1000
AcRTDxfName
1000
AEC_AECDBDISPREPMVBLOCKREFPLAN100
1000
AcRTDxfName
1000
AEC_AECDBDISPREPMVBLOCKREFPLAN100
1000
AcRTDxfName
1000
AEC_AECDBDISPREPMVBLOCKREFPLAN100
1000
AcRTDxfName
1000
AEC_AECDBDISPREPMVBLOCKREFPLAN100
1000
AcRTDxfName
1000
AEC_AECDBDISPREPMVBLOCKREFPLAN100
1000
AcRTDxfName
1000
AEC_AECDBDISPREPMVBLOCKREFPLAN100
1000
AcRTDxfName
1000
AEC_AECDBDISPREPMVBLOCKREFPLAN100
1000
AcRTDxfName
1000
AEC_AECDBDISPREPMVBLOCKREFPLAN100
1000
AcRTDxfName
1000
AEC_AECDBDISPREPMVBLOCKREFPLAN100
1000
AcRTDxfName
1000
AEC_AECDBDISPREPMVBLOCKREFPLAN100
1000
AcRTDxfName
1000
AEC_AECDBDISPREPMVBLOCKREFPLAN100
  0
ACAD_PROXY_OBJECT
  5
36583A
102
{ACAD_REACTORS
330
365806
102
}
330
365806
100
AcDbProxyObject
 90
      499
 91
      557
 95
   524319
 70
     0
 93
      117
310
51B4D146518005194694651AA06008
340
0
 94
        0
1001
ACAD
1000
AcRTDxfName
1000
AEC_AECDBDISPREPMVBLOCKREFPLAN50
1000
AcRTDxfName
1000
AEC_AECDBDISPREPMVBLOCKREFPLAN50
1000
AcRTDxfName
1000
AEC_AECDBDISPREPMVBLOCKREFPLAN50
1000
AcRTDxfName
1000
AEC_AECDBDISPREPMVBLOCKREFPLAN50
1000
AcRTDxfName
1000
AEC_AECDBDISPREPMVBLOCKREFPLAN50
1000
AcRTDxfName
1000
AEC_AECDBDISPREPMVBLOCKREFPLAN50
1000
AcRTDxfName
1000
AEC_AECDBDISPREPMVBLOCKREFPLAN50
1000
AcRTDxfName
1000
AEC_AECDBDISPREPMVBLOCKREFPLAN50
1000
AcRTDxfName
1000
AEC_AECDBDISPREPMVBLOCKREFPLAN50
1000
AcRTDxfName
1000
AEC_AECDBDISPREPMVBLOCKREFPLAN50
1000
AcRTDxfName
1000
AEC_AECDBDISPREPMVBLOCKREFPLAN50
1000
AcRTDxfName
1000
AEC_AECDBDISPREPMVBLOCKREFPLAN50
1000
AcRTDxfName
1000
AEC_AECDBDISPREPMVBLOCKREFPLAN50
1000
AcRTDxfName
1000
AEC_AECDBDISPREPMVBLOCKREFPLAN50
1000
AcRTDxfName
1000
AEC_AECDBDISPREPMVBLOCKREFPLAN50
  0
ACAD_PROXY_OBJECT
  5
36583B
102
{ACAD_REACTORS
330
365806
102
}
330
365806
100
AcDbProxyObject
 90
      499
 91
      558
 95
   524319
 70
     0
 93
      117
310
51B4D146518005194694651AA06008
340
36583C
 94
        0
1001
ACAD
1000
AcRTDxfName
1000
AEC_DISP_REP_POLYGON_MODEL
1000
AcRTDxfName
1000
AEC_DISP_REP_POLYGON_MODEL
1000
AcRTDxfName
1000
AEC_DISP_REP_POLYGON_MODEL
1000
AcRTDxfName
1000
AEC_DISP_REP_POLYGON_MODEL
1000
AcRTDxfName
1000
AEC_DISP_REP_POLYGON_MODEL
1000
AcRTDxfName
1000
AEC_DISP_REP_POLYGON_MODEL
1000
AcRTDxfName
1000
AEC_DISP_REP_POLYGON_MODEL
1000
AcRTDxfName
1000
AEC_DISP_REP_POLYGON_MODEL
1000
AcRTDxfName
1000
AEC_DISP_REP_POLYGON_MODEL
1000
AcRTDxfName
1000
AEC_DISP_REP_POLYGON_MODEL
1000
AcRTDxfName
1000
AEC_DISP_REP_POLYGON_MODEL
1000
AcRTDxfName
1000
AEC_DISP_REP_POLYGON_MODEL
1000
AcRTDxfName
1000
AEC_DISP_REP_POLYGON_MODEL
1000
AcRTDxfName
1000
AEC_DISP_REP_POLYGON_MODEL
1000
AcRTDxfName
1000
AEC_DISP_REP_POLYGON_MODEL
  0
ACAD_PROXY_OBJECT
  5
36583D
102
{ACAD_REACTORS
330
365806
102
}
330
365806
100
AcDbProxyObject
 90
      499
 91
      560
 95
   524319
 70
     0
 93
      117
310
51B4D146518005194694651AA06008
340
36583E
 94
        0
1001
ACAD
1000
AcRTDxfName
1000
AEC_DISP_REP_POLYGON_TRUECOLOUR
1000
AcRTDxfName
1000
AEC_DISP_REP_POLYGON_TRUECOLOUR
1000
AcRTDxfName
1000
AEC_DISP_REP_POLYGON_TRUECOLOUR
1000
AcRTDxfName
1000
AEC_DISP_REP_POLYGON_TRUECOLOUR
1000
AcRTDxfName
1000
AEC_DISP_REP_POLYGON_TRUECOLOUR
1000
AcRTDxfName
1000
AEC_DISP_REP_POLYGON_TRUECOLOUR
1000
AcRTDxfName
1000
AEC_DISP_REP_POLYGON_TRUECOLOUR
1000
AcRTDxfName
1000
AEC_DISP_REP_POLYGON_TRUECOLOUR
1000
AcRTDxfName
1000
AEC_DISP_REP_POLYGON_TRUECOLOUR
1000
AcRTDxfName
1000
AEC_DISP_REP_POLYGON_TRUECOLOUR
1000
AcRTDxfName
1000
AEC_DISP_REP_POLYGON_TRUECOLOUR
1000
AcRTDxfName
1000
AEC_DISP_REP_POLYGON_TRUECOLOUR
1000
AcRTDxfName
1000
AEC_DISP_REP_POLYGON_TRUECOLOUR
1000
AcRTDxfName
1000
AEC_DISP_REP_POLYGON_TRUECOLOUR
1000
AcRTDxfName
1000
AEC_DISP_REP_POLYGON_TRUECOLOUR
  0
ACAD_PROXY_OBJECT
  5
36583F
102
{ACAD_REACTORS
330
365806
102
}
330
365806
100
AcDbProxyObject
 90
      499
 91
      562
 95
   524319
 70
     0
 93
      107
310
51B4D1465180051946946A818027
340
365840
 94
        0
1001
ACAD
1000
AcRTDxfName
1000
AEC_DISP_REP_SLICE
1000
AcRTDxfName
1000
AEC_DISP_REP_SLICE
1000
AcRTDxfName
1000
AEC_DISP_REP_SLICE
1000
AcRTDxfName
1000
AEC_DISP_REP_SLICE
1000
AcRTDxfName
1000
AEC_DISP_REP_SLICE
1000
AcRTDxfName
1000
AEC_DISP_REP_SLICE
1000
AcRTDxfName
1000
AEC_DISP_REP_SLICE
1000
AcRTDxfName
1000
AEC_DISP_REP_SLICE
1000
AcRTDxfName
1000
AEC_DISP_REP_SLICE
1000
AcRTDxfName
1000
AEC_DISP_REP_SLICE
1000
AcRTDxfName
1000
AEC_DISP_REP_SLICE
1000
AcRTDxfName
1000
AEC_DISP_REP_SLICE
1000
AcRTDxfName
1000
AEC_DISP_REP_SLICE
1000
AcRTDxfName
1000
AEC_DISP_REP_SLICE
1000
AcRTDxfName
1000
AEC_DISP_REP_SLICE
  0
ACAD_PROXY_OBJECT
  5
365809
102
{ACAD_REACTORS
330
365808
102
}
330
365808
100
AcDbProxyObject
 90
      499
 91
      520
 95
   524319
 70
     0
 93
     3236
310
51B4D14651800519465194651913D0951946946C00000060801FDFEA035684A8CA34A3600000030400FEFF501406B4254651A51B000000182007F7FA80D5A12A328D28D8000000C1003FBFD40501AD0951946946C00000060801FDFEA0280D684A8CA34A3600000030400FEFF501406B4254651A51B000000182007F7FA80A
310
035A12A328D28D8000000C1003FBFD40501AD0951946946C00000060801FDFEA0280D684A8CA34A3600000030400FEFF501406B4254651A51B000000182007F7FA80A035A12A328D28D8000000C1003FBFD40501AD0951946946C00000060801FDFEA0280D684A8CA34A3600000030400FEFF501406B4254651A51B0000001
310
82007F7FA80D5A12A328D28D8000000C1003FBFD406AD0951946946C00000060801FDFEA0280D684A8CA34A3600000030400FEFF501406B4254651A51B000000182007F7FA80A034A328D28CA3203A14A328D28C8000000C1003FBFD406A51A0000000000000E100182D4454FB21E93F00000000000005080A555555555555
310
55555555555520E82009C00A6009200620066006201A8014
340
F
340
12
340
0
340
F
340
12
340
0
340
F
340
12
340
0
340
F
340
12
340
0
340
F
340
12
340
0
340
F
340
12
340
0
340
F
340
12
340
0
340
F
340
12
340
0
340
F
340
12
340
0
340
F
340
12
340
0
340
F
340
12
340
0
340
F
340
12
340
0
340
F
340
12
340
0
340
F
340
12
340
0
340
F
340
12
340
0
340
F
340
12
340
0
340
F
340
12
340
0
340
F
340
12
340
0
340
F
340
12
340
0
340
F
340
12
340
0
 94
        0
1001
ACAD
1000
AcRTDxfName
1000
AEC_DISP_PROPS_2D_SECTION
1000
AcRTDxfName
1000
AEC_DISP_PROPS_2D_SECTION
1000
AcRTDxfName
1000
AEC_DISP_PROPS_2D_SECTION
1000
AcRTDxfName
1000
AEC_DISP_PROPS_2D_SECTION
1000
AcRTDxfName
1000
AEC_DISP_PROPS_2D_SECTION
1000
AcRTDxfName
1000
AEC_DISP_PROPS_2D_SECTION
1000
AcRTDxfName
1000
AEC_DISP_PROPS_2D_SECTION
1000
AcRTDxfName
1000
AEC_DISP_PROPS_2D_SECTION
1000
AcRTDxfName
1000
AEC_DISP_PROPS_2D_SECTION
1000
AcRTDxfName
1000
AEC_DISP_PROPS_2D_SECTION
1000
AcRTDxfName
1000
AEC_DISP_PROPS_2D_SECTION
1000
AcRTDxfName
1000
AEC_DISP_PROPS_2D_SECTION
1000
AcRTDxfName
1000
AEC_DISP_PROPS_2D_SECTION
1000
AcRTDxfName
1000
AEC_DISP_PROPS_2D_SECTION
1000
AcRTDxfName
1000
AEC_DISP_PROPS_2D_SECTION
  0
ACAD_PROXY_OBJECT
  5
365814
102
{ACAD_REACTORS
330
365808
102
}
330
365808
100
AcDbProxyObject
 90
      499
 91
      526
 95
   524319
 70
     0
 93
     1586
310
51B4D1465180051946519465190AD0951946946C00000060801FDFEA035684A8CA34A3600000030400FEFF501AB4254651A51B000000182007F7FA80D5A12A328D28D8000000C1003FBFD406AD0951946946C00000060801FDFEA035684A8CA34A3600000030400FEFF501AB4254651A51B000000182007F7FA80D5A12A328
310
D28D8000000C1003FBFD406AD0951946946C00000060801FDFEA035684A8CA34A3600000030400FEFF501A94651901D0951946946C00000060801FDFEA03555555555555551A0040
340
F
340
12
340
0
340
F
340
12
340
0
340
F
340
12
340
0
340
F
340
12
340
0
340
F
340
12
340
0
340
F
340
12
340
0
340
F
340
12
340
0
340
F
340
12
340
0
340
F
340
12
340
0
340
F
340
12
340
0
340
F
340
12
340
0
 94
        0
1001
ACAD
1000
AcRTDxfName
1000
AEC_DISP_PROPS_CLIP_VOLUME_RESULT
1000
AcRTDxfName
1000
AEC_DISP_PROPS_CLIP_VOLUME_RESULT
1000
AcRTDxfName
1000
AEC_DISP_PROPS_CLIP_VOLUME_RESULT
1000
AcRTDxfName
1000
AEC_DISP_PROPS_CLIP_VOLUME_RESULT
1000
AcRTDxfName
1000
AEC_DISP_PROPS_CLIP_VOLUME_RESULT
1000
AcRTDxfName
1000
AEC_DISP_PROPS_CLIP_VOLUME_RESULT
1000
AcRTDxfName
1000
AEC_DISP_PROPS_CLIP_VOLUME_RESULT
1000
AcRTDxfName
1000
AEC_DISP_PROPS_CLIP_VOLUME_RESULT
1000
AcRTDxfName
1000
AEC_DISP_PROPS_CLIP_VOLUME_RESULT
1000
AcRTDxfName
1000
AEC_DISP_PROPS_CLIP_VOLUME_RESULT
1000
AcRTDxfName
1000
AEC_DISP_PROPS_CLIP_VOLUME_RESULT
1000
AcRTDxfName
1000
AEC_DISP_PROPS_CLIP_VOLUME_RESULT
1000
AcRTDxfName
1000
AEC_DISP_PROPS_CLIP_VOLUME_RESULT
1000
AcRTDxfName
1000
AEC_DISP_PROPS_CLIP_VOLUME_RESULT
1000
AcRTDxfName
1000
AEC_DISP_PROPS_CLIP_VOLUME_RESULT
  0
ACAD_PROXY_OBJECT
  5
365836
102
{ACAD_REACTORS
330
365808
102
}
330
365808
100
AcDbProxyObject
 90
      499
 91
      548
 95
   524319
 70
     0
 93
      403
310
51B4D146518005194651A5194640B4254651A51B000000182007F7FA80A035A12A328D28D8000000C1003FBFD406AAAA838030
340
F
340
12
340
0
340
F
340
12
340
0
 94
        0
1001
ACAD
1000
AcRTDxfName
1000
AEC_DISP_PROPS_MASS_GROUP
1000
AcRTDxfName
1000
AEC_DISP_PROPS_MASS_GROUP
1000
AcRTDxfName
1000
AEC_DISP_PROPS_MASS_GROUP
1000
AcRTDxfName
1000
AEC_DISP_PROPS_MASS_GROUP
1000
AcRTDxfName
1000
AEC_DISP_PROPS_MASS_GROUP
1000
AcRTDxfName
1000
AEC_DISP_PROPS_MASS_GROUP
1000
AcRTDxfName
1000
AEC_DISP_PROPS_MASS_GROUP
1000
AcRTDxfName
1000
AEC_DISP_PROPS_MASS_GROUP
1000
AcRTDxfName
1000
AEC_DISP_PROPS_MASS_GROUP
1000
AcRTDxfName
1000
AEC_DISP_PROPS_MASS_GROUP
1000
AcRTDxfName
1000
AEC_DISP_PROPS_MASS_GROUP
1000
AcRTDxfName
1000
AEC_DISP_PROPS_MASS_GROUP
1000
AcRTDxfName
1000
AEC_DISP_PROPS_MASS_GROUP
1000
AcRTDxfName
1000
AEC_DISP_PROPS_MASS_GROUP
1000
AcRTDxfName
1000
AEC_DISP_PROPS_MASS_GROUP
  0
ACAD_PROXY_OBJECT
  5
36582A
102
{ACAD_REACTORS
330
365808
102
}
330
365808
100
AcDbProxyObject
 90
      499
 91
      544
 95
   524319
 70
     0
 93
     1191
310
51B4D14651800519465194651903D0951946946C00000060801FDFEA035684A8CA34A3200000030400FEFF501AB4294651A519000000182007F7FA80A034A340000000000001C200305A88A9F643D27E0000000000000A1014A5194651902D0951946946C00000060801FDFEA0280D684A8CA34A3600000030400FEFF501AA
310
00AAAA90741004E0053004900310033003100AAA5803
340
F
340
12
340
0
340
F
340
12
340
0
340
F
340
12
340
0
340
F
340
12
340
0
340
F
340
12
340
0
 94
        0
1001
ACAD
1000
AcRTDxfName
1000
AEC_DISPROPSMASSELEMPLANCOMMON
1000
AcRTDxfName
1000
AEC_DISPROPSMASSELEMPLANCOMMON
1000
AcRTDxfName
1000
AEC_DISPROPSMASSELEMPLANCOMMON
1000
AcRTDxfName
1000
AEC_DISPROPSMASSELEMPLANCOMMON
1000
AcRTDxfName
1000
AEC_DISPROPSMASSELEMPLANCOMMON
1000
AcRTDxfName
1000
AEC_DISPROPSMASSELEMPLANCOMMON
1000
AcRTDxfName
1000
AEC_DISPROPSMASSELEMPLANCOMMON
1000
AcRTDxfName
1000
AEC_DISPROPSMASSELEMPLANCOMMON
1000
AcRTDxfName
1000
AEC_DISPROPSMASSELEMPLANCOMMON
1000
AcRTDxfName
1000
AEC_DISPROPSMASSELEMPLANCOMMON
1000
AcRTDxfName
1000
AEC_DISPROPSMASSELEMPLANCOMMON
1000
AcRTDxfName
1000
AEC_DISPROPSMASSELEMPLANCOMMON
1000
AcRTDxfName
1000
AEC_DISPROPSMASSELEMPLANCOMMON
1000
AcRTDxfName
1000
AEC_DISPROPSMASSELEMPLANCOMMON
1000
AcRTDxfName
1000
AEC_DISPROPSMASSELEMPLANCOMMON
  0
ACAD_PROXY_OBJECT
  5
36583E
102
{ACAD_REACTORS
330
365808
102
}
330
365808
100
AcDbProxyObject
 90
      499
 91
      561
 95
   524319
 70
     0
 93
      171
310
51B4D146518005194651BFFFFFFFFFFFD0240A810020
1001
ACAD
1000
AcRTDxfName
1000
AEC_DISP_PROPS_POLYGON_TRUECOLOUR
1000
AcRTDxfName
1000
AEC_DISP_PROPS_POLYGON_TRUECOLOUR
1000
AcRTDxfName
1000
AEC_DISP_PROPS_POLYGON_TRUECOLOUR
1000
AcRTDxfName
1000
AEC_DISP_PROPS_POLYGON_TRUECOLOUR
1000
AcRTDxfName
1000
AEC_DISP_PROPS_POLYGON_TRUECOLOUR
1000
AcRTDxfName
1000
AEC_DISP_PROPS_POLYGON_TRUECOLOUR
1000
AcRTDxfName
1000
AEC_DISP_PROPS_POLYGON_TRUECOLOUR
1000
AcRTDxfName
1000
AEC_DISP_PROPS_POLYGON_TRUECOLOUR
1000
AcRTDxfName
1000
AEC_DISP_PROPS_POLYGON_TRUECOLOUR
1000
AcRTDxfName
1000
AEC_DISP_PROPS_POLYGON_TRUECOLOUR
1000
AcRTDxfName
1000
AEC_DISP_PROPS_POLYGON_TRUECOLOUR
1000
AcRTDxfName
1000
AEC_DISP_PROPS_POLYGON_TRUECOLOUR
1000
AcRTDxfName
1000
AEC_DISP_PROPS_POLYGON_TRUECOLOUR
1000
AcRTDxfName
1000
AEC_DISP_PROPS_POLYGON_TRUECOLOUR
1000
AcRTDxfName
1000
AEC_DISP_PROPS_POLYGON_TRUECOLOUR
  0
ACAD_PROXY_OBJECT
  5
365840
102
{ACAD_REACTORS
330
365808
102
}
330
365808
100
AcDbProxyObject
 90
      499
 91
      563
 95
   524319
 70
     0
 93
      522
310
51B4D14651800519465194651903D0951946946C00000060801FDFEA035684A8CA34A3600000030400FEFF501AB4254651A51B000000182007F7FA80D5555509004B
340
F
340
12
340
0
340
F
340
12
340
0
340
F
340
12
340
0
 94
        0
1001
ACAD
1000
AcRTDxfName
1000
AEC_DISP_PROPS_SLICE
1000
AcRTDxfName
1000
AEC_DISP_PROPS_SLICE
1000
AcRTDxfName
1000
AEC_DISP_PROPS_SLICE
1000
AcRTDxfName
1000
AEC_DISP_PROPS_SLICE
1000
AcRTDxfName
1000
AEC_DISP_PROPS_SLICE
1000
AcRTDxfName
1000
AEC_DISP_PROPS_SLICE
1000
AcRTDxfName
1000
AEC_DISP_PROPS_SLICE
1000
AcRTDxfName
1000
AEC_DISP_PROPS_SLICE
1000
AcRTDxfName
1000
AEC_DISP_PROPS_SLICE
1000
AcRTDxfName
1000
AEC_DISP_PROPS_SLICE
1000
AcRTDxfName
1000
AEC_DISP_PROPS_SLICE
1000
AcRTDxfName
1000
AEC_DISP_PROPS_SLICE
1000
AcRTDxfName
1000
AEC_DISP_PROPS_SLICE
1000
AcRTDxfName
1000
AEC_DISP_PROPS_SLICE
1000
AcRTDxfName
1000
AEC_DISP_PROPS_SLICE
  0
ACAD_PROXY_OBJECT
  5
365830
102
{ACAD_REACTORS
330
365808
102
}
330
365808
100
AcDbProxyObject
 90
      499
 91
      548
 95
   524319
 70
     0
 93
      403
310
51B4D146518005194651A5194640B4254651A51B000000182007F7FA80A035A12A328D28D8000000C1003FBFD406AAAA838030
340
F
340
12
340
0
340
F
340
12
340
0
 94
        0
1001
ACAD
1000
AcRTDxfName
1000
AEC_DISP_PROPS_MASS_GROUP
1000
AcRTDxfName
1000
AEC_DISP_PROPS_MASS_GROUP
1000
AcRTDxfName
1000
AEC_DISP_PROPS_MASS_GROUP
1000
AcRTDxfName
1000
AEC_DISP_PROPS_MASS_GROUP
1000
AcRTDxfName
1000
AEC_DISP_PROPS_MASS_GROUP
1000
AcRTDxfName
1000
AEC_DISP_PROPS_MASS_GROUP
1000
AcRTDxfName
1000
AEC_DISP_PROPS_MASS_GROUP
1000
AcRTDxfName
1000
AEC_DISP_PROPS_MASS_GROUP
1000
AcRTDxfName
1000
AEC_DISP_PROPS_MASS_GROUP
1000
AcRTDxfName
1000
AEC_DISP_PROPS_MASS_GROUP
1000
AcRTDxfName
1000
AEC_DISP_PROPS_MASS_GROUP
1000
AcRTDxfName
1000
AEC_DISP_PROPS_MASS_GROUP
1000
AcRTDxfName
1000
AEC_DISP_PROPS_MASS_GROUP
1000
AcRTDxfName
1000
AEC_DISP_PROPS_MASS_GROUP
1000
AcRTDxfName
1000
AEC_DISP_PROPS_MASS_GROUP
  0
ACAD_PROXY_OBJECT
  5
365845
102
{ACAD_REACTORS
330
365808
102
}
330
365808
100
AcDbProxyObject
 90
      499
 91
      568
 95
   524319
 70
     0
 93
     2230
310
51B4D14651800519465194651905D0951946946C00000060801FDFEA035684A8CA34A3600000030400FEFF501AB4254651A51B000000182007F7FA80D5A12A328D28D8000000C1003FBFD406AD0951946946C00000060801FDFEA03528CA3207A14A328D28C8000000C1003FBFD406A51A0000000000000E100182D4454FB2
310
1E93F00000000000005080A568528CA34A3200000030400FEFF501A94680000000000003840060B51153EC87A4FC0000000000001420295A14A328D28C8000000C1003FBFD406A51A0000000000000E100182D4454FB21E93F00000000000005080A555555555483A080270029802480188019801880520E82009C00A60092
310
00620066006201483A0802700298024801880198018804B00F
340
F
340
12
340
0
340
F
340
12
340
0
340
F
340
12
340
0
340
F
340
12
340
0
340
F
340
12
340
0
340
F
340
12
340
0
340
F
340
12
340
0
340
F
340
12
340
0
340
0
340
0
340
0
 94
        0
1001
ACAD
1000
AcRTDxfName
1000
AEC_DISP_PROPS_MATERIAL
1000
AcRTDxfName
1000
AEC_DISP_PROPS_MATERIAL
1000
AcRTDxfName
1000
AEC_DISP_PROPS_MATERIAL
1000
AcRTDxfName
1000
AEC_DISP_PROPS_MATERIAL
1000
AcRTDxfName
1000
AEC_DISP_PROPS_MATERIAL
1000
AcRTDxfName
1000
AEC_DISP_PROPS_MATERIAL
1000
AcRTDxfName
1000
AEC_DISP_PROPS_MATERIAL
1000
AcRTDxfName
1000
AEC_DISP_PROPS_MATERIAL
1000
AcRTDxfName
1000
AEC_DISP_PROPS_MATERIAL
1000
AcRTDxfName
1000
AEC_DISP_PROPS_MATERIAL
1000
AcRTDxfName
1000
AEC_DISP_PROPS_MATERIAL
1000
AcRTDxfName
1000
AEC_DISP_PROPS_MATERIAL
1000
AcRTDxfName
1000
AEC_DISP_PROPS_MATERIAL
1000
AcRTDxfName
1000
AEC_DISP_PROPS_MATERIAL
1000
AcRTDxfName
1000
AEC_DISP_PROPS_MATERIAL
  0
ACAD_PROXY_OBJECT
  5
365847
102
{ACAD_REACTORS
330
365808
102
}
330
365808
100
AcDbProxyObject
 90
      499
 91
      570
 95
   524319
 70
     0
 93
      994
310
51B4D14651800519465194651904D0951946946C00000060801FDFEA03568528CA34A3200000030400FEFF501A94680000000000003840060B51153EC87A4FC0000000000001420295A12A328D28D8000000C1003FBFD406AD0951946946C00000060801FDFEA035555483A0802700298024801880198018805548006A
340
F
340
12
340
0
340
F
340
12
340
0
340
F
340
12
340
0
340
F
340
12
340
0
 94
        0
1001
ACAD
1000
AcRTDxfName
1000
AEC_DISP_PROPS_EDITINPLACEPROFILE_MODEL
1000
AcRTDxfName
1000
AEC_DISP_PROPS_EDITINPLACEPROFILE_MODEL
1000
AcRTDxfName
1000
AEC_DISP_PROPS_EDITINPLACEPROFILE_MODEL
1000
AcRTDxfName
1000
AEC_DISP_PROPS_EDITINPLACEPROFILE_MODEL
1000
AcRTDxfName
1000
AEC_DISP_PROPS_EDITINPLACEPROFILE_MODEL
1000
AcRTDxfName
1000
AEC_DISP_PROPS_EDITINPLACEPROFILE_MODEL
1000
AcRTDxfName
1000
AEC_DISP_PROPS_EDITINPLACEPROFILE_MODEL
1000
AcRTDxfName
1000
AEC_DISP_PROPS_EDITINPLACEPROFILE_MODEL
1000
AcRTDxfName
1000
AEC_DISP_PROPS_EDITINPLACEPROFILE_MODEL
1000
AcRTDxfName
1000
AEC_DISP_PROPS_EDITINPLACEPROFILE_MODEL
1000
AcRTDxfName
1000
AEC_DISP_PROPS_EDITINPLACEPROFILE_MODEL
1000
AcRTDxfName
1000
AEC_DISP_PROPS_EDITINPLACEPROFILE_MODEL
1000
AcRTDxfName
1000
AEC_DISP_PROPS_EDITINPLACEPROFILE_MODEL
1000
AcRTDxfName
1000
AEC_DISP_PROPS_EDITINPLACEPROFILE_MODEL
1000
AcRTDxfName
1000
AEC_DISP_PROPS_EDITINPLACEPROFILE_MODEL
  0
ACAD_PROXY_OBJECT
  5
365824
102
{ACAD_REACTORS
330
365808
102
}
330
365808
100
AcDbProxyObject
 90
      499
 91
      541
 95
   524319
 70
     0
 93
      881
310
51B4D14651800519465194651903D0951946946C00000060801FDFEA0280D684A8CA34A3200000030400FEFF501AB4294651A519000000182007F7FA80A034A340000000000001C200305A88A9F643D27E0000000000000A1014AAAAA90741004E00530049003100330031008C00EB
340
F
340
12
340
0
340
F
340
12
340
0
340
F
340
12
340
0
 94
        0
1001
ACAD
1000
AcRTDxfName
1000
AEC_DISP_PROPS_MASS_ELEM_MODEL
1000
AcRTDxfName
1000
AEC_DISP_PROPS_MASS_ELEM_MODEL
1000
AcRTDxfName
1000
AEC_DISP_PROPS_MASS_ELEM_MODEL
1000
AcRTDxfName
1000
AEC_DISP_PROPS_MASS_ELEM_MODEL
1000
AcRTDxfName
1000
AEC_DISP_PROPS_MASS_ELEM_MODEL
1000
AcRTDxfName
1000
AEC_DISP_PROPS_MASS_ELEM_MODEL
1000
AcRTDxfName
1000
AEC_DISP_PROPS_MASS_ELEM_MODEL
1000
AcRTDxfName
1000
AEC_DISP_PROPS_MASS_ELEM_MODEL
1000
AcRTDxfName
1000
AEC_DISP_PROPS_MASS_ELEM_MODEL
1000
AcRTDxfName
1000
AEC_DISP_PROPS_MASS_ELEM_MODEL
1000
AcRTDxfName
1000
AEC_DISP_PROPS_MASS_ELEM_MODEL
1000
AcRTDxfName
1000
AEC_DISP_PROPS_MASS_ELEM_MODEL
1000
AcRTDxfName
1000
AEC_DISP_PROPS_MASS_ELEM_MODEL
1000
AcRTDxfName
1000
AEC_DISP_PROPS_MASS_ELEM_MODEL
1000
AcRTDxfName
1000
AEC_DISP_PROPS_MASS_ELEM_MODEL
  0
ACAD_PROXY_OBJECT
  5
365811
102
{ACAD_REACTORS
330
365808
102
}
330
365808
100
AcDbProxyObject
 90
      499
 91
      522
 95
   524319
 70
     0
 93
      522
310
51B4D14651800519465194651903D0951946946C00000060801FDFEA035684A8CA34A3600000030400FEFF501AB4254651A51B000000182007F7FA80D5555509004B
340
F
340
12
340
0
340
F
340
12
340
0
340
F
340
12
340
0
 94
        0
1001
ACAD
1000
AcRTDxfName
1000
AEC_DISP_PROPS_CLIP_VOLUME
1000
AcRTDxfName
1000
AEC_DISP_PROPS_CLIP_VOLUME
1000
AcRTDxfName
1000
AEC_DISP_PROPS_CLIP_VOLUME
1000
AcRTDxfName
1000
AEC_DISP_PROPS_CLIP_VOLUME
1000
AcRTDxfName
1000
AEC_DISP_PROPS_CLIP_VOLUME
1000
AcRTDxfName
1000
AEC_DISP_PROPS_CLIP_VOLUME
1000
AcRTDxfName
1000
AEC_DISP_PROPS_CLIP_VOLUME
1000
AcRTDxfName
1000
AEC_DISP_PROPS_CLIP_VOLUME
1000
AcRTDxfName
1000
AEC_DISP_PROPS_CLIP_VOLUME
1000
AcRTDxfName
1000
AEC_DISP_PROPS_CLIP_VOLUME
1000
AcRTDxfName
1000
AEC_DISP_PROPS_CLIP_VOLUME
1000
AcRTDxfName
1000
AEC_DISP_PROPS_CLIP_VOLUME
1000
AcRTDxfName
1000
AEC_DISP_PROPS_CLIP_VOLUME
1000
AcRTDxfName
1000
AEC_DISP_PROPS_CLIP_VOLUME
1000
AcRTDxfName
1000
AEC_DISP_PROPS_CLIP_VOLUME
  0
ACAD_PROXY_OBJECT
  5
36583C
102
{ACAD_REACTORS
330
365808
102
}
330
365808
100
AcDbProxyObject
 90
      499
 91
      559
 95
   524319
 70
     0
 93
     1595
310
51B4D14651800519465194651906D0951946946C00000060801FDFEA035684A8CA34A3600000030400FEFF501AB4254651A51B000000182007F7FA80D5A12A328D28D8000000C1003FBFD406AD0A51946946400000060801FDFEA03528D000000000000070800C16A22A7D90F49F8000000000000284052B4294651A519000
310
000182007F7FA80D4A340000000000001C200305A88A9F643D27E0000000000000A1014AAAAAAA90741004E0053004900310033003100A41D040138014C012400C400CC00C40048065
340
F
340
12
340
0
340
F
340
12
340
0
340
F
340
12
340
0
340
F
340
12
340
0
340
F
340
12
340
0
340
F
340
12
340
0
 94
        0
1001
ACAD
1000
AcRTDxfName
1000
AEC_DISP_PROPS_POLYGON_MODEL
1000
AcRTDxfName
1000
AEC_DISP_PROPS_POLYGON_MODEL
1000
AcRTDxfName
1000
AEC_DISP_PROPS_POLYGON_MODEL
1000
AcRTDxfName
1000
AEC_DISP_PROPS_POLYGON_MODEL
1000
AcRTDxfName
1000
AEC_DISP_PROPS_POLYGON_MODEL
1000
AcRTDxfName
1000
AEC_DISP_PROPS_POLYGON_MODEL
1000
AcRTDxfName
1000
AEC_DISP_PROPS_POLYGON_MODEL
1000
AcRTDxfName
1000
AEC_DISP_PROPS_POLYGON_MODEL
1000
AcRTDxfName
1000
AEC_DISP_PROPS_POLYGON_MODEL
1000
AcRTDxfName
1000
AEC_DISP_PROPS_POLYGON_MODEL
1000
AcRTDxfName
1000
AEC_DISP_PROPS_POLYGON_MODEL
1000
AcRTDxfName
1000
AEC_DISP_PROPS_POLYGON_MODEL
1000
AcRTDxfName
1000
AEC_DISP_PROPS_POLYGON_MODEL
1000
AcRTDxfName
1000
AEC_DISP_PROPS_POLYGON_MODEL
1000
AcRTDxfName
1000
AEC_DISP_PROPS_POLYGON_MODEL
  0
ACAD_PROXY_OBJECT
  5
365816
102
{ACAD_REACTORS
330
365808
102
}
330
365808
100
AcDbProxyObject
 90
      499
 91
      528
 95
   524319
 70
     0
 93
     1123
310
51B4D14651800519465194651905D0951946946C00000060801FDFEA03568528CA34A3200000030400FEFF501A94680000000000003840060B51153EC87A4FC0000000000001420295A12A328D28D8000000C1003FBFD406AD0951946946C00000060801FDFEA035684A8CA34A3600000030400FEFF501AAAAA41D04013801
310
4C012400C400CC00C402AAA50020
340
F
340
12
340
0
340
F
340
12
340
0
340
F
340
12
340
0
340
F
340
12
340
0
340
F
340
12
340
0
 94
        0
1001
ACAD
1000
AcRTDxfName
1000
AEC_DISP_PROPS_DISPLAYTHEME
1000
AcRTDxfName
1000
AEC_DISP_PROPS_DISPLAYTHEME
1000
AcRTDxfName
1000
AEC_DISP_PROPS_DISPLAYTHEME
1000
AcRTDxfName
1000
AEC_DISP_PROPS_DISPLAYTHEME
1000
AcRTDxfName
1000
AEC_DISP_PROPS_DISPLAYTHEME
1000
AcRTDxfName
1000
AEC_DISP_PROPS_DISPLAYTHEME
1000
AcRTDxfName
1000
AEC_DISP_PROPS_DISPLAYTHEME
1000
AcRTDxfName
1000
AEC_DISP_PROPS_DISPLAYTHEME
1000
AcRTDxfName
1000
AEC_DISP_PROPS_DISPLAYTHEME
1000
AcRTDxfName
1000
AEC_DISP_PROPS_DISPLAYTHEME
1000
AcRTDxfName
1000
AEC_DISP_PROPS_DISPLAYTHEME
1000
AcRTDxfName
1000
AEC_DISP_PROPS_DISPLAYTHEME
1000
AcRTDxfName
1000
AEC_DISP_PROPS_DISPLAYTHEME
1000
AcRTDxfName
1000
AEC_DISP_PROPS_DISPLAYTHEME
1000
AcRTDxfName
1000
AEC_DISP_PROPS_DISPLAYTHEME
  0
ACAD_PROXY_OBJECT
  5
365818
102
{ACAD_REACTORS
330
365808
102
}
330
365808
100
AcDbProxyObject
 90
      499
 91
      530
 95
   524319
 70
     0
 93
      395
310
51B4D146518005194651A5194640B4254651A51B000000182007F7FA80D5A12A328D28D8000000C1003FBFD406AAAA838020
340
F
340
12
340
0
340
F
340
12
340
0
 94
        0
1001
ACAD
1000
AcRTDxfName
1000
AEC_DISP_PROPS_ENT_REF
1000
AcRTDxfName
1000
AEC_DISP_PROPS_ENT_REF
1000
AcRTDxfName
1000
AEC_DISP_PROPS_ENT_REF
1000
AcRTDxfName
1000
AEC_DISP_PROPS_ENT_REF
1000
AcRTDxfName
1000
AEC_DISP_PROPS_ENT_REF
1000
AcRTDxfName
1000
AEC_DISP_PROPS_ENT_REF
1000
AcRTDxfName
1000
AEC_DISP_PROPS_ENT_REF
1000
AcRTDxfName
1000
AEC_DISP_PROPS_ENT_REF
1000
AcRTDxfName
1000
AEC_DISP_PROPS_ENT_REF
1000
AcRTDxfName
1000
AEC_DISP_PROPS_ENT_REF
1000
AcRTDxfName
1000
AEC_DISP_PROPS_ENT_REF
1000
AcRTDxfName
1000
AEC_DISP_PROPS_ENT_REF
1000
AcRTDxfName
1000
AEC_DISP_PROPS_ENT_REF
1000
AcRTDxfName
1000
AEC_DISP_PROPS_ENT_REF
1000
AcRTDxfName
1000
AEC_DISP_PROPS_ENT_REF
  0
ACAD_PROXY_OBJECT
  5
365843
102
{ACAD_REACTORS
330
365808
102
}
330
365808
100
AcDbProxyObject
 90
      499
 91
      566
 95
   524319
 70
     0
 93
      232
310
51B4D146518005194651B4254651A51B000000182007F7FA80D5541001
340
F
340
12
340
0
 94
        0
1001
ACAD
1000
AcRTDxfName
1000
AEC_DISP_PROPS_ENT
1000
AcRTDxfName
1000
AEC_DISP_PROPS_ENT
1000
AcRTDxfName
1000
AEC_DISP_PROPS_ENT
1000
AcRTDxfName
1000
AEC_DISP_PROPS_ENT
1000
AcRTDxfName
1000
AEC_DISP_PROPS_ENT
1000
AcRTDxfName
1000
AEC_DISP_PROPS_ENT
1000
AcRTDxfName
1000
AEC_DISP_PROPS_ENT
1000
AcRTDxfName
1000
AEC_DISP_PROPS_ENT
1000
AcRTDxfName
1000
AEC_DISP_PROPS_ENT
1000
AcRTDxfName
1000
AEC_DISP_PROPS_ENT
1000
AcRTDxfName
1000
AEC_DISP_PROPS_ENT
1000
AcRTDxfName
1000
AEC_DISP_PROPS_ENT
1000
AcRTDxfName
1000
AEC_DISP_PROPS_ENT
1000
AcRTDxfName
1000
AEC_DISP_PROPS_ENT
1000
AcRTDxfName
1000
AEC_DISP_PROPS_ENT
  0
ACAD_PROXY_OBJECT
  5
36581C
102
{ACAD_REACTORS
330
365808
102
}
330
365808
100
AcDbProxyObject
 90
      499
 91
      534
 95
   524319
 70
     0
 93
      653
310
51B4D14651800519465194651904D0951946946400000060801FDFEA035684A8CA34A3200000030400FEFF501AB4254651A51B000000182007F7FA80D5A12A328D28D8000000C1003FBFD406A6AAAAA1600D
340
F
340
12
340
0
340
F
340
12
340
0
340
F
340
12
340
0
340
F
340
12
340
0
 94
        0
1001
ACAD
1000
AcRTDxfName
1000
AEC_DISP_PROPS_LAYOUT_GRID2D
1000
AcRTDxfName
1000
AEC_DISP_PROPS_LAYOUT_GRID2D
1000
AcRTDxfName
1000
AEC_DISP_PROPS_LAYOUT_GRID2D
1000
AcRTDxfName
1000
AEC_DISP_PROPS_LAYOUT_GRID2D
1000
AcRTDxfName
1000
AEC_DISP_PROPS_LAYOUT_GRID2D
1000
AcRTDxfName
1000
AEC_DISP_PROPS_LAYOUT_GRID2D
1000
AcRTDxfName
1000
AEC_DISP_PROPS_LAYOUT_GRID2D
1000
AcRTDxfName
1000
AEC_DISP_PROPS_LAYOUT_GRID2D
1000
AcRTDxfName
1000
AEC_DISP_PROPS_LAYOUT_GRID2D
1000
AcRTDxfName
1000
AEC_DISP_PROPS_LAYOUT_GRID2D
1000
AcRTDxfName
1000
AEC_DISP_PROPS_LAYOUT_GRID2D
1000
AcRTDxfName
1000
AEC_DISP_PROPS_LAYOUT_GRID2D
1000
AcRTDxfName
1000
AEC_DISP_PROPS_LAYOUT_GRID2D
1000
AcRTDxfName
1000
AEC_DISP_PROPS_LAYOUT_GRID2D
1000
AcRTDxfName
1000
AEC_DISP_PROPS_LAYOUT_GRID2D
  0
ACAD_PROXY_OBJECT
  5
36581E
102
{ACAD_REACTORS
330
365808
102
}
330
365808
100
AcDbProxyObject
 90
      499
 91
      536
 95
   524319
 70
     0
 93
      824
310
51B4D14651800519465194651904D0951946946400000060801FDFEA035684A8CA34A3200000030400FEFF501AB4254651A51B000000182007F7FA80D5A12A328D28D8000000C1003FBFD406A546519464074254651A51B000000182007F7FA80D555555543801
340
F
340
12
340
0
340
F
340
12
340
0
340
F
340
12
340
0
340
F
340
12
340
0
340
F
340
12
340
0
 94
        0
1001
ACAD
1000
AcRTDxfName
1000
AEC_DISP_PROPS_LAYOUT_GRID3D
1000
AcRTDxfName
1000
AEC_DISP_PROPS_LAYOUT_GRID3D
1000
AcRTDxfName
1000
AEC_DISP_PROPS_LAYOUT_GRID3D
1000
AcRTDxfName
1000
AEC_DISP_PROPS_LAYOUT_GRID3D
1000
AcRTDxfName
1000
AEC_DISP_PROPS_LAYOUT_GRID3D
1000
AcRTDxfName
1000
AEC_DISP_PROPS_LAYOUT_GRID3D
1000
AcRTDxfName
1000
AEC_DISP_PROPS_LAYOUT_GRID3D
1000
AcRTDxfName
1000
AEC_DISP_PROPS_LAYOUT_GRID3D
1000
AcRTDxfName
1000
AEC_DISP_PROPS_LAYOUT_GRID3D
1000
AcRTDxfName
1000
AEC_DISP_PROPS_LAYOUT_GRID3D
1000
AcRTDxfName
1000
AEC_DISP_PROPS_LAYOUT_GRID3D
1000
AcRTDxfName
1000
AEC_DISP_PROPS_LAYOUT_GRID3D
1000
AcRTDxfName
1000
AEC_DISP_PROPS_LAYOUT_GRID3D
1000
AcRTDxfName
1000
AEC_DISP_PROPS_LAYOUT_GRID3D
1000
AcRTDxfName
1000
AEC_DISP_PROPS_LAYOUT_GRID3D
  0
ACAD_PROXY_OBJECT
  5
36580F
102
{ACAD_REACTORS
330
365808
102
}
330
365808
100
AcDbProxyObject
 90
      499
 91
      522
 95
   524319
 70
     0
 93
      522
310
51B4D14651800519465194651903D0951946946C00000060801FDFEA035684A8CA34A3600000030400FEFF501AB4254651A51B000000182007F7FA80D5555509004B
340
F
340
12
340
0
340
F
340
12
340
0
340
F
340
12
340
0
 94
        0
1001
ACAD
1000
AcRTDxfName
1000
AEC_DISP_PROPS_CLIP_VOLUME
1000
AcRTDxfName
1000
AEC_DISP_PROPS_CLIP_VOLUME
1000
AcRTDxfName
1000
AEC_DISP_PROPS_CLIP_VOLUME
1000
AcRTDxfName
1000
AEC_DISP_PROPS_CLIP_VOLUME
1000
AcRTDxfName
1000
AEC_DISP_PROPS_CLIP_VOLUME
1000
AcRTDxfName
1000
AEC_DISP_PROPS_CLIP_VOLUME
1000
AcRTDxfName
1000
AEC_DISP_PROPS_CLIP_VOLUME
1000
AcRTDxfName
1000
AEC_DISP_PROPS_CLIP_VOLUME
1000
AcRTDxfName
1000
AEC_DISP_PROPS_CLIP_VOLUME
1000
AcRTDxfName
1000
AEC_DISP_PROPS_CLIP_VOLUME
1000
AcRTDxfName
1000
AEC_DISP_PROPS_CLIP_VOLUME
1000
AcRTDxfName
1000
AEC_DISP_PROPS_CLIP_VOLUME
1000
AcRTDxfName
1000
AEC_DISP_PROPS_CLIP_VOLUME
1000
AcRTDxfName
1000
AEC_DISP_PROPS_CLIP_VOLUME
1000
AcRTDxfName
1000
AEC_DISP_PROPS_CLIP_VOLUME
  0
ACAD_PROXY_OBJECT
  5
365822
102
{ACAD_REACTORS
330
365808
102
}
330
365808
100
AcDbProxyObject
 90
      499
 91
      538
 95
   524319
 70
     0
 93
      393
310
51B4D14651800519465194651902D0951946946C00000060801FDFEA035684A8CA34A3600000030400FEFF501AAAAA0E00A0
340
F
340
12
340
0
340
F
340
12
340
0
 94
        0
1001
ACAD
1000
AcRTDxfName
1000
AEC_DISP_PROPS_MASKBLOCK
1000
AcRTDxfName
1000
AEC_DISP_PROPS_MASKBLOCK
1000
AcRTDxfName
1000
AEC_DISP_PROPS_MASKBLOCK
1000
AcRTDxfName
1000
AEC_DISP_PROPS_MASKBLOCK
1000
AcRTDxfName
1000
AEC_DISP_PROPS_MASKBLOCK
1000
AcRTDxfName
1000
AEC_DISP_PROPS_MASKBLOCK
1000
AcRTDxfName
1000
AEC_DISP_PROPS_MASKBLOCK
1000
AcRTDxfName
1000
AEC_DISP_PROPS_MASKBLOCK
1000
AcRTDxfName
1000
AEC_DISP_PROPS_MASKBLOCK
1000
AcRTDxfName
1000
AEC_DISP_PROPS_MASKBLOCK
1000
AcRTDxfName
1000
AEC_DISP_PROPS_MASKBLOCK
1000
AcRTDxfName
1000
AEC_DISP_PROPS_MASKBLOCK
1000
AcRTDxfName
1000
AEC_DISP_PROPS_MASKBLOCK
1000
AcRTDxfName
1000
AEC_DISP_PROPS_MASKBLOCK
1000
AcRTDxfName
1000
AEC_DISP_PROPS_MASKBLOCK
  0
ACAD_PROXY_OBJECT
  5
365826
102
{ACAD_REACTORS
330
365808
102
}
330
365808
100
AcDbProxyObject
 90
      499
 91
      541
 95
   524319
 70
     0
 93
      881
310
51B4D14651800519465194651903D0951946946C00000060801FDFEA0280D684A8CA34A3200000030400FEFF501AB4294651A519000000182007F7FA80A034A340000000000001C200305A88A9F643D27E0000000000000A1014AAAAA90741004E00530049003100330031008C00EB
340
F
340
12
340
0
340
F
340
12
340
0
340
F
340
12
340
0
 94
        0
1001
ACAD
1000
AcRTDxfName
1000
AEC_DISP_PROPS_MASS_ELEM_MODEL
1000
AcRTDxfName
1000
AEC_DISP_PROPS_MASS_ELEM_MODEL
1000
AcRTDxfName
1000
AEC_DISP_PROPS_MASS_ELEM_MODEL
1000
AcRTDxfName
1000
AEC_DISP_PROPS_MASS_ELEM_MODEL
1000
AcRTDxfName
1000
AEC_DISP_PROPS_MASS_ELEM_MODEL
1000
AcRTDxfName
1000
AEC_DISP_PROPS_MASS_ELEM_MODEL
1000
AcRTDxfName
1000
AEC_DISP_PROPS_MASS_ELEM_MODEL
1000
AcRTDxfName
1000
AEC_DISP_PROPS_MASS_ELEM_MODEL
1000
AcRTDxfName
1000
AEC_DISP_PROPS_MASS_ELEM_MODEL
1000
AcRTDxfName
1000
AEC_DISP_PROPS_MASS_ELEM_MODEL
1000
AcRTDxfName
1000
AEC_DISP_PROPS_MASS_ELEM_MODEL
1000
AcRTDxfName
1000
AEC_DISP_PROPS_MASS_ELEM_MODEL
1000
AcRTDxfName
1000
AEC_DISP_PROPS_MASS_ELEM_MODEL
1000
AcRTDxfName
1000
AEC_DISP_PROPS_MASS_ELEM_MODEL
1000
AcRTDxfName
1000
AEC_DISP_PROPS_MASS_ELEM_MODEL
  0
ACAD_PROXY_OBJECT
  5
365828
102
{ACAD_REACTORS
330
365808
102
}
330
365808
100
AcDbProxyObject
 90
      499
 91
      544
 95
   524319
 70
     0
 93
     1191
310
51B4D14651800519465194651903D0951946946C00000060801FDFEA035684A8CA34A3200000030400FEFF501AB4294651A519000000182007F7FA80A034A340000000000001C200305A88A9F643D27E0000000000000A1014A5194651902D0951946946C00000060801FDFEA0280D684A8CA34A3600000030400FEFF501AA
310
00AAAA90741004E0053004900310033003100AAA5803
340
F
340
12
340
0
340
F
340
12
340
0
340
F
340
12
340
0
340
F
340
12
340
0
340
F
340
12
340
0
 94
        0
1001
ACAD
1000
AcRTDxfName
1000
AEC_DISPROPSMASSELEMPLANCOMMON
1000
AcRTDxfName
1000
AEC_DISPROPSMASSELEMPLANCOMMON
1000
AcRTDxfName
1000
AEC_DISPROPSMASSELEMPLANCOMMON
1000
AcRTDxfName
1000
AEC_DISPROPSMASSELEMPLANCOMMON
1000
AcRTDxfName
1000
AEC_DISPROPSMASSELEMPLANCOMMON
1000
AcRTDxfName
1000
AEC_DISPROPSMASSELEMPLANCOMMON
1000
AcRTDxfName
1000
AEC_DISPROPSMASSELEMPLANCOMMON
1000
AcRTDxfName
1000
AEC_DISPROPSMASSELEMPLANCOMMON
1000
AcRTDxfName
1000
AEC_DISPROPSMASSELEMPLANCOMMON
1000
AcRTDxfName
1000
AEC_DISPROPSMASSELEMPLANCOMMON
1000
AcRTDxfName
1000
AEC_DISPROPSMASSELEMPLANCOMMON
1000
AcRTDxfName
1000
AEC_DISPROPSMASSELEMPLANCOMMON
1000
AcRTDxfName
1000
AEC_DISPROPSMASSELEMPLANCOMMON
1000
AcRTDxfName
1000
AEC_DISPROPSMASSELEMPLANCOMMON
1000
AcRTDxfName
1000
AEC_DISPROPSMASSELEMPLANCOMMON
  0
ACAD_PROXY_OBJECT
  5
36581A
102
{ACAD_REACTORS
330
365808
102
}
330
365808
100
AcDbProxyObject
 90
      499
 91
      532
 95
   524319
 70
     0
 93
      266
310
51B4D14651800519465194651901D0951946946C00000060801FDFEA035355050040
340
F
340
12
340
0
 94
        0
1001
ACAD
1000
AcRTDxfName
1000
AEC_DISP_PROPS_LAYOUT_CURVE
1000
AcRTDxfName
1000
AEC_DISP_PROPS_LAYOUT_CURVE
1000
AcRTDxfName
1000
AEC_DISP_PROPS_LAYOUT_CURVE
1000
AcRTDxfName
1000
AEC_DISP_PROPS_LAYOUT_CURVE
1000
AcRTDxfName
1000
AEC_DISP_PROPS_LAYOUT_CURVE
1000
AcRTDxfName
1000
AEC_DISP_PROPS_LAYOUT_CURVE
1000
AcRTDxfName
1000
AEC_DISP_PROPS_LAYOUT_CURVE
1000
AcRTDxfName
1000
AEC_DISP_PROPS_LAYOUT_CURVE
1000
AcRTDxfName
1000
AEC_DISP_PROPS_LAYOUT_CURVE
1000
AcRTDxfName
1000
AEC_DISP_PROPS_LAYOUT_CURVE
1000
AcRTDxfName
1000
AEC_DISP_PROPS_LAYOUT_CURVE
1000
AcRTDxfName
1000
AEC_DISP_PROPS_LAYOUT_CURVE
1000
AcRTDxfName
1000
AEC_DISP_PROPS_LAYOUT_CURVE
1000
AcRTDxfName
1000
AEC_DISP_PROPS_LAYOUT_CURVE
1000
AcRTDxfName
1000
AEC_DISP_PROPS_LAYOUT_CURVE
  0
ACAD_PROXY_OBJECT
  5
36582C
102
{ACAD_REACTORS
330
365808
102
}
330
365808
100
AcDbProxyObject
 90
      499
 91
      541
 95
   524319
 70
     0
 93
      881
310
51B4D14651800519465194651903D0951946946C00000060801FDFEA0280D684A8CA34A3200000030400FEFF501AB4294651A519000000182007F7FA80A034A340000000000001C200305A88A9F643D27E0000000000000A1014AAAAA90741004E00530049003100330031008C00EB
340
F
340
12
340
0
340
F
340
12
340
0
340
F
340
12
340
0
 94
        0
1001
ACAD
1000
AcRTDxfName
1000
AEC_DISP_PROPS_MASS_ELEM_MODEL
1000
AcRTDxfName
1000
AEC_DISP_PROPS_MASS_ELEM_MODEL
1000
AcRTDxfName
1000
AEC_DISP_PROPS_MASS_ELEM_MODEL
1000
AcRTDxfName
1000
AEC_DISP_PROPS_MASS_ELEM_MODEL
1000
AcRTDxfName
1000
AEC_DISP_PROPS_MASS_ELEM_MODEL
1000
AcRTDxfName
1000
AEC_DISP_PROPS_MASS_ELEM_MODEL
1000
AcRTDxfName
1000
AEC_DISP_PROPS_MASS_ELEM_MODEL
1000
AcRTDxfName
1000
AEC_DISP_PROPS_MASS_ELEM_MODEL
1000
AcRTDxfName
1000
AEC_DISP_PROPS_MASS_ELEM_MODEL
1000
AcRTDxfName
1000
AEC_DISP_PROPS_MASS_ELEM_MODEL
1000
AcRTDxfName
1000
AEC_DISP_PROPS_MASS_ELEM_MODEL
1000
AcRTDxfName
1000
AEC_DISP_PROPS_MASS_ELEM_MODEL
1000
AcRTDxfName
1000
AEC_DISP_PROPS_MASS_ELEM_MODEL
1000
AcRTDxfName
1000
AEC_DISP_PROPS_MASS_ELEM_MODEL
1000
AcRTDxfName
1000
AEC_DISP_PROPS_MASS_ELEM_MODEL
  0
ACAD_PROXY_OBJECT
  5
36582E
102
{ACAD_REACTORS
330
365808
102
}
330
365808
100
AcDbProxyObject
 90
      499
 91
      548
 95
   524319
 70
     0
 93
      403
310
51B4D146518005194651A5194640B4254651A51B000000182007F7FA80A035A12A328D28D8000000C1003FBFD406AAAA838030
340
F
340
12
340
0
340
F
340
12
340
0
 94
        0
1001
ACAD
1000
AcRTDxfName
1000
AEC_DISP_PROPS_MASS_GROUP
1000
AcRTDxfName
1000
AEC_DISP_PROPS_MASS_GROUP
1000
AcRTDxfName
1000
AEC_DISP_PROPS_MASS_GROUP
1000
AcRTDxfName
1000
AEC_DISP_PROPS_MASS_GROUP
1000
AcRTDxfName
1000
AEC_DISP_PROPS_MASS_GROUP
1000
AcRTDxfName
1000
AEC_DISP_PROPS_MASS_GROUP
1000
AcRTDxfName
1000
AEC_DISP_PROPS_MASS_GROUP
1000
AcRTDxfName
1000
AEC_DISP_PROPS_MASS_GROUP
1000
AcRTDxfName
1000
AEC_DISP_PROPS_MASS_GROUP
1000
AcRTDxfName
1000
AEC_DISP_PROPS_MASS_GROUP
1000
AcRTDxfName
1000
AEC_DISP_PROPS_MASS_GROUP
1000
AcRTDxfName
1000
AEC_DISP_PROPS_MASS_GROUP
1000
AcRTDxfName
1000
AEC_DISP_PROPS_MASS_GROUP
1000
AcRTDxfName
1000
AEC_DISP_PROPS_MASS_GROUP
1000
AcRTDxfName
1000
AEC_DISP_PROPS_MASS_GROUP
  0
ACAD_PROXY_OBJECT
  5
365820
102
{ACAD_REACTORS
330
365808
102
}
330
365808
100
AcDbProxyObject
 90
      499
 91
      538
 95
   524319
 70
     0
 93
      393
310
51B4D14651800519465194651902D0951946946C00000060801FDFEA035684A8CA34A3600000030400FEFF501AAAAA0E0080
340
F
340
12
340
0
340
F
340
12
340
0
 94
        0
1001
ACAD
1000
AcRTDxfName
1000
AEC_DISP_PROPS_MASKBLOCK
1000
AcRTDxfName
1000
AEC_DISP_PROPS_MASKBLOCK
1000
AcRTDxfName
1000
AEC_DISP_PROPS_MASKBLOCK
1000
AcRTDxfName
1000
AEC_DISP_PROPS_MASKBLOCK
1000
AcRTDxfName
1000
AEC_DISP_PROPS_MASKBLOCK
1000
AcRTDxfName
1000
AEC_DISP_PROPS_MASKBLOCK
1000
AcRTDxfName
1000
AEC_DISP_PROPS_MASKBLOCK
1000
AcRTDxfName
1000
AEC_DISP_PROPS_MASKBLOCK
1000
AcRTDxfName
1000
AEC_DISP_PROPS_MASKBLOCK
1000
AcRTDxfName
1000
AEC_DISP_PROPS_MASKBLOCK
1000
AcRTDxfName
1000
AEC_DISP_PROPS_MASKBLOCK
1000
AcRTDxfName
1000
AEC_DISP_PROPS_MASKBLOCK
1000
AcRTDxfName
1000
AEC_DISP_PROPS_MASKBLOCK
1000
AcRTDxfName
1000
AEC_DISP_PROPS_MASKBLOCK
1000
AcRTDxfName
1000
AEC_DISP_PROPS_MASKBLOCK
  0
ACAD_PROXY_OBJECT
  5
365832
102
{ACAD_REACTORS
330
365808
102
}
330
365808
100
AcDbProxyObject
 90
      499
 91
      551
 95
   524319
 70
     0
 93
     1193
310
51B4D146518005194651A5194640B4254651A51B000000182007F7FA80D5A12A328D28D8000000C1003FBFD406A5194651903D0951946946C00000060801FDFEA0280D68528CA34A3200000030400FEFF50140694680000000000003840060B51153EC87A4FC0000000000001420295A12A328D28D8000000C1003FBFD406A
310
802AAAAA90741004E0053004900310033003100A960080
340
F
340
12
340
0
340
F
340
12
340
0
340
F
340
12
340
0
340
F
340
12
340
0
340
F
340
12
340
0
 94
        0
1001
ACAD
1000
AcRTDxfName
1000
AEC_DISPROPSMASSGROUPPLANCOMMON
1000
AcRTDxfName
1000
AEC_DISPROPSMASSGROUPPLANCOMMON
1000
AcRTDxfName
1000
AEC_DISPROPSMASSGROUPPLANCOMMON
1000
AcRTDxfName
1000
AEC_DISPROPSMASSGROUPPLANCOMMON
1000
AcRTDxfName
1000
AEC_DISPROPSMASSGROUPPLANCOMMON
1000
AcRTDxfName
1000
AEC_DISPROPSMASSGROUPPLANCOMMON
1000
AcRTDxfName
1000
AEC_DISPROPSMASSGROUPPLANCOMMON
1000
AcRTDxfName
1000
AEC_DISPROPSMASSGROUPPLANCOMMON
1000
AcRTDxfName
1000
AEC_DISPROPSMASSGROUPPLANCOMMON
1000
AcRTDxfName
1000
AEC_DISPROPSMASSGROUPPLANCOMMON
1000
AcRTDxfName
1000
AEC_DISPROPSMASSGROUPPLANCOMMON
1000
AcRTDxfName
1000
AEC_DISPROPSMASSGROUPPLANCOMMON
1000
AcRTDxfName
1000
AEC_DISPROPSMASSGROUPPLANCOMMON
1000
AcRTDxfName
1000
AEC_DISPROPSMASSGROUPPLANCOMMON
1000
AcRTDxfName
1000
AEC_DISPROPSMASSGROUPPLANCOMMON
  0
ACAD_PROXY_OBJECT
  5
365834
102
{ACAD_REACTORS
330
365808
102
}
330
365808
100
AcDbProxyObject
 90
      499
 91
      551
 95
   524319
 70
     0
 93
     1193
310
51B4D146518005194651A5194640B4254651A51B000000182007F7FA80D5A12A328D28D8000000C1003FBFD406A5194651903D0951946946C00000060801FDFEA0280D68528CA34A3200000030400FEFF50140694680000000000003840060B51153EC87A4FC0000000000001420295A12A328D28D8000000C1003FBFD406A
310
802AAAAA90741004E0053004900310033003100A960080
340
F
340
12
340
0
340
F
340
12
340
0
340
F
340
12
340
0
340
F
340
12
340
0
340
F
340
12
340
0
 94
        0
1001
ACAD
1000
AcRTDxfName
1000
AEC_DISPROPSMASSGROUPPLANCOMMON
1000
AcRTDxfName
1000
AEC_DISPROPSMASSGROUPPLANCOMMON
1000
AcRTDxfName
1000
AEC_DISPROPSMASSGROUPPLANCOMMON
1000
AcRTDxfName
1000
AEC_DISPROPSMASSGROUPPLANCOMMON
1000
AcRTDxfName
1000
AEC_DISPROPSMASSGROUPPLANCOMMON
1000
AcRTDxfName
1000
AEC_DISPROPSMASSGROUPPLANCOMMON
1000
AcRTDxfName
1000
AEC_DISPROPSMASSGROUPPLANCOMMON
1000
AcRTDxfName
1000
AEC_DISPROPSMASSGROUPPLANCOMMON
1000
AcRTDxfName
1000
AEC_DISPROPSMASSGROUPPLANCOMMON
1000
AcRTDxfName
1000
AEC_DISPROPSMASSGROUPPLANCOMMON
1000
AcRTDxfName
1000
AEC_DISPROPSMASSGROUPPLANCOMMON
1000
AcRTDxfName
1000
AEC_DISPROPSMASSGROUPPLANCOMMON
1000
AcRTDxfName
1000
AEC_DISPROPSMASSGROUPPLANCOMMON
1000
AcRTDxfName
1000
AEC_DISPROPSMASSGROUPPLANCOMMON
1000
AcRTDxfName
1000
AEC_DISPROPSMASSGROUPPLANCOMMON
  0
ACAD_PROXY_OBJECT
  5
365805
102
{ACAD_REACTORS
330
365804
102
}
330
365804
100
AcDbProxyObject
 90
      499
 91
      518
 95
   524319
 70
     0
 93
     1888
310
51B4D146518005194651A8FC812095550000000000000B08000000000000008200000000000001807E8F2048F205000200001204000000000000581F8000000000000B0807EC3FA6DEBC0E99F8000000000001C07FE8FCC028FE07000041A4E2520CA600E2005C008C00E8005C008321803A80170023003A00170020898006
310
20064006001202DA008C2080248020801000140019001A801B00100021803780360037803900148010001000100010002080220019001A801B0021082008600820088008200A4008600900087A08032803180260030803C803280390029803A003200170032003B80338049C09
330
0
 94
        0
1001
ACAD
1000
AcRTDxfName
1000
AEC_VARS_DWG_SETUP
1000
AcRTDxfName
1000
AEC_VARS_DWG_SETUP
1000
AcRTDxfName
1000
AEC_VARS_DWG_SETUP
1000
AcRTDxfName
1000
AEC_VARS_DWG_SETUP
1000
AcRTDxfName
1000
AEC_VARS_DWG_SETUP
1000
AcRTDxfName
1000
AEC_VARS_DWG_SETUP
1000
AcRTDxfName
1000
AEC_VARS_DWG_SETUP
1000
AcRTDxfName
1000
AEC_VARS_DWG_SETUP
1000
AcRTDxfName
1000
AEC_VARS_DWG_SETUP
1000
AcRTDxfName
1000
AEC_VARS_DWG_SETUP
1000
AcRTDxfName
1000
AEC_VARS_DWG_SETUP
1000
AcRTDxfName
1000
AEC_VARS_DWG_SETUP
1000
AcRTDxfName
1000
AEC_VARS_DWG_SETUP
1000
AcRTDxfName
1000
AEC_VARS_DWG_SETUP
1000
AcRTDxfName
1000
AEC_VARS_DWG_SETUP
  0
DICTIONARY
  5
37C5F2
330
61A
100
AcDbDictionary
280
     1
281
     1
  3
ADSK_XREC_LAYOUTTHUMBNAIL
360
37C5F3
  0
XRECORD
  5
37C5F7
102
{ACAD_REACTORS
330
37C5F6
102
}
330
37C5F6
100
AcDbXrecord
280
     1
  1
AcDb_Thumbnail_Schema
102
{ATTRRECORD
341
37C5F9
  2
AcDbDs::TreatedAsObjectData
280
     1
291
     1
102
ATTRRECORD}
102
{ATTRRECORD
341
37C5FA
  2
AcDbDs::Legacy
280
     1
291
     1
102
ATTRRECORD}
  2
AcDbDs::ID
280
    10
 91
        8
102
{ATTRRECORD
341
37C5FB
  2
AcDs:Indexable
280
     1
291
     1
102
ATTRRECORD}
102
{ATTRRECORD
341
37C5FC
  2
AcDbDs::HandleAttribute
280
     7
282
     1
102
ATTRRECORD}
  2
Thumbnail_Data
280
    15
 91
        0
  0
XRECORD
  5
37C5F8
102
{ACAD_REACTORS
330
37C5F6
102
}
330
37C5F6
100
AcDbXrecord
280
     1
  1
AcDb3DSolid_ASM_Data
102
{ATTRRECORD
341
37C5F9
  2
AcDbDs::TreatedAsObjectData
280
     1
291
     1
102
ATTRRECORD}
102
{ATTRRECORD
341
37C5FA
  2
AcDbDs::Legacy
280
     1
291
     1
102
ATTRRECORD}
  2
AcDbDs::ID
280
    10
 91
        8
102
{ATTRRECORD
341
37C5FB
  2
AcDs:Indexable
280
     1
291
     1
102
ATTRRECORD}
102
{ATTRRECORD
341
37C5FC
  2
AcDbDs::HandleAttribute
280
     7
282
     1
102
ATTRRECORD}
  2
ASM_Data
280
    15
 91
        0
  0
XRECORD
  5
37C5F9
102
{ACAD_REACTORS
330
37C5F6
102
}
330
37C5F6
100
AcDbXrecord
280
     1
  1
AcDbDs::TreatedAsObjectDataSchema
  2
AcDbDs::TreatedAsObjectData
280
     1
 91
        0
  0
XRECORD
  5
37C5FA
102
{ACAD_REACTORS
330
37C5F6
102
}
330
37C5F6
100
AcDbXrecord
280
     1
  1
AcDbDs::LegacySchema
  2
AcDbDs::Legacy
280
     1
 91
        0
  0
XRECORD
  5
37C5FB
102
{ACAD_REACTORS
330
37C5F6
102
}
330
37C5F6
100
AcDbXrecord
280
     1
  1
AcDbDs::IndexedPropertySchema
  2
AcDs:Indexable
280
     1
 91
        0
  0
XRECORD
  5
37C5FC
102
{ACAD_REACTORS
330
37C5F6
102
}
330
37C5F6
100
AcDbXrecord
280
     1
  1
AcDbDs::HandleAttributeSchema
  2
AcDbDs::HandleAttribute
280
     7
 91
        1
284
     1
  0
XRECORD
  5
37C5F3
102
{ACAD_REACTORS
330
37C5F2
102
}
330
37C5F2
100
AcDbXrecord
280
     1
310
28000000B40000008B0000000100080000000000BC61000000000000000000000000000000000000FFFFFFFF000000FFFFFFFFFF000000FF000000FF000000FF000000FF000000FF000000FF000000FF000000FF330000FF660000FF990000FFCC0000FFFF0000FF003300FF333300FF663300FF993300FFCC3300FFFF3300
310
FF006600FF336600FF666600FF996600FFCC6600FFFF6600FF009900FF339900FF669900FF999900FFCC9900FFFF9900FF00CC00FF33CC00FF66CC00FF99CC00FFCCCC00FFFFCC00FF00FF00FF33FF00FF66FF00FF99FF00FFCCFF00FFFFFF00FF000033FF330033FF660033FF990033FFCC0033FFFF0033FF003333FF3333
310
33FF663333FF993333FFCC3333FFFF3333FF006633FF336633FF666633FF996633FFCC6633FFFF6633FF009933FF339933FF669933FF999933FFCC9933FFFF9933FF00CC33FF33CC33FF66CC33FF99CC33FFCCCC33FFFFCC33FF00FF33FF33FF33FF66FF33FF99FF33FFCCFF33FFFFFF33FF000066FF330066FF660066FF99
310
0066FFCC0066FFFF0066FF003366FF333366FF663366FF993366FFCC3366FFFF3366FF006666FF336666FF666666FF996666FFCC6666FFFF6666FF009966FF339966FF669966FF999966FFCC9966FFFF9966FF00CC66FF33CC66FF66CC66FF99CC66FFCCCC66FFFFCC66FF00FF66FF33FF66FF66FF66FF99FF66FFCCFF66FF
310
FFFF66FF000099FF330099FF660099FF990099FFCC0099FFFF0099FF003399FF333399FF663399FF993399FFCC3399FFFF3399FF006699FF336699FF666699FF996699FFCC6699FFFF6699FF009999FF339999FF669999FF999999FFCC9999FFFF9999FF00CC99FF33CC99FF66CC99FF99CC99FFCCCC99FFFFCC99FF00FF99
310
FF33FF99FF66FF99FF99FF99FFCCFF99FFFFFF99FF0000CCFF3300CCFF6600CCFF9900CCFFCC00CCFFFF00CCFF0033CCFF3333CCFF6633CCFF9933CCFFCC33CCFFFF33CCFF0066CCFF3366CCFF6666CCFF9966CCFFCC66CCFFFF66CCFF0099CCFF3399CCFF6699CCFF9999CCFFCC99CCFFFF99CCFF00CCCCFF33CCCCFF66CC
310
CCFF99CCCCFFCCCCCCFFFFCCCCFF00FFCCFF33FFCCFF66FFCCFF99FFCCFFCCFFCCFFFFFFCCFF0000FFFF3300FFFF6600FFFF9900FFFFCC00FFFFFF00FFFF0033FFFF3333FFFF6633FFFF9933FFFFCC33FFFFFF33FFFF0066FFFF3366FFFF6666FFFF9966FFFFCC66FFFFFF66FFFF0099FFFF3399FFFF6699FFFF9999FFFFCC
310
99FFFFFF99FFFF00CCFFFF33CCFFFF66CCFFFF99CCFFFFCCCCFFFFFFCCFFFF00FFFFFF33FFFFFF66FFFFFF99FFFFFFCCFFFFFFFFFFFFFF000000FF0D0D0DFF1A1A1AFF282828FF353535FF434343FF505050FF5D5D5DFF6B6B6BFF787878FF868686FF939393FFA1A1A1FFAEAEAEFFBBBBBBFFC9C9C9FFD6D6D6FFE4E4E4FF
310
F1F1F1FFFFFFFFFF000000FF000000FF000000FF000000FF000000FF000000FF000000FF000000FF000000FF000000FFE2E2E2E2E2E2E2E2E2E2E2E2E2E2E2E2E2E2E2E2E2E2E2E2E2E2E2E2E2E2E2E2E2E2E2E2E2E2E2E2E2E2E2E2E2E2E2E2E2E2E2E2E2E2E2E2E2E2E2E2E2E2E2E2E2E2E2E2E2E2E2E2E2E2E2E2E2E2E2
310
E2E2E2E2E2E2E2E2E2E2E2E2E2E2E2E2E2E2E2E2E2E2E2E2E2E2E2E2E2E2E2E2E2E2E2E2E2E2E2E2E2E2E2E2E2E2E2E2E2E2E2E2E2E2E2E2E2E2E2E2E2E2E2E2E2E2E2E2E2E2E2E2E2E2E2E2E2E2E2E2E2E2E2E2E2E2E2E2E2E2E2E2E2E2E2E2E2E2E2E2EFE2F5F5F5F5F5F5F5F5F5F5F5F5F5F5F5F5F5F5F5F5F5F5F5F5F5
310
F5F5F5F5F5F5F5F5F5F5F5F5F5F5F5F5F5F5F5F5F5F5F5F5F5F5F5F5F5F5F5F5F5F5F5F5F5F5F5F5F5F5F5F5F5F5F5F5F5F5F5F5F5F5F5F5F5F5F5F5F5F5F5F5F5F5F5F5F5F5F5F5F5F5F5F5F5F5F5F5F5F5F5F5F5F5F5F5F5F5F5F5F5F5F5F5F5F5F5F5F5F5F5F5F5F5F5F5F5F5F5F5F5F5F5F5F5F5F5F5F5F5F5F5F5F5F5
310
F5F5F5F5F5F5F5F5F5F5F5F5F5F5F5F5F5F5F5F5F5F5F5F5E2E2EFE2F5F5F5F5F5F5F5F5F5F5F5F5F5F5F5F5F5F5F5F5F5F5F5F5F5F5F5F5F5F5F5F5F5F5F5F5F5F5F5F5F5F5F5F5F5F5F5F5F5F5F5F5F5F5F5F5F5F5F5F5F5F5F5F5F5F5F5F5F5F5F5F5F5F5F5F5F5F5F5F5F5F5F5F5F5F5F5F5F5F5F5F5F5F5F5F5F5F5F5
310
F5F5F5F5F5F5F5F5F5F5F5F5F5F5F5F5F5F5F5F5F5F5F5F5F5F5F5F5F5F5F5F5F5F5F5F5F5F5F5F5F5F5F5F5F5F5F5F5F5F5F5F5F5F5F5F5F5F5F5F5F5F5F5F5F5F5F5F5F5F5F5F5F5F5F5F5F5E2E2EFE2F5F5F5F5F5F5F5F5F5F5F5F5F5F5F5F5F5F5F5F5F5F5F5F5F5F5F5F5F5F5F5F5F5F5F5F5F5F5F5F5F5F5F5F5F5F5
310
F5F5F5F5F5F5F5F5F5F5F5F5F5F5F5F5F5F5F5F5F5F5F5F5F5F5F5F5F5F5F5F5F5F5F5F5F5F5F5F5F5F5F5F5F5F5F5F5F5F5F5F5F5F5F5F5F5F5F5F5F5F5F5F5F5F5F5F5F5F5F5F5F5F5F5F5F5F5F5F5F5F5F5F5F5F5F5F5F5F5F5F5F5F5F5F5F5F5F5F5F5F5F5F5F5F5F5F5F5F5F5F5F5F5F5F5F5F5F5F5F5F5F5F5F5F5F5
310
F5F5F5E2E2EFE2F5F5F5E2E2E2E2E2E2E2E2F5F5F5F5F5F5F5F5F5E2E2E2E2E2E2E2E2E2E2E2E2E2E2E2F5F5F5F5F5F5F5F5F5E2E2E2E2E2E2E2E2E2E2E2E2E2E2E2E2F5F5F5F5F5F5F5F5E2E2E2E2E2E2E2E2E2E2E2E2E2E2E2E2F5F5F5F5F5F5F5F5E2E2E2E2E2E2E2E2E2E2E2E2E2E2E2E2F5F5F5F5F5F5F5F5E2E2E2E2
310
E2E2E2E2E2E2E2E2E2E2E2E2F5F5F5F5F5F5F5F5F5E2E2E2E2E2E2E2E2E2E2E2E2E2E2E2F5F5F5F5F5F5F5F5F5E2E2E2E2E2E2E2E2F5F5F5E2E2EFE2F5F5F5E2F5F5F5F5F5F5F5F5F5F5F5F5F5F5F5F5F5F5F5F5F5F5F5F5F5F5F5F5F5F5F5F5F5F5F5F5F5F5F5F5F5F5F5F5F5F5F5F5F5F5F5F5F5F5F5F5F5F5F5F5F5F5F5
310
F5F5F5F5F5F5F5F5F5F5F5F5F5F5F5F5F5F5F5F5F5F5F5F5F5F5F5F5F5F5F5F5F5F5F5F5F5F5F5F5F5F5F5F5F5F5F5F5F5F5F5F5F5F5F5F5F5F5F5F5F5F5F5F5F5F5F5F5F5F5F5F5F5F5F5F5F5F5F5F5F5F5F5F5F5F5F5F5F5F5F5F5F5F5F5F5F5F5F5F5F5F5F5F5F5E2F5F5F5E2E2EFE2F5F5F5E2F5F5F5F5F5F5F5F5F5F5
310
F5F5F5F5F5F5F5F5F5F5F5F5F5F5F5F5F5F5F5F5F5F5F5F5F5F5F5F5F5F5F5F5F5F5F5F5F5F5F5F5F5F5F5F5F5F5F5F5F5F5F5F5F5F5F5F5F5F5F5F5F5F5F5F5F5F5F5F5F5F5F5F5F5F5F5F5F5F5F5F5F5F5F5F5F5F5F5F5F5F5F5F5F5F5F5F5F5F5F5F5F5F5F5F5F5F5F5F5F5F5F5F5F5F5F5F5F5F5F5F5F5F5F5F5F5F5F5
310
F5F5F5F5F5F5F5F5F5F5F5F5F5F5F5F5F5F5F5F5F5F5F5F5F5F5F5F5F5F5F5E2F5F5F5E2E2EFE2F5F5F5E2F5F5F5F5F5F5F5F5F5F5F5F5F5F5F5F5F5F5F5F5F5F5F5F5F5F5F5F5F5F5F5F5F5F5F5F5F5F5F5F5F5F5F5F5F5F5F5F5F5F5F5F5F5F5F5F5F5F5F5F5F5F5F5F5F5F5F5F5F5F5F5F5F5F5F5F5F5F5F5F5F5F5F5F5
310
F5F5F5F5F5F5F5F5F5F5F5F5F5F5F5F5F5F5F5F5F5F5F5F5F5F5F5F5F5F5F5F5F5F5F5F5F5F5F5F5F5F5F5F5F5F5F5F5F5F5F5F5F5F5F5F5F5F5F5F5F5F5F5F5F5F5F5F5F5F5F5F5F5F5F5F5F5F5F5F5F5F5F5F5E2F5F5F5E2E2EFE2F5F5F5E2F5F5F5F5F5F5F5F5F5F5F5F5F5F5F5F5F5F5F5F5F5F5F5F5F5F5F5F5F5F5F5
310
F5F5F5F5F5F5F5F5F5F5F5F5F5F5F5F5F5F5F5F5F5F5F5F5F5F5F5F5F5F5F5F5F5F5F5F5F5F5F5F5F5F5F5F5F5F5F5F5F5F5F5F5F5F5F5F5F5F5F5F5F5F5F5F5F5F5F5F5F5F5F5F5F5F5F5F5F5F5F5F5F5F5F5F5F5F5F5F5F5F5F5F5F5F5F5F5F5F5F5F5F5F5F5F5F5F5F5F5F5F5F5F5F5F5F5F5F5F5F5F5F5F5F5F5F5F5F5
310
F5F5F5F5F5F5F5F5F5F5E2F5F5F5E2E2EFE2F5F5F5E2F5F5F5F5F5F5F5F5F5F5F5F5F5F5F5F5F5F5F5F5F5F5F5F5F5F5F5F5F5F5F5F5F5F5F5F5F5F5F5F5F5F5F5F5F5F5F5F5F5F5F5F5F5F5F5F5F5F5F5F5F5F5F5F5F5F5F5F5F5F5F5F5F5F5F5F5F5F5F5F5F5F5F5F5F5F5F5F5F5F5F5F5F5F5F5F5F5F5F5F5F5F5F5F5F5
310
F5F5F5F5F5F5F5F5F5F5F5F5F5F5F5F5F5F5F5F5F5F5F5F5F5F5F5F5F5F5F5F5F5F5F5F5F5F5F5F5F5F5F5F5F5F5F5F5F5F5F5F5F5F5F5F5F5F5F5F5F5F5F5E2F5F5F5E2E2EFE2F5F5F5E2F5F5F5F5F5F5F5F5F5F5F5F5F5F5F5F5F5F5F5F5F5F5F5F5F5F5F5F5F5F5F5F5F5F5F5F5F5F5F5F5F5F5F5F5F5F5F5F5F5F5F5F5
310
F5F5F5F5F5F5F5F5F5F5F5F5F5F5F5F5F5F5F5F5F5F5F5F5F5F5F5F5F5F5F5F5F5F5F5F5F5F5F5F5F5F5F5F5F5F5F5F5F5F5F5F5F5F5F5F5F5F5F5F5F5F5F5F5F5F5F5F5F5F5F5F5F5F5F5F5F5F5F5F5F5F5F5F5F5F5F5F5F5F5F5F5F5F5F5F5F5F5F5F5F5F5F5F5F5F5F5F5F5F5F5F5F5F5F5F5E2F5F5F5E2E2EFE2F5F5F5
310
E2F5F5F5F5F5F5F5F5F5F5F5F5F5F5F5F5F5F5F5F5F5F5F5F5F5F5F5F5F5F5F5F5F5F5F5F5F5F5F5F5F5F5F5F5F5F5F5F5F5F5F5F5F5F5F5F5F5F5F5F5F5F5F5F5F5F5F5F5F5F5F5F5F5F5F5F5F5F5F5F5F5F5F5F5F5F5F5F5F5F5F5F5F5F5F5F5F5F5F5F5F5F5F5F5F5F5F5F5F5F5F5F5F5F5F5F5F5F5F5F5F5F5F5F5F5F5
310
F5F5F5F5F5F5F5F5F5F5F5F5F5F5F5F5F5F5F5F5F5F5F5F5F5F5F5F5F5F5F5F5F5F5F5F5F5F5F5F5F5F5E2F5F5F5E2E2EFE2F5F5F5E2F5F5F5F5F5F5F5F5F5F5F5F5F5F5F5F5F5F5F5F5F5F5F5F5F5F5F5F5F5F5F5F5F5F5F5F5F5F5F5F5F5F5F5F5F5F5F5F5F5F5F5F5F5F5F5F5F5F5F5F5F5F5F5F5F5F5F5F5F5F5F5F5F5
310
F5F5F5F5F5F5F5F5F5F5F5F5F5F5F5F5F5F5F5F5F5F5F5F5F5F5F5F5F5F5F5F5F5F5F5F5F5F5F5F5F5F5F5F5F5F5F5F5F5F5F5F5F5F5F5F5F5F5F5F5F5F5F5F5F5F5F5F5F5F5F5F5F5F5F5F5F5F5F5F5F5F5F5F5F5F5F5F5F5F5F5F5F5F5F5E2F5F5F5E2E2EFE2F5F5F5F5F5F5F5F5F5F5F5F5F5F5F5F5F5F5F5F5F5F5F5F5
310
F5F5F5F5F5F5F5F5F5F5F5F5F5F5F5F5F5F5F5F5F5F5F5F5F5F5F5F5F5F5F5F5F5F5F5F5F5F5F5F5F5F5F5F5F5F5F5F5F5F5F5F5F5F5F5F5F5F5F5F5F5F5F5F5F5F5F5F5F5F5F5F5F5F5F5F5F5F5F5F5F5F5F5F5F5F5F5F5F5F5F5F5F5F5F5F5F5F5F5F5F5F5F5F5F5F5F5F5F5F5F5F5F5F5F5F5F5F5F5F5F5F5F5F5F5F5F5
310
F5F5F5F5F5F5F5F5F5F5F5F5F5F5F5F5F5F5F5F5F5F5F5F5F5E2E2EFE2F5F5F5F5F5F5F5F5F5F5F5F5F5F5F5F5F5F5F5F5F5F5F5F5F5F5F5F5F5F5F5F5F5F5F5F5F5F5F5F5F5F5F5F5F5F5F5F5F5F5F5F5F5F5F5F5F5F5F5F5F5F5F5F5F5F5F5F5F5F5F5F5F5F5F5F5F5F5F5F5F5F5F5F5F5F5F5F5F5F5F5F5F5F5F5F5F5F5
310
F5F5F5F5F5F5F5F5F5F5F5F5F5F5F5F5F5F5F5F5F5F5F5F5F5F5F5F5F5F5F5F5F5F5F5F5F5F5F5F5F5F5F5F5F5F5F5F5F5F5F5F5F5F5F5F5F5F5F5F5F5F5F5F5F5F5F5F5F5F5F5F5F5F5F5F5F5F5E2E2EFE2F5F5F5F5F5F5F5F5F5F5F5F5F5F5F5F5F5F5F5F5F5F5F5F5F5F5F5F5F5F5F5F5F5F5F5F5F5F5F5F5F5F5F5F5F5
310
F5F5F5F5F5F5F5F5F5F5F5F5F5F5F5F5F5F5F5F5F5F5F5F5F5F5F5F5F5F5F5F5F5F5F5F5F5F5F5F5F5F5F5F5F5F5F5F5F5F5F5F5F5F5F5F5F5F5F5F5F5F5F5F5F5F5F5F5F5F5F5F5F5F5F5F5F5F5F5F5F5F5F5F5F5F5F5F5F5F5F5F5F5F5F5F5F5F5F5F5F5F5F5F5F5F5F5F5F5F5F5F5F5F5F5F5F5F5F5F5F5F5F5F5F5F5F5
310
F5F5F5F5E2E2EFE2F5F5F5F5F5F5F5F5F5F5F5F5F5F5F5F5F5F5F5F5F5F5F5F5F5F5F5F5F5F5F5F5F5F5F5F5F5F5F5F5F5F5F5F5F5F5F5F5F5F5F5F5F5F5F5F5F5F5F5F5F5F5F5F5F5F5F5F5F5F5F5F5F5F5F5F5F5F5F5F5F5F5F5F5F5F5F5F5F5F5F5F5F5F5F5F5F5F5F5F5F5F5F5F5F5F5F5F5F5F5F5F5F5F5F5F5F5F5F5
310
F5F5F5F5F5F5F5F5F5F5F5F5F5F5F5F5F5F5F5F5F5F5F5F5F5F5F5F5F5F5F5F5F5F5F5F5F5F5F5F5F5F5F5F5F5F5F5F5F5F5F5F5F5F5F5F5F5E2E2EFE2F5F5F5F5F5F5F5F5F5F5F5F5F5F5F5F5F5F5F5F52D2D2D2D2D2D2D2D2D2D2D2D2D2D2D2D2D2D2D2D2D2D2D2D2D2D2D2D2D2D2D2D2D2D2D2D2D2D2D2D2D2D2D2D2D2D
310
2D2D2D2D2D2D2D2D2D2D2D2D2D2D2D2D2D2D2D2D2D2D2D2D2D2D2D2D2D2D2D2D2D2D2D2D2D2D2D2D2D2D2D2D2D2D2D2D2D2D2D2D2D2D2D2D2D2D2D2D2D2D2D2D2D2D2D2D2D2D2D2D2D2D2D2D2D2D2D2D2D2D2D2D2D2D2D2D2D2DF5F5F5F5F5F5F5F5F5F5F5F5F5F5F5F5F5F5F5F5E2E2EFE2F5F5F5F5F5F5F5F5F5F5F5F5F5
310
F5F5F5F5F5F5F52DF5F5F5F5F5F5F5F5F5F5F5F5F5F5F5F5F5F5F5F5F5F5F5F5F5F5F5F5F5F5F5F5F5F5F5F5F5F5F5F5F5F5F5F5F5F5F5F5F5F5F5F5F5F5F5F5F5F5F5F5F5F5F5F5F5F5F5F5F5F5F5F5F5F5F5F5F5F5F5F5F5F5F5F5F5F5F5F5F5F5F5F5F5F5F5F5F5F5F5F5F5F5F5F5F5F5F5F5F5F5F5F5F5F5F5F5F5F5F5
310
F5F5F5F5F5F5F5F5F5F5F5F5F5F5F52DF5F5F5F5F5F5F5F5F5F5F5F5F5F5F5F5F5F5F5F5E2E2EFE2F5F5F5F5F5F5F5F5F5F5F5F5F5F5F5F5F5F5F5F52DF5F5F5F5F5F5F5F5F5F5F5F5F5F5F5F5F5F5F5F5F5F5F5F5F5F5F5F5F5F5F5F5F5F5F5F5F5F5F5F5F5F5F5F5F5F5F5F5F5F5F5F5F5F5F5F5F5F5F5F5F5F5F5F5F5F5
310
F5F5F5F5F5F5F5F5F5F5F5F5F5F5F5F5F5F5F5F5F5F5F5F5F5F5F5F5F5F5F5F5F5F5F5F5F5F5F5F5F5F5F5F5F5F5F5F5F5F5F5F5F5F5F5F5F5F5F5F5F5F5F5F5F5F5F5F52DF5F5F5F5F5F5F5F5F5F5F5F5F5F5F5F5F5F5F5F5E2E2EFE2F5F5F5F5F5F5F5F5F5F5F5F5F5F5F5F5F5F5F5F52DF5F5F5F5F5F5F5F5F5F5F5F5F5
310
F5F5F5F5F5F5F5F5F5F5F5F5F5F5F5F5F5F5F5F5F5F5F5F5F5F5F5F5F5F5F5F5F5F5F5F5F5F5F5F5F5F5F5F5F5F5F5F5F5F5F5F5F5F5F5F5F5F5F5F5F5F5F5F5F5F5F5F5F5F5F5F5F5F5F5F5F5F5F5F5F5F5F5F5F5F5F5F5F5F5F5F5F5F5F5F5F5F5F5F5F5F5F5F5F5F5F5F5F5F5F5F5F5F5F5F5F5F5F5F5F52DF5F5F5F5F5
310
F5F5F5F5F5F5F5F5F5F5F5F5F5F5F5E2E2EFE2F5F5F5F5F5F5F5F5F5F5F5F5F5F5F5F5F5F5F5F52DF5F5F5F5F5F5F5F5F5F5F5F5F5F5F5F5F5F5F5F5F5F5F5F5F5F5F5F5F5F5F5F5F5F5F5F5F5F5F5F5F5F5F5F5F5F5F5F5F5F5F5F5F5F5F5F5F5F5F5F5F5F5F5F5F5F5F5F5F5F5F5F5F5F5F5F5F5F5F5F5F5F5F5F5F5F5F5
310
F5F5F5F5F5F5F5F5F5F5F5F5F5F5F5F5F5F5F5F5F5F5F5F5F5F5F5F5F5F5F5F5F5F5F5F5F5F5F5F5F5F5F5F5F5F5F52DF5F5F5F5F5F5F5F5F5F5F5F5F5F5F5F5F5F5F5F5E2E2EFE2F5F5F5E2F5F5F5F5F5F5F5F5F5F5F5F5F5F5F5F52DF5F5F5F5F5F5F5F5F5F5F5F5F5F5F5F5F5F5F5F5F5F5F5F5F5F5F5F5F5F5F5F5F5F5
310
F5F5F5F5F5F5F5F5F5F5F5F5F5F5F5F5F5F5F5F5F5F5F5F5F5F5F5F5F5F5F5F5F5F5F5F5F5F5F5F5F5F5F5F5F5F5F5F5F5F5F5F5F5F5F5F5F5F5F5F5F5F5F5F5F5F5F5F5F5F5F5F5F5F5F5F5F5F5F5F5F5F5F5F5F5F5F5F5F5F5F5F5F5F5F5F5F5F5F5F52DF5F5F5F5F5F5F5F5F5F5F5F5F5F5F5F5E2F5F5F5E2E2EFE2F5F5
310
F5E2F5F5F5F5F5F5F5F5F5F5F5F5F5F5F5F52DF5F5F5F5F5F5F5F5F5F5F5F5F5F5F5F5F5F5F5F5F5F5F5F5F5F5F5F5F5F5F5F5F5F5F5F5F5F5F5F5F5F5F5F5F5F5F5F5F5F5F5F5F5F5F5F5F5F5F5F5F5F5F5F5F5F5F5F5F5F5F5F5F5F5F5F5F5F5F5F5F5F5F5F5F5F5F5F5F5F5F5F5F5F5F5F5F5F5F5F5F5F5F5F5F5F5F5F5
310
F5F5F5F5F5F5F5F5F5F5F5F5F5F5F5F5F5F5F5F5F5F5F5F5F5F52DF5F5F5F5F5F5F5F5F5F5F5F5F5F5F5F5E2F5F5F5E2E2EFE2F5F5F5E2F5F5F5F5F5F5F5F5F5F5F5F5F5F5F5F52DF5F5F5F5F5F5F5F5F5F5F5F5F5F5F5F5F5F5F5F5F5F5F5F5F5F5F5F5F5F5F5F5F5F5F5F5F5F5F5F5F5F5F5F5F5F5F5F5F5F5F5F5F5F5F5
310
F5F5F5F5F5F5F5F5F5F5F5F5F5F5F5F5F5F5F5F5F5F5F5F5F5F5F5F5F5F5F5F5F5F5F5F5F5F5F5F5F5F5F5F5F5F5F5F5F5F5F5F5F5F5F5F5F5F5F5F5F5F5F5F5F5F5F5F5F5F5F5F5F5F5F5F5F5F5F52DF5F5F5F5F5F5F5F5F5F5F5F5F5F5F5F5E2F5F5F5E2E2EFE2F5F5F5E2F5F5F5F5F5F5F5F5F5F5F5F5F5F5F5F52DF5F5
310
F5F5F5F5F5F5F5F5F5F5F5F5F5F5F5F5F5F5F5F5F5F5F5F5F5F5F5F5F5F5F5F5F5F5F5F5F5F5F5F5F5F5F5F5F5F5F5F5F5F5F5F5F5F5F5F5F5F5F5F5F5F5F5F5F5F5F5F5F5F5F5F5F5F5F5F5F5F5F5F5F5F5F5F5F5F5F5F5F5F5F5F5F5F5F5F5F5F5F5F5F5F5F5F5F5F5F5F5F5F5F5F5F5F5F5F5F5F5F5F5F5F5F5F5F5F5F5
310
F5F5F5F5F52DF5F5F5F5F5F5F5F5F5F5F5F5F5F5F5F5E2F5F5F5E2E2EFE2F5F5F5E2F5F5F5F5F5F5F5F5F5F5F5F5F5F5F5F52DF5F5F5F5F5F5F5F5F5F5F5F5F5F5F5F5F5F5F5F5F5F5F5F5F5F5F5F5F5F5F5F5F5F5F5F5F5F5F5F5F5F5F5F5F5F5F5F5F5F5F5F5F5F5F5F5F5F5F5F5F5F5F5F5F5F5F5F5F5F5F5F5F5F5F5F5
310
F5F5F5F5F5F5F5F5F5F5F5F5F5F5F5F5F5F5F5F5F5F5F5F5F5F5F5F5F5F5F5F5F5F5F5F5F5F5F5F5F5F5F5F5F5F5F5F5F5F5F5F5F5F5F5F5F5F52DF5F5F5F5F5F5F5F5F5F5F5F5F5F5F5F5E2F5F5F5E2E2EFE2F5F5F5E2F5F5F5F5F5F5F5F5F5F5F5F5F5F5F5F52DF5F5F5F5F5F5F5F5F5F5F5F5F5F5F5F5F5F5F5F5F5F5F5
310
F5F5F5F5F5F5F5F5F5F5F5F5F5F5F5F5F5F5F5F5F5F5F5F5F5F5F5F5F5F5F5F5F5F5F5F5F5F5F5F5F5F5F5F5F5F5F5F5F5F5F5F5F5F5F5F5F5F5F5F5F5F5F5F5F5F5F5F5F5F5F5F5F5F5F5F5F5F5F5F5F5F5F5F5F5F5F5F5F5F5F5F5F5F5F5F5F5F5F5F5F5F5F5F5F5F5F5F5F5F5F52DF5F5F5F5F5F5F5F5F5F5F5F5F5F5F5
310
F5E2F5F5F5E2E2EFE2F5F5F5E2F5F5F5F5F5F5F5F5F5F5F5F5F5F5F5F52DF5F5F5F5F5F5F5F5F5F5F5F5F5F5F5F5F5F5F5F5F5F5F5F5F5F5F5F5F5F5F5F5F5F5F5F5F5F5F5F5F5F5F5F5F5F5F5F5F5F5F5F5F5F5F5F5F5F5F5F5F5F5F5F5F5F5F5F5F5F5F5F5F5F5F5F5F5F5F5F5F5F5F5F5F5F5F5F5F5F5F5F5F5F5F5F5F5
310
F5F5F5F5F5F5F5F5F5F5F5F5F5F5F5F5F5F5F5F5F5F5F5F5F5F5F5F5F5F5F5F5F5F5F5F5F52DF5F5F5F5F5F5F5F5F5F5F5F5F5F5F5F5E2F5F5F5E2E2EFE2F5F5F5E2F5F5F5F5F5F5F5F5F5F5F5F5F5F5F5F52DF5F5F5F5F5F5F5F5F5F5F5F5F5F5F5F5F5F5F5F5F5F5F5F5F5F5F5F5F5F5F5F5F5F5F5F5F5F5F5F5F5F5F5F5
310
F5F5F5F5F5F5F5F5F5F5F5F5F5F5F5F5F5F5F5F5F5F5F5F5F5F5F5F5F5F5F5F5F5F5F5F5F5F5F5F5F5F5F5F5F5F5F5F5F5F5F5F5F5F5F5F5F5F5F5F5F5F5F5F5F5F5F5F5F5F5F5F5F5F5F5F5F5F5F5F5F5F5F5F5F5F5F5F5F5F52DF5F5F5F5F5F5F5F5F5F5F5F5F5F5F5F5E2F5F5F5E2E2EFE2F5F5F5E2F5F5F5F5F5F5F5F5
310
F5F5F5F5F5F5F5F52DF5F5F5F5F5F5F5F5F5F5F5F5F5F5F5F5F5F5F5F5F5F5F5F5F5F5F5F5F5F5F5F5F5F5F5F5F5F5F5F5F5F5F5F5F5F5F5F5F5F5F5F5F5F5F5F5F5F5F5F5F5F5F5F5F5F5F5F5F5F5F5F5F5F5F5F5F5F5F5F5F5F5F5F5F5F5F5F5F5F5F5F5F5F5F5F5F5F5F5F5F5F5F5F5F5F5F5F5F5F5F5F5F5F5F5F5F5F5
310
F5F5F5F5F5F5F5F5F5F5F5F5F5F5F5F52DF5F5F5F5F5F5F5F5F5F5F5F5F5F5F5F5E2F5F5F5E2E2EFE2F5F5F5E2F5F5F5F5F5F5F5F5F5F5F5F5F5F5F5F52DF5F5F5F5F5F5F5F5F5F5F5F5F5F5F5F5F5F5F5F5F5F5F5F5F5F5F5F5F5F5F5F5F5F5F5F5F5F5F5F5F5F5F5F5F5F5F5F5F5F5F5F5F5F5F5F5F5F5F5F5F5F5F5F5F5
310
F5F5F5F5F5F5F5F5F5F5E2E2E2C3E2ECE2F5F5F5C3C3E2E2E2F5F5F5F5F5F5F5F5F5F5F5F5F5F5F5F5F5F5F5F5F5F5F5F5F5F5F5F5F5F5F5F5F5F5F5F5F5F5F5F5F5F5F5F52DF5F5F5F5F5F5F5F5F5F5F5F5F5F5F5F5E2F5F5F5E2E2EFE2F5F5F5E2F5F5F5F5F5F5F5F5F5F5F5F5F5F5F5F52DF5F5F5F5F5F5F5F5F5F5F5F5
310
F5F5F5F5F5F5F5F5F5F5F5F5F5F5F5F5F5F5F5F5F5F5F5F5F5F5F5F5F5F5F5F5F5F5F5F5F5F5F5F5F5F5F5F5F5F5F5F5F5F5F5F5F5F5F5F5F5F5F5F5F5F5F5C3E2ECC3E2ECE2F5F5F5C3C3E2E2E2F5F5F5F5F5F5F5F5F5F5F5F5F5F5F5F5F5F5F5F5F5F5F5F5F5F5F5F5F5F5F5F5F5F5F5F5F5F5F5F5F5F5F5F52DF5F5F5F5
310
F5F5F5F5F5F5F5F5F5F5F5F5E2F5F5F5E2E2EFE2F5F5F5E2F5F5F5F5F5F5F5F5F5F5F5F5F5F5F5F52DF5F5F5F5F5F5F5F5F5F5F5F5F5F5F5F5F5F5F5F5F5F5F5F5F5F5F5F5F5F5F5F5F5F5F5F5F5F5F5F5F5F5F5F5F5F5F5F5F5F5F5F5F5F5F5F5F5F5F5F5F5F5F5F5F5F5F5F5F5F5F5F5F5F5F5C3C3C3C3E2E2C3F5F5F5C3
310
E2E22DC3F5F5F5F5F5F5F5F5F5F5F5F5F5F5F5F5F5F5F5F5F5F5F5F5F5F5F5F5F5F5F5F5F5F5F5F5F5F5F5F5F5F5F5F52DF5F5F5F5F5F5F5F5F5F5F5F5F5F5F5F5E2F5F5F5E2E2EFE2F5F5F5E2F5F5F5F5F5F5F5F5F5F5F5F5F5F5F5F52DF5F5F5F5F5F5F5F5F5F5F5F5F5F5F5F5F5F5F5F5F5F5F5F5F5F5F5F5F5F5F5F5F5
310
F5F5F5F5F5F5F5F5F5F5F5F5F5F5F5F5F5F5F5F5F5F5F5F5F5F5F5F5F5F5F5F5F5F5F5F5F5F5F5F5F5F5C3E2E2C30F0FC3F5F5F5C3C3E2C3C3F5F5F5F5F5F5C3E2E2F5F5F5F5F5F5F5F5F5F5F5F5F5F5F5F5F5F5F5F5F5F5F5F5F5F5F5F5F5F5F5F5F5F5F52DF5F5F5F5F5F5F5F5F5F5F5F5F5F5F5F5E2F5F5F5E2E2EFE2F5
310
F5F5E2F5F5F5F5F5F5F5F5F5F5F5F5F5F5F5F52DF5F5F5F5F5F5F5F5F5F5F5F5F5F5F5F5F5F5F5F5F5F5F5F5F5F5F5F5F5F5F5F5F5F5F5F5F5F5F5F5F5F5F5F5F5F5F5F5F5F5F5F5F5F5F5F5F5F5F5F5F5F5F5F5F5F5F5F5F5F5F5F5F5F5F5C3E2E2C3ECE2ECF5F5F5F5F5F5F5F5F5F5F5F5F5C3C3E2E2F5F5F5F5F5F5F5F5
310
F5F5F5F5F5F5F5F5F5F5F5F5F5F5F5F5F5F5F5F5F5F5F5F5F5F5F52DF5F5F5F5F5F5F5F5F5F5F5F5F5F5F5F5E2F5F5F5E2E2EFE2F5F5F5E2F5F5F5F5F5F5F5F5F5F5F5F5F5F5F5F52DF5F5F5F5F5F5F5F5F5F5F5F5F5F5F5F5F5F5F5F5F5F5F5F5F5F5F5F5F5F5F5F5F5F5F5F5F5F5F5F5F5F5F5F5F5F5F5F5F5F5F5F5F5F5
310
F5F5F5F5F5F5F5F5F5F5F5F5F5F5F5F5F5F5F5F5F5E2ECECC3E2ECE2F5F5F5F5BE2DECF52D2DF5E2F5F5C3C3C3F5F5F5F5F5F5F5F5F5F5F5F5F5F5F5F5F5F5F5F5F5F5F5F5F5F5F5F5F5F5F5F5F5F5F52DF5F5F5F5F5F5F5F5F5F5F5F5F5F5F5F5E2F5F5F5E2E2EFE2F5F5F5E2F5F5F5F5F5F5F5F5F5F5F5F5F5F5F5F52DF5
310
F5F5F5F5F5F5F5F5F5F5F5F5F5F5F5F5F5F5F5F5F5F5F5F5F5F5F5F5F5F5F5F5F5F5F5F5F5F5F5F5F5F5F5F5F5F5F5F5F5F5F5F5F5F5F5F5F5F5F5F5F5F5F5F5F5F5F5F5F5F5F5F5F5F5E2E2E2E2E2E2C3F5F5F5C32DE22D2D2DEC2DE2F5F5ECDCF5F5F5F5F5F5F5F5F5F5F5F5F5F5F5F5F5F5F5F5F5F5F5F5F5F5F5F5F5F5
310
F5F5F5F5F5F52DF5F5F5F5F5F5F5F5F5F5F5F5F5F5F5F5E2F5F5F5E2E2EFE2F5F5F5E2F5F5F5F5F5F5F5F5F5F5F5F5F5F5F5F52DF5F5F5F5F5F5F5F5F5F5F5F5F5F5F5F5F5F5F5F5F5F5F5F5F5F5F5F5F5F5F5F5F5F5F5F5F5F5F5F5F5F5F5F5F5F5F5F5F5F5F5F5F5F5F5F5F5F5F5F5F5F5F5F5F5F5F5F5F5F5F5F5F5F5F5
310
E2E2E2E2E2E2C3F5F5F5E2BE2DF5F5F5F5F5E2F5F5C3E2E2F5F5F5F5F5F5F5F5F5F5F5F5F5F5F5F5F5F5F5F5F5F5F5F5F5F5F5F5F5F5F5F5F5F5F52DF5F5F5F5F5F5F5F5F5F5F5F5F5F5F5F5E2F5F5F5E2E2EFE2F5F5F5F5F5F5F5F5F5F5F5F5F5F5F5F5F5F5F5F52DF5F5F5F5F5F5F5F5F5F5F5F5F5F5F5F5F5F5F5F5F5F5
310
F5F5F5F5F5F5F5F5F5F5F5F5F5F5F5F5F5F5F5F5F5F5F5F5F5F5F5F5F5F5F5F5F5F5F5F5F5F5F5F5F5F5F5F5E22DE2E2ECE2E2F5F5E22D2DC32D2DC3F5F5F5F5F52DF5F5F5F52D2D2D2DC3E2E2F5F5F5F5F5F5F5F5F5F5F5F5F5F5F5F5F5F5F5F5F5F5F5F5F5F5F5F5F5F5F5F5F5F5F52DF5F5F5F5F5F5F5F5F5F5F5F5F5F5
310
F5F5F5F5F5F5E2E2EFE2F5F5F5F5F5F5F5F5F5F5F5F5F5F5F5F5F5F5F5F52DF5F5F5F5F5F5F5F5F5F5F5F5F5F5F5F5F5F5F5F5F5F5F5F5F5F5F5F5F5F5F5F5F5F5F5F5F5F5F5F5F5F5F5F5F5F5F5F5F5F5F5F5F5F5F5F5F5F5F5F5F5F5F5F5F5F52DBEC3C3E22DE2F5F5E2E2E2E2F5F5E2F5F5F5F5F5F5F5E2E2E2BE2DE2BE
310
C3E2E2F5F5F5F5F5F5F5F5F5F5F5F5F5F5F5F5F5F5F5F5F5F5F5F5F5F5F5F5F5F5F5F5F5F5F52DF5F5F5F5F5F5F5F5F5F5F5F5F5F5F5F5F5F5F5F5E2E2EFE2F5F5F5F5F5F5F5F5F5F5F5F5F5F5F5F5F5F5F5F52DF5F5F5F5F5F5F5F5F5F5F5F5F5F5F5F5F5F5F5F5F5F5F5F5F5F5F5F5F5F5F5F5F5F5F5F5F5F5F5F5F5F5F5
310
F5F5F5F5F5F5F5F5F5F5F5F5F5F5F5F5F5F5F5F5F5F5F5F5F5F5F5F5F5F5F5F5F5F5F5F5F5F5F5F5F5F5F5F5F5F52DE2E2F5F5F5F5C3E22DF5F5F5F5F5F5F5F5F5F5F5F5F5F5F5F5F5F5F5F5F5F5F5F5F5F5F5F5F5F5F5F5F5F5F52DF5F5F5F5F5F5F5F5F5F5F5F5F5F5F5F5F5F5F5F5E2E2EFE2F5F5F5F5F5F5F5F5F5F5F5
310
F5F5F5F5F5F5F5F5F52DF5F5F5F5F5F5F5F5F5F5F5F5F5F5F5F5F5F5F5F5F5F5F5F5F5F5F5F5F5F5F5F5F5F5F5F5F5F5F5F5F5F5F5F5F5F5F5F5F5F5F5F5F5F5F5F5F5F5F5F5F5F5F5F5F5F5F5F5F5F5F5F5F5F5F5F5F5F5F5F5F5F5F5F5F5F5F5F5F5F5F5BE28F5F5F5F5F5F5F5F5F5F5F5F5F5F5F5F5F5F5F5F5F5F5F5F5
310
F5F5F5F5F5F5F5F5F5F5F5F5F5F5F5F5F52DF5F5F5F5F5F5F5F5F5F5F5F5F5F5F5F5F5F5F5F5E2E2EFE2F5F5F5F5F5F5F5F5F5F5F5F5F5F5F5F5F5F5F5F52DF5F5F5F5F5F5F5F5F5F5F5F5F5F5F5F5F5F5F5F5F5F5F5F5F5F5F5F5F5F5F5F5F5F5F5F5F5F5F5F5F5F5F5F5F5F5F5F5F5F5F5F5F5F5F5F5F5F5F5F5F5F5F5F5
310
F5F5F5BEE2E2E2F5F5F5ECC3C3C3C3C3C3F5F5F5F5F5F5F5F5F5F52D2DF5F5F5F5F5F5F5F5F5F5F5F5F5F5F5F5F5F5F5F5F5F5F5F5F5F5F5F5F5F5F5F5F5F5F5F5F5F5F5F5F52DF5F5F5F5F5F5F5F5F5F5F5F5F5F5F5F5F5F5F5F5E2E2EFE2F5F5F5F5F5F5F5F5F5F5F5F5F5F5F5F5F5F5F5F52DF5F5F5F5F5F5F5F5F5F5F5
310
F5F5F5F5F5F5F5F5F5F5F5F5F5F5F5F5F5F5F5F5F5F5F5F5F5F5F5F5F5F5F5F5F5F5F5F5F5F5F5F5F5F5F5F5F5F5F5F5F5F5F5F5F5F5F5E2ECE2E2E22D2D2DECE2E2E2E2E2C3F5F5F5F5F5F5F5F5F5F5E2E2F5F5F5F5F5F5F5F5F5F5F5F5F5F5F5F5F5F5F5F5F5F5F5F5F5F5F5F5F5F5F5F5F5F5F5F5F5F5F5F5F52DF5F5F5
310
F5F5F5F5F5F5F5F5F5F5F5F5F5F5F5F5F5E2E2EFE2F5F5F5F5F5F5F5F5F5F5F5F5F5F5F5F5F5F5F5F52DF5F5F5F5F5F5F5F5F5F5F5F5F5F5F5F5F5F5F5F5F5F5F5F5F5F5F5F5F5F5F5F5F5F5F5F5F5F5F5F5F5F5F5F5F5F5F5F5F5F5F5F5F5F5F5F5F5F5F5F5F5F5F5F5F5F5E2ECE2E2ECE22D2DECE2E2ECE2E2C3F5F5F5F5
310
F5F5F5F5F5F5E2E2F5F5F5F5F5F5F5F5F5F5F5F5F5F5F5F5F5F5F5F5F5F5F5F5F5F5F5F5F5F5F5F5F5F5F5F5F5F5F5F5F52DF5F5F5F5F5F5F5F5F5F5F5F5F5F5F5F5F5F5F5F5E2E2EFE2F5F5F5F5F5F5F5F5F5F5F5F5F5F5F5F5F5F5F5F52DF5F5F5F5F5F5F5F5F5F5F5F5F5F5F5F5F5F5F5F5F5F5F5F5F5F5F5F5F5F5F5F5
310
F5F5F5F5F5F5F5F5F5F5F5F5F5F5F5F5F5F5F5F5F5F5F5F5F5F5F5F5F5F5F5F5F5F52D2DE2ECECF5C3ECECE2E2E2E2E2C3F5F5F5F5F5F5F5F5F5F5BE28F5F5F5F5F5F5F5F5F5F5F5F5F5F5F5F5F5F5F5F5F5F5F5F5F5F5F5F5F5F5F5F5F5F5F5F5F5F5F5F5F52DF5F5F5F5F5F5F5F5F5F5F5F5F5F5F5F5F5F5F5F5E2E2EFE2
310
F5F5F5F5F5F5F5F5F5F5F5F5F5F5F5F5F5F5F5F52DF5F5F5F5F5F5F5F5F5F5F5F5F5F5F5F5F5F5F5F5F5F5F5F5F5F5F5F5F5F5F5F5F5F5F5F5F5F5F5F5F5F5F5F5F5F5F5F5F5F5F5F5F5F5F5F5F5F5F5F5F5F5F5F5F5F52D2DE22D2DF5F5F5ECE2E2E2C3E2E2F5F5F5F5F5F5F5F5F5F5F5F5F5F5F5F5F5F5F5F5F5F5F5F5F5
310
F5F5F5F5F5F5F5F5F5F5F5F5F5F5F5F5F5F5F5F5F5F5F5F5F5F5F5F52DF5F5F5F5F5F5F5F5F5F5F5F5F5F5F5F5F5F5F5F5E2E2EFE2F5F5F5E2F5F5F5F5F5F5F5F5F5F5F5F5F5F5F5F52DF5F5F5F5F5F5F5F5F5F5F5F5F5F5F5F5F5F5F5F5F5F5F5F5F5F5F5F5F5F5F5F5F5F5F5F5F5F5F5F5F5F5F5F5F5F5F5F5F5F5F5F5F5
310
F5F5F5F5F5F5F5F5F5F5F5F5E22DE2E2E2F5BE362DECECECECECECECE2E2ECF5F5F5F5F5F5F5F5F5F5F5F5F5F5F5F5F5F5F5F5F5F5F5F5F5F5F5F5F5F5F5F5F5F5F5F5F5F5F5F5F5F5F5F5F5F5F5F5F5F52DF5F5F5F5F5F5F5F5F5F5F5F5F5F5F5F5E2F5F5F5E2E2EFE2F5F5F5E2F5F5F5F5F5F5F5F5F5F5F5F5F5F5F5F52D
310
F5F5F5F5F5F5F5F5F5F5F5F5F5F5F5F5F5F5F5F5F5F5F5F5F5F5F5F5F5F5F5F5F5F5F5F5F5F5F5F5F5F5F5F5F5F5F5F5F5F5F5F5F5F5F5F5F5F5F5F5F5F5F5F5F5E22DE2E2ECE2BE2DE22DE2C3ECEC28ECECECECF5F5F5F5F5F5F5F5F5F5F5F5F5F5F5F5F5F5F5F5F5F5F5F5F5F5F5F5F5F5F5F5F5F5F5F5F5F5F5F5F5F5F5
310
F5F5F5F5F5F5F52DF5F5F5F5F5F5F5F5F5F5F5F5F5F5F5F5E2F5F5F5E2E2EFE2F5F5F5E2F5F5F5F5F5F5F5F5F5F5F5F5F5F5F5F52DF5F5F5F5F5F5F5F5F5F5F5F5F5F5F5F5F5F5F5F5F5F5F5F5F5F5F5F5F5F5F5F5F5F5F5F5F5F5F5F5F5F5F5F5F5F5F5F5F5F5F5F5F5F5F5F5F5F5F5F5F5F5F5F5F5E2E2E22DE2E22D2DE2
310
E2E2C3ECECEC2DE2E2C3F5F5F5F5F5F5F5F5F5F5F5F5F5F5F5F5F5F5F5F5F5F5F5F5F5F5F5F5F5F5F5F5F5F5F5F5F5F5F5F5F5F5F5F5F5F5F5F5F5F52DF5F5F5F5F5F5F5F5F5F5F5F5F5F5F5F5E2F5F5F5E2E2EFE2F5F5F5E2F5F5F5F5F5F5F5F5F5F5F5F5F5F5F5F52DF5F5F5F5F5F5F5F5F5F5F5F5F5F5F5F5F5F5F5F5F5
310
F5F5F5F5F5F5F5F5F5F5F5F5F5F5F5F5F5F5F5F5F5F5F5F5F5F5F5F5F5F5F5F5F5F5F5F5F5F5F5F5F5F5F5F5E2E22DECE2F5F5F5ECE22DC3E2ECE2E2282DE2F5F5F5F5F5F5F5F5F5F5F5F5F5F5F5F5F5F5F5F5F5F5F5F5F5F5F5F5F5F5F5F5F5F5F5F5F5F5F5F5F5F5F5F5F5F5F5F5F5F52DF5F5F5F5F5F5F5F5F5F5F5F5F5
310
F5F5F5E2F5F5F5E2E2EFE2F5F5F5E2F5F5F5F5F5F5F5F5F5F5F5F5F5F5F5F52DF5F5F5F5F5F5F5F5F5F5F5F5F5F5F5F5F5F5F5F5F5F5F5F5F5F5F5F5F5F5F5F5F5F5F5F5F5F5F5F5F5F5F5F5F5F5F5F5F5F5F5F5F5F5F5F5F5F5F5F5F5F5F5F5F5E2E2E2F5F5F5F5F5F5F5F5F5F5ECECECE22DE2F5F5F5F5F5F5F5F5F5F5F5
310
F5F5F5F5F5F5F5F5F5F5F5F5F5F5F5F5F5F5F5F5F5F5F5F5F5F5F5F5F5F5F5F5F5F5F5F5F5F5F52DF5F5F5F5F5F5F5F5F5F5F5F5F5F5F5F5E2F5F5F5E2E2EFE2F5F5F5E2F5F5F5F5F5F5F5F5F5F5F5F5F5F5F5F52DF5F5F5F5F5F5F5F5F5F5F5F5F5F5F5F5F5F5F5F5F5F5F5F5F5F5F5F5F5F5F5F5F5F5F5F5F5F5F5F5F5F5
310
F5F5F5F5F5F5F5F5F5F5F5F5F5F5F5F5F5F5F5F5F5F5F5F5F5F5F5F5F5F5F5F5F5F5F5F5F5F5F5F5F5F5F5F5F5F5F5F5F5F5F5F5F5F5F5F5F5F5F5F5F5F5F5F5F5F5F5F5F5F5F5F5F5F5F5F5F5F5F5F5F5F5F5F5F5F5F5F5F5F5F5F52DF5F5F5F5F5F5F5F5F5F5F5F5F5F5F5F5E2F5F5F5E2E2EFE2F5F5F5E2F5F5F5F5F5F5
310
F5F5F5F5F5F5F5F5F5F52DF5F5F5F5F5F5F5F5F5F5F5F5F5F5F5F5F5F5F5F5F5F5F5F5F5F5F5F5F5F5F5F5F5F5F5F5F5F5F5F5F5F5F5F5F5F5F5F5F5F5F5F5F5F5F5F5F5F5F5F5F5F5F5F5F5F5F5F5F5F5F5F5F5F5F5F5F5F5F5F5F5F5F5F5F5F5F5F5F5F5F5F5F5F5F5F5F5F5F5F5F5F5F5F5F5F5F5F5F5F5F5F5F5F5F5F5
310
F5F5F5F5F5F5F5F5F5F5F5F5F5F5F5F5F5F52DF5F5F5F5F5F5F5F5F5F5F5F5F5F5F5F5E2F5F5F5E2E2EFE2F5F5F5E2F5F5F5F5F5F5F5F5F5F5F5F5F5F5F5F52DF5F5F5F5F5F5F5F5F5F5F5F5F5F5F5F5F5F5F5F5F5F5F5F5F5F5F5F5F5F5F5F5F5F5F5F5F5F5F5F5F5F5F5F5F5F5F5F5F5F5F5F5F5F5F5F5F5F5F5F5F5F5F5
310
F5F5F5F5F5F5F5F5F5F5F5F5F5F5F5F5F5F5F5F5F5F5F5F5F5F5F5F5F5F5F5F5F5F5F5F5F5F5F5F5F5F5F5F5F5F5F5F5F5F5F5F5F5F5F5F5F5F5F5F5F5F5F5F5F5F5F5F5F5F5F52DF5F5F5F5F5F5F5F5F5F5F5F5F5F5F5F5E2F5F5F5E2E2EFE2F5F5F5E2F5F5F5F5F5F5F5F5F5F5F5F5F5F5F5F52DF5F5F5F5F5F5F5F5F5F5
310
F5F5F5F5F5F5F5F5F5F5F5F5F5F5F5F5F5F5F5F5F5F5F5F5F5F5F5F5F5F5F5F5F5F5F5F5F5F5F5F5F5F5F5F5F5F5F5F5F5F5F5F5F5F5F5F5F5F5F5F5F5F5F5F5F5F5F5F5F5F5F5F5F5F5F5F5F5F5F5F5F5F5F5F5F5F5F5F5F5F5F5F5F5F5F5F5F5F5F5F5F5F5F5F5F5F5F5F5F5F5F5F5F5F5F5F5F5F5F5F5F5F5F5F52DF5F5
310
F5F5F5F5F5F5F5F5F5F5F5F5F5F5E2F5F5F5E2E2EFE2F5F5F5E2F5F5F5F5F5F5F5F5F5F5F5F5F5F5F5F52DF5F5F5F5F5F5F5F5F5F5F5F5F5F5F5F5F5F5F5F5F5F5F5F5F5F5F5F5F5F5F5F5F5F5F5F5F5F5F5F5F5F5F5F5F5F5F5F5F5F5F5F5F5F5F5F5F5F5F5F5F5F5F5F5F5F5F5F5F5F5F5F5F5F5F5F5F5F5F5F5F5F5F5F5
310
F5F5F5F5F5F5F5F5F5F5F5F5F5F5F5F5F5F5F5F5F5F5F5F5F5F5F5F5F5F5F5F5F5F5F5F5F5F5F5F5F5F5F5F5F5F5F5F5F5F52DF5F5F5F5F5F5F5F5F5F5F5F5F5F5F5F5E2F5F5F5E2E2EFE2F5F5F5E2F5F5F5F5F5F5F5F5F5F5F5F5F5F5F5F52DF5F5F5F5F5F5F5F5F5F5F5F5F5F5F5F5F5F5F5F5F5F5F5F5F5F5F5F5F5F5F5
310
F5F5F5F5F5F5F5F5F5F5F5F5F5F5F5F5F5F5F5F5F5F5F5F5F5F5F5F5F5F5F5F5F5F5F5F5F5F5F5F5F5F5F5F5F5F5F5F5F5F5F5F5F5F5F5F5F5F5F5F5F5F5F5F5F5F5F5F5F5F5F5F5F5F5F5F5F5F5F5F5F5F5F5F5F5F5F5F5F5F5F5F5F5F5F5F5F5F5F5F5F5F5F52DF5F5F5F5F5F5F5F5F5F5F5F5F5F5F5F5E2F5F5F5E2E2EF
310
E2F5F5F5E2F5F5F5F5F5F5F5F5F5F5F5F5F5F5F5F52DF5F5F5F5F5F5F5F5F5F5F5F5F5F5F5F5F5F5F5F5F5F5F5F5F5F5F5F5F5F5F5F5F5F5F5F5F5F5F5F5F5F5F5F5F5F5F5F5F5F5F5F5F5F5F5F5F5F5F5F5F5F5F5F5F5F5F5F5F5F5F5F5F5F5F5F5F5F5F5F5F5F5F5F5F5F5F5F5F5F5F5F5F5F5F5F5F5F5F5F5F5F5F5F5F5
310
F5F5F5F5F5F5F5F5F5F5F5F5F5F5F5F5F5F5F5F5F5F5F5F5F5F5F5F5F52DF5F5F5F5F5F5F5F5F5F5F5F5F5F5F5F5E2F5F5F5E2E2EFE2F5F5F5E2F5F5F5F5F5F5F5F5F5F5F5F5F5F5F5F52DF5F5F5F5F5F5F5F5F5F5F5F5F5F5F5F5F5F5F5F5F5F5F5F5F5F5F5F5F5F5F5F5F5F5F5F5F5F5F5F5F5F5F5F5F5F5F5F5F5F5F5F5
310
F5F5F5F5F5F5F5F5F5F5F5F5F5F5F5F5F5F5F5F5F5F5F5F5F5F5F5F5F5F5F5F5F5F5F5F5F5F5F5F5F5F5F5F5F5F5F5F5F5F5F5F5F5F5F5F5F5F5F5F5F5F5F5F5F5F5F5F5F5F5F5F5F5F5F5F5F5F5F5F5F5F52DF5F5F5F5F5F5F5F5F5F5F5F5F5F5F5F5E2F5F5F5E2E2EFE2F5F5F5E2F5F5F5F5F5F5F5F5F5F5F5F5F5F5F5F5
310
2DF5F5F5F5F5F5F5F5F5F5F5F5F5F5F5F5F5F5F5F5F5F5F5F5F5F5F5F5F5F5F5F5F5F5F5F5F5F5F5F5F5F5F5F5F5F5F5F5F5F5F5F5F5F5F5F5F5F5F5F5F5F5F5F5F5F5F5F5F5F5F5F5F5F5F5F5F5F5F5F5F5F5F5F5F5F5F5F5F5F5F5F5F5F5F5F5F5F5F5F5F5F5F5F5F5F5F5F5F5F5F5F5F5F5F5F5F5F5F5F5F5F5F5F5F5F5
310
F5F5F5F5F5F5F5F52DF5F5F5F5F5F5F5F5F5F5F5F5F5F5F5F5E2F5F5F5E2E2EFE2F5F5F5E2F5F5F5F5F5F5F5F5F5F5F5F5F5F5F5F52DF5F5F5F5F5F5F5F5F5F5F5F5F5F5F5F5F5F5F5F5F5F5F5F5F5F5F5F5F5F5F5F5F5F5F5F5F5F5F5F5F5F5F5F5F5F5F5F5F5F5F5F5F5F5F5F5F5F5F5F5F5F5F5F5F5F5F5F5F5F5F5F5F5
310
F5F5F5F5F5F5F5F5F5F5F5F5F5F5F5F5F5F5F5F5F5F5F5F5F5F5F5F5F5F5F5F5F5F5F5F5F5F5F5F5F5F5F5F5F5F5F5F5F5F5F5F5F5F5F5F5F5F5F5F5F52DF5F5F5F5F5F5F5F5F5F5F5F5F5F5F5F5E2F5F5F5E2E2EFE2F5F5F5E2F5F5F5F5F5F5F5F5F5F5F5F5F5F5F5F52DF5F5F5F5F5F5F5F5F5F5F5F5F5F5F5F5F5F5F5F5
310
F5F5F5F5F5F5F5F5F5F5F5F5F5F5F5F5F5F5F5F5F5F5F5F5F5F5F5F5F5F5F5F5F5F5F5F5F5F5F5F5F5F5F5F5F5F5F5F5F5F5F5F5F5F5F5F5F5F5F5F5F5F5F5F5F5F5F5F5F5F5F5F5F5F5F5F5F5F5F5F5F5F5F5F5F5F5F5F5F5F5F5F5F5F5F5F5F5F5F5F5F5F5F5F5F5F5F5F5F5F5F5F5F5F52DF5F5F5F5F5F5F5F5F5F5F5F5
310
F5F5F5F5E2F5F5F5E2E2EFE2F5F5F5E2F5F5F5F5F5F5F5F5F5F5F5F5F5F5F5F52DF5F5F5F5F5F5F5F5F5F5F5F5F5F5F5F5F5F5F5F5F5F5F5F5F5F5F5F5F5F5F5F5F5F5F5F5F5F5F5F5F5F5F5F5F5F5F5F5F5F5F5F5F5F5F5F5F5F5F5F5F5F5F5F5F5F5F5F5F5F5F5F5F5F5F5F5F5F5F5F5F5F5F5F5F5F5F5F5F5F5F5F5F5F5
310
F5F5F5F5F5F5F5F5F5F5F5F5F5F5F5F5F5F5F5F5F5F5F5F5F5F5F5F5F5F5F5F5F5F5F5F5F5F5F5F52DF5F5F5F5F5F5F5F5F5F5F5F5F5F5F5F5E2F5F5F5E2E2EFE2F5F5F5F5F5F5F5F5F5F5F5F5F5F5F5F5F5F5F5F52DF5F5F5F5F5F5F5F5F5F5F5F5F5F5F5F5F5F5F5F5F5F5F5F5F5F5F5F5F5F5F5F5F5F5F5F5F5F5F5F5F5
310
F5F5F5F5F5F5F5F5F5F5F5F5F5F5F5F5F5F5F5F5F5F5F5F5F5F5F5F5F5F5F5F5F5F5F5F5F5F5F5F5F5F5F5F5F5F5F5F5F5F5F5F5F5F5F5F5F5F5F5F5F5F5F5F5F5F5F5F5F5F5F5F5F5F5F5F5F5F5F5F5F5F5F5F5F5F5F5F5F5F5F5F5F52DF5F5F5F5F5F5F5F5F5F5F5F5F5F5F5F5F5F5F5F5E2E2EFE2F5F5F5F5F5F5F5F5F5
310
F5F5F5F5F5F5F5F5F5F5F52DF5F5F5F5F5F5F5F5F5F5F5F5F5F5F5F5F5F5F5F5F5F5F5F5F5F5F5F5F5F5F5F5F5F5F5F5F5F5F5F5F5F5F5F5F5F5F5F5F5F5F5F5F5F5F5F5F5F5F5F5F5F5F5F5F5F5F5F5F5F5F5F5F5F5F5F5F5F5F5F5F5F5F5F5F5F5F5F5F5F5F5F5F5F5F5F5F5F5F5F5F5F5F5F5F5F5F5F5F5F5F5F5F5F5F5
310
F5F5F5F5F5F5F5F5F5F5F5F5F5F5F5F5F5F5F52DF5F5F5F5F5F5F5F5F5F5F5F5F5F5F5F5F5F5F5F5E2E2EFE2F5F5F5F5F5F5F5F5F5F5F5F5F5F5F5F5F5F5F5F52DF5F5F5F5F5F5F5F5F5F5F5F5F5F5F5F5F5F5F5F5F5F5F5F5F5F5F5F5F5F5F5F5F5F5F5F5F5F5F5F5F5F5F5F5F5F5F5F5F5F5F5F5F5F5F5F5F5F5F5F5F5F5
310
F5F5F5F5F5F5F5F5F5F5F5F5F5F5F5F5F5F5F5F5F5F5F5F5F5F5F5F5F5F5F5F5F5F5F5F5F5F5F5F5F5F5F5F5F5F5F5F5F5F5F5F5F5F5F5F5F5F5F5F5F5F5F5F5F5F5F5F5F5F5F5F52DF5F5F5F5F5F5F5F5F5F5F5F5F5F5F5F5F5F5F5F5E2E2EFE2F5F5F5F5F5F5F5F5F5F5F5F5F5F5F5F5F5F5F5F52DF5F5F5F5F5F5F5F5F5
310
F5F5F5F5F5F5F5F5F5F5F5F5F5F5F5F5F5F5F5F5F5F5F5F5F5F5F5F5F5F5F5F5F5F5F5F5F5F5F5F5F5F5F5F5F5F5F5F5F5F5F5F5E2BEBEBEF5F5F5F5F5F5F5F5F5F5F5F5F5F5F5F5F5F5F5F5F5F5F5F5F5F5F5F5F5F5F5F5F5F5F5F5F5F5F5F5F5F5F5F5F5F5F5F5F5F5F5F5F5F5F5F5F5F5F5F5F5F5F5F5F5F5F5F5F52DF5
310
F5F5F5F5F5F5F5F5F5F5F5F5F5F5F5F5F5F5F5E2E2EFE2F5F5F5F5F5F5F5F5F5F5F5F5F5F5F5F5F5F5F5F52DF5F5F5F5F5F5F5F5F5F5F5F5F5F5F5F5F5F5F5F5F5F5F5F5F5F5F5F5F5F5F5F5F5F5F5F5F5F5F5F5F5F5F5F5F5F5F5F5F5F5F5F5F5F5F5F5F5F5F5F5F5F5E2E2E2F5F5F5F5F5F5F5F5F5F5F5F5F5F5F5F5F5F5
310
F5F5F5F5F5F5F5F5F5F5F5F5F5F5F5F5F5F5F5F5F5F5F5F5F5F5F5F5F5F5F5F5F5F5F5F5F5F5F5F5F5F5F5F5F5F5F5F5F5F5F52DF5F5F5F5F5F5F5F5F5F5F5F5F5F5F5F5F5F5F5F5E2E2EFE2F5F5F5F5F5F5F5F5F5F5F5F5F5F5F5F5F5F5F5F52DF5F5F5F5F5F5F5F5F5F5F5F5F5F5F5F5F5F5F5F5F5F5F5F5F5F5F5F5F5F5
310
F5F5F5F5F5F5F5F5F5F5F5F5F5F5F5F5F5F5F5F5F5F5F5F5F5F5F5F5F5F5F5F5F5F5F5F5F5F5F5F5F5F5F5F5F5F5F5F5F5F5F5F5F5F5F5F5F5F5F5F5F5F5F5F5F5F5F5F5F5F5F5F5F5F5F5F5F5F5F5F5F5F5F5F5F5F5F5F5F5F5F5F5F5F5F5F5F5F5F5F5F5F5F5F52DF5F5F5F5F5F5F5F5F5F5F5F5F5F5F5F5F5F5F5F5E2E2
310
EFE2F5F5F5F5F5F5F5F5F5F5F5F5F5F5F5F5F5F5F5F52DF5F5F5F5F5F5F5F5F5F5F5F5F5F5F5F5F5F5F5F5F5F5F5F5F5F5F5F5F5F5F5F5F5F5F5F5F5F5F5F5F5F5F5F5F5F5F5F5F5F5F5F5F5F5F5F5F5F5F5F5F5F5F5F5F5F5F5F5F5F5F5F5F5F5F5F5F5F5F5F5F5F5F5F5F5F5F5F5F5F5F5F5F5F5F5F5F5F5F5F5F5F5F5F5
310
F5F5F5F5F5F5F5F5F5F5F5F5F5F5F5F5F5F5F5F5F5F5F5F5F5F5F5F5F5F52DF5F5F5F5F5F5F5F5F5F5F5F5F5F5F5F5F5F5F5F5E2E2EFE2F5F5F5F5F5F5F5F5F5F5F5F5F5F5F5F5F5F5F5F52DF5F5F5F5F5F5F5F5F5F5F5F5F5F5F5F5F5F5F5F5F5F5F5F5F5F5F5F5F5F5F5F5F5F5F5F5F5F5F5F5F5F5F5F5F5F5F5F5F5F5F5
310
F5F5F5F5F5F5F5F5F5F5F5F5F5F5F5F5F5F5F5F5F5F5F5F5F5F5F5F5F5F5F5F5F5F5F5F5F5F5F5F5F5F5F5F5F5F5F5F5F5F5F5F5F5F5F5F5F5F5F5F5F5F5F5F5F5F5F5F5F5F5F5F5F5F5F5F5F5F5F5F5F5F5F52DF5F5F5F5F5F5F5F5F5F5F5F5F5F5F5F5F5F5F5F5E2E2EFE2F5F5F5F5F5F5F5F5F5F5F5F5F5F5F5F5F5F5F5
310
F52DF5F5F5F5F5F5F5F5F5F5F5F5F5F5F5F5F5F5F5F5F5F5F5F5F5F5F5F5F5F5F5F5F5F5F5F5F5F5F5F5F5F5F5F5F5F5F5F5F5F5F5F5F5F5F5F5F5F5F5F5F5F5F5F5F5F5F5F5F5F5F5F5F5F5F5F5F5F5F5F5F5F5F5F5F5F5F5F5F5F5F5F5F5F5F5F5F5F5F5F5F5F5F5F5F5F5F5F5F5F5F5F5F5F5F5F5F5F5F5F5F5F5F5F5F5
310
F5F5F5F5F5F5F5F5F52DF5F5F5F5F5F5F5F5F5F5F5F5F5F5F5F5F5F5F5F5E2E2EFE2F5F5F5E2F5F5F5F5F5F5F5F5F5F5F5F5F5F5F5F52DF5F5F5F5F5F5F5F5F5F5F5F5F5F5F5F5F5F5F5F5F5F5F5F5F5F5F5F5F5F5F5F5F5F5F5F5F5F5F5F5F5F5F5F5F5F5F5F5F5F5F5F5F5F5F5F5F5F5F5F5F5F5F5F5F5F5F5F5F5F5F5F5
310
F5F5F5F5F5F5F5F5F5F5F5F5F5F5F5F5F5F5F5F5F5F5F5F5F5F5F5F5F5F5F5F5F5F5F5F5F5F5F5F5F5F5F5F5F5F5F5F5F5F5F5F5F5F5F5F5F5F5F5F5F5F52DF5F5F5F5F5F5F5F5F5F5F5F5F5F5F5F5E2F5F5F5E2E2EFE2F5F5F5E2F5F5F5F5F5F5F5F5F5F5F5F5F5F5F5F52DF5F5F5F5F5F5F5F5F5F5F5F5F5F5F5F5F5F5F5
310
F5F5F5F5F5F5F5F5F5F5F5F5F5F5F5F5F5F5F5F5F5F5F5F5F5F5F5F5F5F5F5F5F5F5F5F5F5F5F5F5F5F5F5F5F5F5F5F5F5F5F5F5F5F5F5F5F5F5F5F5F5F5F5F5F5F5F5F5F5F5F5F5F5F5F5F5F5F5F5F5F5F5F5F5F5F5F5F5F5F5F5F5F5F5F5F5F5F5F5F5F5F5F5F5F5F5F5F5F5F5F5F5F5F5F52DF5F5F5F5F5F5F5F5F5F5F5
310
F5F5F5F5F5E2F5F5F5E2E2EFE2F5F5F5E2F5F5F5F5F5F5F5F5F5F5F5F5F5F5F5F52DF5F5F5F5F5F5F5F5F5F5F5F5F5F5F5F5F5F5F5F5F5F5F5F5F5F5F5F5F5F5F5F5F5F5F5F5F5F5F5F5F5F5F5F5F5F5F5F5F5F5F5F5F5F5F5F5F5F5F5F5F5F5F5F5F5F5F5F5F5F5F5F5F5F5F5F5F5F5F5F5F5F5F5F5F5F5F5F5F5F5F5F5F5
310
F5F5F5F5F5F5F5F5F5F5F5F5F5F5F5F5F5F5F5F5F5F5F5F5F5F5F5F5F5F5F5F5F5F5F5F5F5F5F5F5F52DF5F5F5F5F5F5F5F5F5F5F5F5F5F5F5F5E2F5F5F5E2E2EFE2F5F5F5E2F5F5F5F5F5F5F5F5F5F5F5F5F5F5F5F52DF5F5F5F5F5F5F5F5F5F5F5F5F5F5F5F5F5F5F5F5F5F5F5F5F5F5F5F5F5F5F5F5F5F5F5F5F5F5F5F5
310
F5F5F5F5F5F5F5F5F5F5F5F5F5F5F5F5F5F5F5F5F5F5F5F5F5F5F5F5F5F5F5F5F5F5F5F5F5F5F5F5F5F5F5F5F5F5F5F5F5F5F5F5F5F5F5F5F5F5F5F5F5F5F5F5F5F5F5F5F5F5F5F5F5F5F5F5F5F5F5F5F5F5F5F5F5F5F5F5F5F5F5F5F5F52DF5F5F5F5F5F5F5F5F5F5F5F5F5F5F5F5E2F5F5F5E2E2EFE2F5F5F5E2F5F5F5F5
310
F5F5F5F5F5F5F5F5F5F5F5F52DF5F5F5F5F5F5F5F5F5F5F5F5F5F5F5F5F5F5F5F5F5F5F5F5F5F5F5F5F5F5F5F5F5F5F5F5F5F5F5F5F5F5F5F5F5F5F5F5F5F5F5F5F5F5F5F5F5F5F5F5F5F5F5F5F5F5F5F5F5F5F5F5F5F5F5F5F5F5F5F5F5F5F5F5F5F5F5F5F5F5F5F5F5F5F5F5F5F5F5F5F5F5F5F5F5F5F5F5F5F5F5F5F5F5
310
F5F5F5F5F5F5F5F5F5F5F5F5F5F5F5F5F5F5F5F52DF5F5F5F5F5F5F5F5F5F5F5F5F5F5F5F5E2F5F5F5E2E2EFE2F5F5F5E2F5F5F5F5F5F5F5F5F5F5F5F5F5F5F5F52DF5F5F5F5F5F5F5F5F5F5F5F5F5F5F5F5F5F5F5F5F5F5F5F5F5F5F5F5F5F5F5F5F5F5F5F5F5F5F5F5F5F5F5F5F5F5F5F5F5F5F5F5F5F5F5F5F5F5F5F5F5
310
F5F5F5F5F5F5F5F5F5F5F5F5F5F5F5F5F5F5F5F5F5F5F5F5F5F5F5F5F5F5F5F5F5F5F5F5F5F5F5F5F5F5F5F5F5F5F5F5F5F5F5F5F5F5F5F5F5F5F5F5F5F5F5F5F5F5F5F5F5F5F5F5F52DF5F5F5F5F5F5F5F5F5F5F5F5F5F5F5F5E2F5F5F5E2E2EFE2F5F5F5E2F5F5F5F5F5F5F5F5F5F5F5F5F5F5F5F52DF5F5F5F5F5F5F5F5
310
F5F5F5F5F5F5F5F5F5F5F5F5F5F5F5F5F5F5F5F5F5F5F5F5F5F5F5F5F5F5F5F5F5F5F5F5F5F5F5F5F5F5F5F5F5F5F5F5F5F5F5F5F5F5F5F5F5F5F5F5F5F5F5F5F5F5F5F5F5F5F5F5F5F5F5F5F5F5F5F5F5F5F5F5F5F5F5F5F5F5F5F5F5F5F5F5F5F5F5F5F5F5F5F5F5F5F5F5F5F5F5F5F5F5F5F5F5F5F5F5F5F5F5F5F5F52D
310
F5F5F5F5F5F5F5F5F5F5F5F5F5F5F5F5E2F5F5F5E2E2EFE2F5F5F5E2F5F5F5F5F5F5F5F5F5F5F5F5F5F5F5F52DF5F5F5F5F5F5F5F5F5F5F5F5F5F5F5F5F5F5F5F5F5F5F5F5F5F5F5F5F5F5F5F5F5F5F5F5F5F5F5F5F5F5F5F5F5F5F5F5F5F5F5F5F5F5F5F5F5F5F5F5F5F5F5F5F5F5F5F5F5F5F5F5F5F5F5F5F5F5F5F5F5F5
310
F5F5F5F5F5F5F5F5F5F5F5F5F5F5F5F5F5F5F5F5F5F5F5F5F5F5F5F5F5F5F5F5F5F5F5F5F5F5F5F5F5F5F5F5F5F5F5F5F5F5F5F52DF5F5F5F5F5F5F5F5F5F5F5F5F5F5F5F5E2F5F5F5E2E2EFE2F5F5F5E2F5F5F5F5F5F5F5F5F5F5F5F5F5F5F5F52DF5F5F5F5F5F5F5F5F5F5F5F5F5F5F5F5F5F5F5F5F5F5F5F5F5F5F5F5F5
310
F5F5F5F5F5F5F5F5F5F5F5F5F5F5F5F5F5F5F5F5F5F5F5F5F5F5F5F5F5F5F5F5F5F5F5F5F5F5F5F5F5F5F5F5F5F5F5F5F5F5F5F5F5F5F5F5F5F5F5F5F5F5F5F5F5F5F5F5F5F5F5F5F5F5F5F5F5F5F5F5F5F5F5F5F5F5F5F5F5F5F5F5F5F5F5F5F5F5F5F5F5F5F5F5F52DF5F5F5F5F5F5F5F5F5F5F5F5F5F5F5F5E2F5F5F5E2
310
E2EFE2F5F5F5E2F5F5F5F5F5F5F5F5F5F5F5F5F5F5F5F52DF5F5F5F5F5F5F5F5F5F5F5F5F5F5F5F5F5F5F5F5F5F5F5F5F5F5F5F5F5F5F5F5F5F5F5F5F5F5F5F5F5F5F5F5F5F5F5F5F5F5F5F5F5F5F5F5F5F5F5F5F5F5F5F5F5F5F5F5F5F5F5F5F5F5F5F5F5F5F5F5F5F5F5F5F5F5F5F5F5F5F5F5F5F5F5F5F5F5F5F5F5F5F5
310
F5F5F5F5F5F5F5F5F5F5F5F5F5F5F5F5F5F5F5F5F5F5F5F5F5F5F5F5F5F5F52DF5F5F5F5F5F5F5F5F5F5F5F5F5F5F5F5E2F5F5F5E2E2EFE2F5F5F5E2F5F5F5F5F5F5F5F5F5F5F5F5F5F5F5F52DF5F5F5F5F5F5F5F5F5F5F5F5F5F5F5F5F5F5F5F5F5F5F5F5F5F5F5F5F5F5F5F5F5F5F5F5F5F5F5F5F5F5F5F5F5F5F5F5F5F5
310
F5F5F5F5F5F5F5F5F5F5F5F5F5F5F5F5F5F5F5F5F5F5F5F5F5F5F5F5F5F5F5F5F5F5F5F5F5F5F5F5F5F5F5F5F5F5F5F5F5F5F5F5F5F5F5F5F5F5F5F5F5F5F5F5F5F5F5F5F5F5F5F5F5F5F5F5F5F5F5F5F5F5F5F52DF5F5F5F5F5F5F5F5F5F5F5F5F5F5F5F5E2F5F5F5E2E2EFE2F5F5F5E2F5F5F5F5F5F5F5F5F5F5F5F5F5F5
310
F5F52DF5F5F5F5F5F5F5F5F5F5F5F5F5F5F5F5F5F5F5F5F5F5F5F5F5F5F5F5F5F5F5F5F5F5F5F5F5F5F5F5F5F5F5F5F5F5F5F5F5F5F5F5F5F5F5F5F5F5F5F5F5F5F5F5F5F5F5F5F5F5F5F5F5F5F5F5F5F5F5F5F5F5F5F5F5F5F5F5F5F5F5F5F5F5F5F5F5F5F5F5F5F5F5F5F5F5F5F5F5F5F5F5F5F5F5F5F5F5F5F5F5F5F5F5
310
F5F5F5F5F5F5F5F5F5F52DF5F5F5F5F5F5F5F5F5F5F5F5F5F5F5F5E2F5F5F5E2E2EFE2F5F5F5E2F5F5F5F5F5F5F5F5F5F5F5F5F5F5F5F52DF5F5F5F5F5F5F5F5F5F5F5F5F5F5F5F5F5F5F5F5F5F5F5F5F5F5F5F5F5F5F5F5F5F5F5F5F5F5F5F5F5F5F5F5F5F5F5F5F5F5F5F5F5F5F5F5F5F5F5F5F5F5F5F5F5F5F5F5F5F5F5
310
F5F5F5F5F5F5F5F5F5F5F5F5F5F5F5F5F5F5F5F5F5F5F5F5F5F5F5F5F5F5F5F5F5F5F5F5F5F5F5F5F5F5F5F5F5F5F5F5F5F5F5F5F5F5F5F5F5F5F5F5F5F5F52DF5F5F5F5F5F5F5F5F5F5F5F5F5F5F5F5E2F5F5F5E2E2EFE2F5F5F5E2F5F5F5F5F5F5F5F5F5F5F5F5F5F5F5F52DF5F5F5F5F5F5F5F5F5F5F5F5F5F5F5F5F5F5
310
F5F5F5F5F5F5F5F5F5F5F5F5F5F5F5F5F5F5F5F5F5F5F5F5F5F5F5F5F5F5F5F5F5F5F5F5F5F5F5F5F5F5F5F5F5F5F5F5F5F5F5F5F5F5F5F5F5F5F5F5F5F5F5F5F5F5F5F5F5F5F5F5F5F5F5F5F5F5F5F5F5F5F5F5F5F5F5F5F5F5F5F5F5F5F5F5F5F5F5F5F5F5F5F5F5F5F5F5F5F5F5F5F5F5F5F52DF5F5F5F5F5F5F5F5F5F5
310
F5F5F5F5F5F5E2F5F5F5E2E2EFE2F5F5F5E2F5F5F5F5F5F5F5F5F5F5F5F5F5F5F5F52DF5F5F5F5F5F5F5F5F5F5F5F5F5F5F5F5F5F5F5F5F5F5F5F5F5F5F5F5F5F5F5F5F5F5F5F5F5F5F5F5F5F5F5F5F5F5F5F5F5F5F5F5F5F5F5F5F5F5F5F5F5F5F5F5F5F5F5F5F5F5F5F5F5F5F5F5F5F5F5F5F5F5F5F5F5F5F5F5F5F5F5F5
310
F5F5F5F5F5F5F5F5F5F5F5F5F5F5F5F5F5F5F5F5F5F5F5F5F5F5F5F5F5F5F5F5F5F5F5F5F5F5F5F5F5F52DF5F5F5F5F5F5F5F5F5F5F5F5F5F5F5F5E2F5F5F5E2E2EFE2F5F5F5E2F5F5F5F5F5F5F5F5F5F5F5F5F5F5F5F52DF5F5F5F5F5F5F5F5F5F5F5F5F5F5F5F5F5F5F5F5F5F5F5F5F5F5F5F5F5F5F5F5F5F5F5F5F5F5F5
310
F5F5F5F5F5F5F5F5F5F5F5F5F5F5F5F5F5F5F5F5F5F5F5F5F5F5F5F5F5F5F5F5F5F5F5F5F5F5F5F5F5F5F5F5F5F5F5F5F5F5F5F5F5F5F5F5F5F5F5F5F5F5F5F5F5F5F5F5F5F5F5F5F5F5F5F5F5F5F5F5F5F5F5F5F5F5F5F5F5F5F5F5F5F5F52DF5F5F5F5F5F5F5F5F5F5F5F5F5F5F5F5E2F5F5F5E2E2EFE2F5F5F5E2F5F5F5
310
F5F5F5F5F5F5F5F5F5F5F5F5F52DF5F5F5F5F5F5F5F5F5F5F5F5F5F5F5F5F5F5F5F5F5F5F5F5F5F5F5F5F5F5F5F5F5F5F5F5F5F5F5F5F5F5F5F5F5F5F5F5F5F5F5F5F5F5F5F5F5F5F5F5F5F5F5F5F5F5F5F5F5F5F5F5F5F5F5F5F5F5F5F5F5F5F5F5F5F5F5F5F5F5F5F5F5F5F5F5F5F5F5F5F5F5F5F5F5F5F5F5F5F5F5F5F5
310
F5F5F5F5F5F5F5F5F5F5F5F5F5F5F5F5F5F5F5F5F52DF5F5F5F5F5F5F5F5F5F5F5F5F5F5F5F5E2F5F5F5E2E2EFE2F5F5F5F5F5F5F5F5F5F5F5F5F5F5F5F5F5F5F5F52DF5F5F5F5F5F5F5F5F5F5F5F5F5F5F5F5F5F5F5F5F5F5F5F5F5F5F5F5F5F5F5F5F5F5F5F5F5F5F5F5F5F5F5F5F5F5F5F5F5F5F5F5F5F5F5F5F5F5F5F5
310
F5F5F5F5F5F5F5F5F5F5F5F5F5F5F5F5F5F5F5F5F5F5F5F5F5F5F5F5F5F5F5F5F5F5F5F5F5F5F5F5F5F5F5F5F5F5F5F5F5F5F5F5F5F5F5F5F5F5F5F5F5F5F5F5F5F5F5F5F5F5F5F5F5F52DF5F5F5F5F5F5F5F5F5F5F5F5F5F5F5F5F5F5F5F5E2E2EFE2F5F5F5F5F5F5F5F5F5F5F5F5F5F5F5F5F5F5F5F52DF5F5F5F5F5F5F5
310
F5F5F5F5F5F5F5F5F5F5F5F5F5F5F5F5F5F5F5F5F5F5F5F5F5F5F5F5F5F5F5F5F5F5F5F5F5F5F5F5F5F5F5F5F5F5F5F5F5F5F5F5F5F5F5F5F5F5F5F5F5F5F5F5F5F5F5F5F5F5F5F5F5F5F5F5F5F5F5F5F5F5F5F5F5F5F5F5F5F5F5F5F5F5F5F5F5F5F5F5F5F5F5F5F5F5F5F5F5F5F5F5F5F5F5F5F5F5F5F5F5F5F5F5F5F5F5
310
2DF5F5F5F5F5F5F5F5F5F5F5F5F5F5F5F5F5F5F5F5E2E2EFE2F5F5F5F5F5F5F5F5F5F5F5F5F5F5F5F5F5F5F5F52DF5F5F5F5F5F5F5F5F5F5F5F5F5F5F5F5F5F5F5F5F5F5F5F5F5F5F5F5F5F5F5F5F5F5F5F5F5F5F5F5F5F5F5F5F5F5F5F5F5F5F5F5F5F5F5F5F5F5F5F5F5F5F5F5F5F5F5F5F5F5F5F5F5F5F5F5F5F5F5F5F5
310
F5F5F5F5F5F5F5F5F5F5F5F5F5F5F5F5F5F5F5F5F5F5F5F5F5F5F5F5F5F5F5F5F5F5F5F5F5F5F5F5F5F5F5F5F5F5F5F5F5F5F5F5F52DF5F5F5F5F5F5F5F5F5F5F5F5F5F5F5F5F5F5F5F5E2E2EFE2F5F5F5F5F5F5F5F5F5F5F5F5F5F5F5F5F5F5F5F52DF5F5F5F5F5F5F5F5F5F5F5F5F5F5F5F5F5F5F5F5F5F5F5F5F5F5F5F5
310
F5F5F5F5F5F5F5F5F5F5F5F5F5F5F5F5F5F5F5F5F5F5F5F5F5F5F5F5F5F5F5F5F5F5F5F5F5F5F5F5F5F5F5F5F5F5F5F5F5F5F5F5F5F5F5F5F5F5F5F5F5F5F5F5F5F5F5F5F5F5F5F5F5F5F5F5F5F5F5F5F5F5F5F5F5F5F5F5F5F5F5F5F5F5F5F5F5F5F5F5F5F5F5F5F5F52DF5F5F5F5F5F5F5F5F5F5F5F5F5F5F5F5F5F5F5F5
310
E2E2EFE2F5F5F5F5F5F5F5F5F5F5F5F5F5F5F5F5F5F5F5F52DF5F5F5F5F5F5F5F5F5F5F5F5F5F5F5F5F5F5F5F5F5F5F5F5F5F5F5F5F5F5F5F5F5F5F5F5F5F5F5F5F5F5F5F5F5F5F5F5F5F5F5F5F5F5F5F5F5F5F5F5F5F5F5F5F5F5F5F5F5F5F5F5F5F5F5F5F5F5F5F5F5F5F5F5F5F5F5F5F5F5F5F5F5F5F5F5F5F5F5F5F5F5
310
F5F5F5F5F5F5F5F5F5F5F5F5F5F5F5F5F5F5F5F5F5F5F5F5F5F5F5F5F5F5F5F52DF5F5F5F5F5F5F5F5F5F5F5F5F5F5F5F5F5F5F5F5E2E2EFE2F5F5F5F5F5F5F5F5F5F5F5F5F5F5F5F5F5F5F5F52DF5F5F5F5F5F5F5F5F5F5F5F5F5F5F5F5F5F5F5F5F5F5F5F5F5F5F5F5F5F5F5F5F5F5F5F5F5F5F5F5F5F5F5F5F5F5F5F5F5
310
F5F5F5F5F5F5F5F5F5F5F5F5F5F5F5F5F5F5F5F5F5F5F5F5F5F5F5F5F5F5F5F5F5F5F5F5F5F5F5F5F5F5F5F5F5F5F5F5F5F5F5F5F5F5F5F5F5F5F5F5F5F5F5F5F5F5F5F5F5F5F5F5F5F5F5F5F5F5F5F5F5F5F5F5F52DF5F5F5F5F5F5F5F5F5F5F5F5F5F5F5F5F5F5F5F5E2E2EFE2F5F5F5F5F5F5F5F5F5F5F5F5F5F5F5F5F5
310
F5F5F52DF5F5F5F5F5F5F5F5F5F5F5F5F5F5F5F5F5F5F5F5F5F5F5F5F5F5F5F5F5F5F5F5F5F5F5F5F5F5F5F5F5F5F5F5F5F5F5F5F5F5F5F5F5F5F5F5F5F5F5F5F5F5F5F5F5F5F5F5F5F5F5F5F5F5F5F5F5F5F5F5F5F5F5F5F5F5F5F5F5F5F5F5F5F5F5F5F5F5F5F5F5F5F5F5F5F5F5F5F5F5F5F5F5F5F5F5F5F5F5F5F5F5F5
310
F5F5F5F5F5F5F5F5F5F5F52DF5F5F5F5F5F5F5F5F5F5F5F5F5F5F5F5F5F5F5F5E2E2EFE2F5F5F5F5F5F5F5F5F5F5F5F5F5F5F5F5F5F5F5F52DF5F5F5F5F5F5F5F5F5F5F5F5F5F5F5F5F5F5F5F5F5F5F5F5F5F5F5F5F5F5F5F5F5F5F5F5F5F5F5F5F5F5F5F5F5F5F5F5F5F5F5F5F5F5F5F5F5F5F5F5F5F5F5F5F5F5F5F5F5F5
310
F5F5F5F5F5F5F5F5F5F5F5F5F5F5F5F5F5F5F5F5F5F5F5F5F5F5F5F5F5F5F5F5F5F5F5F5F5F5F5F5F5F5F5F5F5F5F5F5F5F5F5F5F5F5F5F5F5F5F5F5F5F5F5F52DF5F5F5F5F5F5F5F5F5F5F5F5F5F5F5F5F5F5F5F5E2E2EFE2F5F5F5F5F5F5F5F5F5F5F5F5F5F5F5F5F5F5F5F52DF5F5F5F5F5F5F5F5F5F5F5F5F5F5F5F5F5
310
F5F5F5F5F5F5F5F5F5F5F5F5F5F5F5F5F5F5F5F5F5F5F5F5F5F5F5F5F5F5F5F5F5F5F5F5F5F5F5F5F5F5F5F5F5F5F5F5F5F5F5F5F5F5F5F5F5F5F5F5F5F5F5F5F5F5F5F5F5F5F5F5F5F5F5F5F5F5F5F5F5F5F5F5F5F5F5F5F5F5F5F5F5F5F5F5F5F5F5F5F5F5F5F5F5F5F5F5F5F5F5F5F5F5F5F5F52DF5F5F5F5F5F5F5F5F5
310
F5F5F5F5F5F5F5F5F5F5F5E2E2EFE2F5F5F5E2F5F5F5F5F5F5F5F5F5F5F5F5F5F5F5F52DF5F5F5F5F5F5F5F5F5F5F5F5F5F5F5F5F5F5F5F5F5F5F5F5F5F5F5F5F5F5F5F5F5F5F5F5F5F5F5F5F5F5F5F5F5F5F5F5F5F5F5F5F5F5F5F5F5F5F5F5F5F5F5F5F5F5F5F5F5F5F5F5F5F5F5F5F5F5F5F5F5F5F5F5F5F5F5F5F5F5F5
310
F5F5F5F5F5F5F5F5F5F5F5F5F5F5F5F5F5F5F5F5F5F5F5F5F5F5F5F5F5F5F5F5F5F5F5F5F5F5F5F5F5F5F52DF5F5F5F5F5F5F5F5F5F5F5F5F5F5F5F5E2F5F5F5E2E2EFE2F5F5F5E2F5F5F5F5F5F5F5F5F5F5F5F5F5F5F5F52DF5F5F5F5F5F5F5F5F5F5F5F5F5F5F5F5F5F5F5F5F5F5F5F5F5F5F5F5F5F5F5F5F5F5F5F5F5F5
310
F5F5F5F5F5F5F5F5F5F5F5F5F5F5F5F5F5F5F5F5F5F5F5F5F5F5F5F5F5F5F5F5F5F5F5F5F5F5F5F5F5F5F5F5F5F5F5F5F5F5F5F5F5F5F5F5F5F5F5F5F5F5F5F5F5F5F5F5F5F5F5F5F5F5F5F5F5F5F5F5F5F5F5F5F5F5F5F5F5F5F5F5F5F5F5F52DF5F5F5F5F5F5F5F5F5F5F5F5F5F5F5F5E2F5F5F5E2E2EFE2F5F5F5E2F5F5
310
F5F5F5F5F5F5F5F5F5F5F5F5F5F52DF5F5F5F5F5F5F5F5F5F5F5F5F5F5F5F5F5F5F5F5F5F5F5F5F5F5F5F5F5F5F5F5F5F5F5F5F5F5F5F5F5F5F5F5F5F5F5F5F5F5F5F5F5F5F5F5F5F5F5F5F5F5F5F5F5F5F5F5F5F5F5F5F5F5F5F5F5F5F5F5F5F5F5F5F5F5F5F5F5F5F5F5F5F5F5F5F5F5F5F5F5F5F5F5F5F5F5F5F5F5F5F5
310
F5F5F5F5F5F5F5F5F5F5F5F5F5F5F5F5F5F5F5F5F5F52DF5F5F5F5F5F5F5F5F5F5F5F5F5F5F5F5E2F5F5F5E2E2EFE2F5F5F5E2F5F5F5F5F5F5F5F5F5F5F5F5F5F5F5F52DF5F5F5F5F5F5F5F5F5F5F5F5F5F5F5F5F5F5F5F5F5F5F5F5F5F5F5F5F5F5F5F5F5F5F5F5F5F5F5F5F5F5F5F5F5F5F5F5F5F5F5F5F5F5F5F5F5F5F5
310
F5F5F5F5F5F5F5F5F5F5F5F5F5F5F5F5F5F5F5F5F5F5F5F5F5F5F5F5F5F5F5F5F5F5F5F5F5F5F5F5F5F5F5F5F5F5F5F5F5F5F5F5F5F5F5F5F5F5F5F5F5F5F5F5F5F5F5F5F5F5F5F5F5F5F52DF5F5F5F5F5F5F5F5F5F5F5F5F5F5F5F5E2F5F5F5E2E2EFE2F5F5F5E2F5F5F5F5F5F5F5F5F5F5F5F5F5F5F5F52DF5F5F5F5F5F5
310
F5F5F5F5F5F5F5F5F5F5F5F5F5F5F5F5F5F5F5F5F5F5F5F5F5F5F5F5F5F5F5F5F5F5F5F5F5F5F5F5F5F5F5F5F5F5F5F5F5F5F5F5F5F5F5F5F5F5F5F5F5F5F5F5F5F5F5F5F5F5F5F5F5F5F5F5F5F5F5F5F5F5F5F5F5F5F5F5F5F5F5F5F5F5F5F5F5F5F5F5F5F5F5F5F5F5F5F5F5F5F5F5F5F5F5F5F5F5F5F5F5F5F5F5F5F5F5
310
F52DF5F5F5F5F5F5F5F5F5F5F5F5F5F5F5F5E2F5F5F5E2E2EFE2F5F5F5E2F5F5F5F5F5F5F5F5F5F5F5F5F5F5F5F52DF5F5F5F5F5F5F5F5F5F5F5F5F5F5F5F5F5F5F5F5F5F5F5F5F5F5F5F5F5F5F5F5F5F5F5F5F5F5F5F5F5F5F5F5F5F5F5F5F5F5F5F5F5F5F5F5F5F5F5F5F5F5F5F5F5F5F5F5F5F5F5F5F5F5F5F5F5F5F5F5
310
F5F5F5F5F5F5F5F5F5F5F5F5F5F5F5F5F5F5F5F5F5F5F5F5F5F5F5F5F5F5F5F5F5F5F5F5F5F5F5F5F5F5F5F5F5F5F5F5F5F5F5F5F5F52DF5F5F5F5F5F5F5F5F5F5F5F5F5F5F5F5E2F5F5F5E2E2EFE2F5F5F5E2F5F5F5F5F5F5F5F5F5F5F5F5F5F5F5F52DF5F5F5F5F5F5F5F5F5F5F5F5F5F5F5F5F5F5F5F5F5F5F5F5F5F5F5
310
F5F5F5F5F5F5F5F5F5F5F5F5F5F5F5F5F5F5F5F5F5F5F5F5F5F5F5F5F5F5F5F5F5F5F5F5F5F5F5F5F5F5F5F5F5F5F5F5F5F5F5F5F5F5F5F5F5F5F5F5F5F5F5F5F5F5F5F5F5F5F5F5F5F5F5F5F5F5F5F5F5F5F5F5F5F5F5F5F5F5F5F5F5F5F5F5F5F5F5F5F5F5F5F5F5F5F52DF5F5F5F5F5F5F5F5F5F5F5F5F5F5F5F5E2F5F5
310
F5E2E2EFE2F5F5F5E2F5F5F5F5F5F5F5F5F5F5F5F5F5F5F5F52DF5F5F5F5F5F5F5F5F5F5F5F5F5F5F5F5F5F5F5F5F5F5F5F5F5F5F5F5F5F5F5F5F5F5F5F5F5F5F5F5F5F5F5F5F5F5F5F5F5F5F5F5F5F5F5F5F5F5F5F5F5F5F5F5F5F5F5F5F5F5F5F5F5F5F5F5F5F5F5F5F5F5F5F5F5F5F5F5F5F5F5F5F5F5F5F5F5F5F5F5F5
310
F5F5F5F5F5F5F5F5F5F5F5F5F5F5F5F5F5F5F5F5F5F5F5F5F5F5F5F5F5F5F5F5F52DF5F5F5F5F5F5F5F5F5F5F5F5F5F5F5F5E2F5F5F5E2E2EFE2F5F5F5E2F5F5F5F5F5F5F5F5F5F5F5F5F5F5F5F52DF5F5F5F5F5F5F5F5F5F5F5F5F5F5F5F5F5F5F5F5F5F5F5F5F5F5F5F5F5F5F5F5F5F5F5F5F5F5F5F5F5F5F5F5F5F5F5F5
310
F5F5F5F5F5F5F5F5F5F5F5F5F5F5F5F5F5F5F5F5F5F5F5F5F5F5F5F5F5F5F5F5F5F5F5F5F5F5F5F5F5F5F5F5F5F5F5F5F5F5F5F5F5F5F5F5F5F5F5F5F5F5F5F5F5F5F5F5F5F5F5F5F5F5F5F5F5F5F5F5F5F5F5F5F5F52DF5F5F5F5F5F5F5F5F5F5F5F5F5F5F5F5E2F5F5F5E2E2EFE2F5F5F5E2F5F5F5F5F5F5F5F5F5F5F5F5
310
F5F5F5F52DF5F5F5F5F5F5F5F5F5F5F5F5F5F5F5F5F5F5F5F5F5F5F5F5F5F5F5F5F5F5F5F5F5F5F5F5F5F5F5F5F5F5F5F5F5F5F5F5F5F5F5F5F5F5F5F5F5F5F5F5F5F5F5F5F5F5F5F5F5F5F5F5F5F5F5F5F5F5F5F5F5F5F5F5F5F5F5F5F5F5F5F5F5F5F5F5F5F5F5F5F5F5F5F5F5F5F5F5F5F5F5F5F5F5F5F5F5F5F5F5F5F5
310
F5F5F5F5F5F5F5F5F5F5F5F52DF5F5F5F5F5F5F5F5F5F5F5F5F5F5F5F5E2F5F5F5E2E2EFE2F5F5F5E2F5F5F5F5F5F5F5F5F5F5F5F5F5F5F5F52DF5F5F5F5F5F5F5F5F5F5F5F5F5F5F5F5F5F5F5F5F5F5F5F5F5F5F5F5F5F5F5F5F5F5F5F5F5F5F5F5F5F5F5F5F5F5F5F5F5F5F5F5F5F5F5F5F5F5F5F5F5F5F5F5F5F5F5F5F5
310
F5F5F5F5F5F5F5F5F5F5F5F5F5F5F5F5F5F5F5F5F5F5F5F5F5F5F5F5F5F5F5F5F5F5F5F5F5F5F5F5F5F5F5F5F5F5F5F5F5F5F5F5F5F5F5F5F5F5F5F5F5F5F5F5F52DF5F5F5F5F5F5F5F5F5F5F5F5F5F5F5F5E2F5F5F5E2E2EFE2F5F5F5E2F5F5F5F5F5F5F5F5F5F5F5F5F5F5F5F52DF5F5F5F5F5F5F5F5F5F5F5F5F5F5F5F5
310
F5F5F5F5F5F5F5F5F5F5F5F5F5F5F5F5F5F5F5F5F5F5F5F5F5F5F5F5F5F5F5F5F5F5F5F5F5F5F5F5F5F5F5F5F5F5F5F5F5F5F5F5F5F5F5F5F5F5F5F5F5F5F5F5F5F5F5F5F5F5F5F5F5F5F5F5F5F5F5F5F5F5F5F5F5F5F5F5F5F5F5F5F5F5F5F5F5F5F5F5F5F5F5F5F5F5F5F5F5F5F5F5F5F5F5F5F5F52DF5F5F5F5F5F5F5F5
310
F5F5F5F5F5F5F5F5E2F5F5F5E2E2EFE2F5F5F5E2F5F5F5F5F5F5F5F5F5F5F5F5F5F5F5F52DF5F5F5F5F5F5F5F5F5F5F5F5F5F5F5F5F5F5F5F5F5F5F5F5F5F5F5F5F5F5F5F5F5F5F5F5F5F5F5F5F5F5F5F5F5F5F5F5F5F5F5F5F5F5F5F5F5F5F5F5F5F5F5F5F5F5F5F5F5F5F5F5F5F5F5F5F5F5F5F5F5F5F5F5F5F5F5F5F5F5
310
F5F5F5F5F5F5F5F5F5F5F5F5F5F5F5F5F5F5F5F5F5F5F5F5F5F5F5F5F5F5F5F5F5F5F5F5F5F5F5F5F5F5F5F52DF5F5F5F5F5F5F5F5F5F5F5F5F5F5F5F5E2F5F5F5E2E2EFE2F5F5F5E2F5F5F5F5F5F5F5F5F5F5F5F5F5F5F5F52DF5F5F5F5F5F5F5F5F5F5F5F5F5F5F5F5F5F5F5F5F5F5F5F5F5F5F5F5F5F5F5F5F5F5F5F5F5
310
F5F5F5F5F5F5F5F5F5F5F5F5F5F5F5F5F5F5F5F5F5F5F5F5F5F5F5F5F5F5F5F5F5F5F5F5F5F5F5F5F5F5F5F5F5F5F5F5F5F5F5F5F5F5F5F5F5F5F5F5F5F5F5F5F5F5F5F5F5F5F5F5F5F5F5F5F5F5F5F5F5F5F5F5F5F5F5F5F5F5F5F5F5F5F5F5F52DF5F5F5F5F5F5F5F5F5F5F5F5F5F5F5F5E2F5F5F5E2E2EFE2F5F5F5E2F5
310
F5F5F5F5F5F5F5F5F5F5F5F5F5F5F52DF5F5F5F5F5F5F5F5F5F5F5F5F5F5F5F5F5F5F5F5F5F5F5F5F5F5F5F5F5F5F5F5F5F5F5F5F5F5F5F5F5F5F5F5F5F5F5F5F5F5F5F5F5F5F5F5F5F5F5F5F5F5F5F5F5F5F5F5F5F5F5F5F5F5F5F5F5F5F5F5F5F5F5F5F5F5F5F5F5F5F5F5F5F5F5F5F5F5F5F5F5F5F5F5F5F5F5F5F5F5F5
310
F5F5F5F5F5F5F5F5F5F5F5F5F5F5F5F5F5F5F5F5F5F5F52DF5F5F5F5F5F5F5F5F5F5F5F5F5F5F5F5E2F5F5F5E2E2EFE2F5F5F5E2F5F5F5F5F5F5F5F5F5F5F5F5F5F5F5F52DF5F5F5F5F5F5F5F5F5F5F5F5F5F5F5F5F5F5F5F5F5F5F5F5F5F5F5F5F5F5F5F5F5F5F5F5F5F5F5F5F5F5F5F5F5F5F5F5F5F5F5F5F5F5F5F5F5F5
310
F5F5F5F5F5F5F5F5F5F5F5F5F5F5F5F5F5F5F5F5F5F5F5F5F5F5F5F5F5F5F5F5F5F5F5F5F5F5F5F5F5F5F5F5F5F5F5F5F5F5F5F5F5F5F5F5F5F5F5F5F5F5F5F5F5F5F5F5F5F5F5F5F5F5F5F52DF5F5F5F5F5F5F5F5F5F5F5F5F5F5F5F5E2F5F5F5E2E2EFE2F5F5F5E2F5F5F5F5F5F5F5F5F5F5F5F5F5F5F5F52DF5F5F5F5F5
310
F5F5F5F5F5F5F5F5F5F5F5F5F5F5F5F5F5F5F5F5F5F5F5F5F5F5F5F5F5F5F5F5F5F5F5F5F5F5F5F5F5F5F5F5F5F5F5F5F5F5F5F5F5F5F5F5F5F5F5F5F5F5F5F5F5F5F5F5F5F5F5F5F5F5F5F5F5F5F5F5F5F5F5F5F5F5F5F5F5F5F5F5F5F5F5F5F5F5F5F5F5F5F5F5F5F5F5F5F5F5F5F5F5F5F5F5F5F5F5F5F5F5F5F5F5F5F5
310
F5F52DF5F5F5F5F5F5F5F5F5F5F5F5F5F5F5F5E2F5F5F5E2E2EFE2F5F5F5F5F5F5F5F5F5F5F5F5F5F5F5F5F5F5F5F52DF5F5F5F5F5F5F5F5F5F5F5F5F5F5F5F5F5F5F5F5F5F5F5F5F5F5F5F5F5F5F5F5F5F5F5F5F5F5F5F5F5F5F5F5F5F5F5F5F5F5F5F5F5F5F5F5F5F5F5F5F5F5F5F5F5F5F5F5F5F5F5F5F5F5F5F5F5F5F5
310
F5F5F5F5F5F5F5F5F5F5F5F5F5F5F5F5F5F5F5F5F5F5F5F5F5F5F5F5F5F5F5F5F5F5F5F5F5F5F5F5F5F5F5F5F5F5F5F5F5F5F5F5F5F5F52DF5F5F5F5F5F5F5F5F5F5F5F5F5F5F5F5F5F5F5F5E2E2EFE2F5F5F5F5F5F5F5F5F5F5F5F5F5F5F5F5F5F5F5F52DF5F5F5F5F5F5F5F5F5F5F5F5F5F5F5F5F5F5F5F5F5F5F5F5F5F5
310
F5F5F5F5F5F5F5F5F5F5F5F5F5F5F5F5F5F5F5F5F5F5F5F5F5F5F5F5F5F5F5F5F5F5F5F5F5F5F5F5F5F5F5F5F5F5F5F5F5F5F5F5F5F5F5F5F5F5F5F5F5F5F5F5F5F5F5F5F5F5F5F5F5F5F5F5F5F5F5F5F5F5F5F5F5F5F5F5F5F5F5F5F5F5F5F5F5F5F5F5F5F5F5F5F5F5F5F52DF5F5F5F5F5F5F5F5F5F5F5F5F5F5F5F5F5F5
310
F5F5E2E2EFE2F5F5F5F5F5F5F5F5F5F5F5F5F5F5F5F5F5F5F5F52DF5F5F5F5F5F5F5F5F5F5F5F5F5F5F5F5F5F5F5F5F5F5F5F5F5F5F5F5F5F5F5F5F5F5F5F5F5F5F5F5F5F5F5F5F5F5F5F5F5F5F5F5F5F5F5F5F5F5F5F5F5F5F5F5F5F5F5F5F5F5F5F5F5F5F5F5F5F5F5F5F5F5F5F5F5F5F5F5F5F5F5F5F5F5F5F5F5F5F5F5
310
F5F5F5F5F5F5F5F5F5F5F5F5F5F5F5F5F5F5F5F5F5F5F5F5F5F5F5F5F5F5F5F5F5F52DF5F5F5F5F5F5F5F5F5F5F5F5F5F5F5F5F5F5F5F5E2E2EFE2F5F5F5F5F5F5F5F5F5F5F5F5F5F5F5F5F5F5F5F52DF5F5F5F5F5F5F5F5F5F5F5F5F5F5F5F5F5F5F5F5F5F5F5F5F5F5F5F5F5F5F5F5F5F5F5F5F5F5F5F5F5F5F5F5F5F5F5
310
F5F5F5F5F5F5F5F5F5F5F5F5F5F5F5F5F5F5F5F5F5F5F5F5F5F5F5F5F5F5F5F5F5F5F5F5F5F5F5F5F5F5F5F5F5F5F5F5F5F5F5F5F5F5F5F5F5F5F5F5F5F5F5F5F5F5F5F5F5F5F5F5F5F5F5F5F5F5F5F5F5F5F5F5F5F5F52DF5F5F5F5F5F5F5F5F5F5F5F5F5F5F5F5F5F5F5F5E2E2EFE2F5F5F5F5F5F5F5F5F5F5F5F5F5F5F5
310
F5F5F5F5F52D2D2D2D2D2D2D2D2D2D2D2D2D2D2D2D2D2D2D2D2D2D2D2D2D2D2D2D2D2D2D2D2D2D2D2D2D2D2D2D2D2D2D2D2D2D2D2D2D2D2D2D2D2D2D2D2D2D2D2D2D2D2D2D2D2D2D2D2D2D2D2D2D2D2D2D2D2D2D2D2D2D2D2D2D2D2D2D2D2D2D2D2D2D2D2D2D2D2D2D2D2D2D2D2D2D2D2D2D2D2D2D2D2D2D2D2D2D2D2D2D2D
310
2D2D2D2D2D2D2D2D2D2D2D2D2D2DF5F5F5F5F5F5F5F5F5F5F5F5F5F5F5F5F5F5F5F5E2E2EFE2F5F5F5F5F5F5F5F5F5F5F5F5F5F5F5F5F5F5F5F5F5F5F5F5F5F5F5F5F5F5F5F5F5F5F5F5F5F5F5F5F5F5F5F5F5F5F5F5F5F5F5F5F5F5F5F5F5F5F5F5F5F5F5F5F5F5F5F5F5F5F5F5F5F5F5F5F5F5F5F5F5F5F5F5F5F5F5F5F5
310
F5F5F5F5F5F5F5F5F5F5F5F5F5F5F5F5F5F5F5F5F5F5F5F5F5F5F5F5F5F5F5F5F5F5F5F5F5F5F5F5F5F5F5F5F5F5F5F5F5F5F5F5F5F5F5F5F5F5F5F5F5F5F5F5F5F5F5F5F5F5F5F5F5F5F5F5F5F5F5F5F5F5F5F5F5F5F5E2E2EFE2F5F5F5F5F5F5F5F5F5F5F5F5F5F5F5F5F5F5F5F5F5F5F5F5F5F5F5F5F5F5F5F5F5F5F5F5
310
F5F5F5F5F5F5F5F5F5F5F5F5F5F5F5F5F5F5F5F5F5F5F5F5F5F5F5F5F5F5F5F5F5F5F5F5F5F5F5F5F5F5F5F5F5F5F5F5F5F5F5F5F5F5F5F5F5F5F5F5F5F5F5F5F5F5F5F5F5F5F5F5F5F5F5F5F5F5F5F5F5F5F5F5F5F5F5F5F5F5F5F5F5F5F5F5F5F5F5F5F5F5F5F5F5F5F5F5F5F5F5F5F5F5F5F5F5F5F5F5F5F5F5F5F5F5F5
310
F5F5F5F5F5F5F5F5F5F5F5F5F5E2E2EFE2F5F5F5F5F5F5F5F5F5F5F5F5F5F5F5F5F5F5F5F5F5F5F5F5F5F5F5F5F5F5F5F5F5F5F5F5F5F5F5F5F5F5F5F5F5F5F5F5F5F5F5F5F5F5F5F5F5F5F5F5F5F5F5F5F5F5F5F5F5F5F5F5F5F5F5F5F5F5F5F5F5F5F5F5F5F5F5F5F5F5F5F5F5F5F5F5F5F5F5F5F5F5F5F5F5F5F5F5F5F5
310
F5F5F5F5F5F5F5F5F5F5F5F5F5F5F5F5F5F5F5F5F5F5F5F5F5F5F5F5F5F5F5F5F5F5F5F5F5F5F5F5F5F5F5F5F5F5F5F5F5F5F5F5F5F5F5F5F5F5F5F5F5F5F5F5F5F5E2E2EFE2F5F5F5F5F5F5F5F5F5F5F5F5F5F5F5F5F5F5F5F5F5F5F5F5F5F5F5F5F5F5F5F5F5F5F5F5F5F5F5F5F5F5F5F5F5F5F5F5F5F5F5F5F5F5F5F5F5
310
F5F5F5F5F5F5F5F5F5F5F5F5F5F5F5F5F5F5F5F5F5F5F5F5F5F5F5F5F5F5F5F5F5F5F5F5F5F5F5F5F5F5F5F5F5F5F5F5F5F5F5F5F5F5F5F5F5F5F5F5F5F5F5F5F5F5F5F5F5F5F5F5F5F5F5F5F5F5F5F5F5F5F5F5F5F5F5F5F5F5F5F5F5F5F5F5F5F5F5F5F5F5F5F5F5F5F5F5F5F5F5F5F5F5F5F5F5F5F5E2E2EFE2F5F5F5E2
310
F5F5F5F5F5F5F5F5F5F5F5F5F5F5F5F5F5F5F5F5F5F5F5F5F5F5F5F5F5F5F5F5F5F5F5F5F5F5F5F5F5F5F5F5F5F5F5F5F5F5F5F5F5F5F5F5F5F5F5F5F5F5F5F5F5F5F5F5F5F5F5F5F5F5F5F5F5F5F5F5F5F5F5F5F5F5F5F5F5F5F5F5F5F5F5F5F5F5F5F5F5F5F5F5F5F5F5F5F5F5F5F5F5F5F5F5F5F5F5F5F5F5F5F5F5F5F5
310
F5F5F5F5F5F5F5F5F5F5F5F5F5F5F5F5F5F5F5F5F5F5F5F5F5F5F5F5F5F5F5F5F5F5F5F5F5F5F5F5F5E2F5F5F5E2E2EFE2F5F5F5E2F5F5F5F5F5F5F5F5F5F5F5F5F5F5F5F5F5F5F5F5F5F5F5F5F5F5F5F5F5F5F5F5F5F5F5F5F5F5F5F5F5F5F5F5F5F5F5F5F5F5F5F5F5F5F5F5F5F5F5F5F5F5F5F5F5F5F5F5F5F5F5F5F5F5
310
F5F5F5F5F5F5F5F5F5F5F5F5F5F5F5F5F5F5F5F5F5F5F5F5F5F5F5F5F5F5F5F5F5F5F5F5F5F5F5F5F5F5F5F5F5F5F5F5F5F5F5F5F5F5F5F5F5F5F5F5F5F5F5F5F5F5F5F5F5F5F5F5F5F5F5F5F5F5F5F5F5F5F5F5F5F5F5F5F5F5F5F5F5F5E2F5F5F5E2E2EFE2F5F5F5E2F5F5F5F5F5F5F5F5F5F5F5F5F5F5F5F5F5F5F5F5F5
310
F5F5F5F5F5F5F5F5F5F5F5F5F5F5F5F5F5F5F5F5F5F5F5F5F5F5F5F5F5F5F5F5F5F5F5F5F5F5F5F5F5F5F5F5F5F5F5F5F5F5F5F5F5F5F5F5F5F5F5F5F5F5F5F5F5F5F5F5F5F5F5F5F5F5F5F5F5F5F5F5F5F5F5F5F5F5F5F5F5F5F5F5F5F5F5F5F5F5F5F5F5F5F5F5F5F5F5F5F5F5F5F5F5F5F5F5F5F5F5F5F5F5F5F5F5F5F5
310
F5F5F5F5F5F5F5F5F5F5F5F5F5F5F5F5F5F5F5F5E2F5F5F5E2E2EFE2F5F5F5E2F5F5F5F5F5F5F5F5F5F5F5F5F5F5F5F5F5F5F5F5F5F5F5F5F5F5F5F5F5F5F5F5F5F5F5F5F5F5F5F5F5F5F5F5F5F5F5F5F5F5F5F5F5F5F5F5F5F5F5F5F5F5F5F5F5F5F5F5F5F5F5F5F5F5F5F5F5F5F5F5F5F5F5F5F5F5F5F5F5F5F5F5F5F5F5
310
F5F5F5F5F5F5F5F5F5F5F5F5F5F5F5F5F5F5F5F5F5F5F5F5F5F5F5F5F5F5F5F5F5F5F5F5F5F5F5F5F5F5F5F5F5F5F5F5F5F5F5F5F5F5F5F5F5F5F5F5F5F5F5F5F5F5F5F5F5F5F5F5F5E2F5F5F5E2E2EFE2F5F5F5E2F5F5F5F5F5F5F5F5F5F5F5F5F5F5F5F5F5F5F5F5F5F5F5F5F5F5F5F5F5F5F5F5F5F5F5F5F5F5F5F5F5F5
310
F5F5F5F5F5F5F5F5F5F5F5F5F5F5F5F5F5F5F5F5F5F5F5F5F5F5F5F5F5F5F5F5F5F5F5F5F5F5F5F5F5F5F5F5F5F5F5F5F5F5F5F5F5F5F5F5F5F5F5F5F5F5F5F5F5F5F5F5F5F5F5F5F5F5F5F5F5F5F5F5F5F5F5F5F5F5F5F5F5F5F5F5F5F5F5F5F5F5F5F5F5F5F5F5F5F5F5F5F5F5F5F5F5F5F5F5F5F5F5F5F5F5F5F5F5F5E2
310
F5F5F5E2E2EFE2F5F5F5E2F5F5F5F5F5F5F5F5F5F5F5F5F5F5F5F5F5F5F5F5F5F5F5F5F5F5F5F5F5F5F5F5F5F5F5F5F5F5F5F5F5F5F5F5F5F5F5F5F5F5F5F5F5F5F5F5F5F5F5F5F5F5F5F5F5F5F5F5F5F5F5F5F5F5F5F5F5F5F5F5F5F5F5F5F5F5F5F5F5F5F5F5F5F5F5F5F5F5F5F5F5F5F5F5F5F5F5F5F5F5F5F5F5F5F5F5
310
F5F5F5F5F5F5F5F5F5F5F5F5F5F5F5F5F5F5F5F5F5F5F5F5F5F5F5F5F5F5F5F5F5F5F5F5F5F5F5F5F5F5F5F5F5F5F5F5F5F5F5F5E2F5F5F5E2E2EFE2F5F5F5E2F5F5F5F5F5F5F5F5F5F5F5F5F5F5F5F5F5F5F5F5F5F5F5F5F5F5F5F5F5F5F5F5F5F5F5F5F5F5F5F5F5F5F5F5F5F5F5F5F5F5F5F5F5F5F5F5F5F5F5F5F5F5F5
310
F5F5F5F5F5F5F5F5F5F5F5F5F5F5F5F5F5F5F5F5F5F5F5F5F5F5F5F5F5F5F5F5F5F5F5F5F5F5F5F5F5F5F5F5F5F5F5F5F5F5F5F5F5F5F5F5F5F5F5F5F5F5F5F5F5F5F5F5F5F5F5F5F5F5F5F5F5F5F5F5F5F5F5F5F5F5F5F5F5F5F5F5F5F5F5F5F5F5F5F5F5F5F5F5F5E2F5F5F5E2E2EFE2F5F5F5E2F5F5F5F5F5F5F5F5F5F5
310
F5F5F5F5F5F5F5F5F5F5F5F5F5F5F5F5F5F5F5F5F5F5F5F5F5F5F5F5F5F5F5F5F5F5F5F5F5F5F5F5F5F5F5F5F5F5F5F5F5F5F5F5F5F5F5F5F5F5F5F5F5F5F5F5F5F5F5F5F5F5F5F5F5F5F5F5F5F5F5F5F5F5F5F5F5F5F5F5F5F5F5F5F5F5F5F5F5F5F5F5F5F5F5F5F5F5F5F5F5F5F5F5F5F5F5F5F5F5F5F5F5F5F5F5F5F5F5
310
F5F5F5F5F5F5F5F5F5F5F5F5F5F5F5F5F5F5F5F5F5F5F5F5F5F5F5F5F5F5F5E2F5F5F5E2E2EFE2F5F5F5E2E2E2E2E2E2E2E2F5F5F5F5F5F5F5F5F5E2E2E2E2E2E2E2E2E2E2E2E2E2E2E2F5F5F5F5F5F5F5F5F5E2E2E2E2E2E2E2E2E2E2E2E2E2E2E2E2F5F5F5F5F5F5F5F5E2E2E2E2E2E2E2E2E2E2E2E2E2E2E2E2F5F5F5F5
310
F5F5F5F5E2E2E2E2E2E2E2E2E2E2E2E2E2E2E2E2F5F5F5F5F5F5F5F5E2E2E2E2E2E2E2E2E2E2E2E2E2E2E2E2F5F5F5F5F5F5F5F5F5E2E2E2E2E2E2E2E2E2E2E2E2E2E2E2F5F5F5F5F5F5F5F5F5E2E2E2E2E2E2E2E2F5F5F5E2E2EFE2F5F5F5F5F5F5F5F5F5F5F5F5F5F5F5F5F5F5F5F5F5F5F5F5F5F5F5F5F5F5F5F5F5F5F5
310
F5F5F5F5F5F5F5F5F5F5F5F5F5F5F5F5F5F5F5F5F5F5F5F5F5F5F5F5F5F5F5F5F5F5F5F5F5F5F5F5F5F5F5F5F5F5F5F5F5F5F5F5F5F5F5F5F5F5F5F5F5F5F5F5F5F5F5F5F5F5F5F5F5F5F5F5F5F5F5F5F5F5F5F5F5F5F5F5F5F5F5F5F5F5F5F5F5F5F5F5F5F5F5F5F5F5F5F5F5F5F5F5F5F5F5F5F5F5F5F5F5F5F5F5F5F5F5
310
F5F5F5F5F5F5F5F5F5F5F5F5F5F5E2E2EFE2F5F5F5F5F5F5F5F5F5F5F5F5F5F5F5F5F5F5F5F5F5F5F5F5F5F5F5F5F5F5F5F5F5F5F5F5F5F5F5F5F5F5F5F5F5F5F5F5F5F5F5F5F5F5F5F5F5F5F5F5F5F5F5F5F5F5F5F5F5F5F5F5F5F5F5F5F5F5F5F5F5F5F5F5F5F5F5F5F5F5F5F5F5F5F5F5F5F5F5F5F5F5F5F5F5F5F5F5F5
310
F5F5F5F5F5F5F5F5F5F5F5F5F5F5F5F5F5F5F5F5F5F5F5F5F5F5F5F5F5F5F5F5F5F5F5F5F5F5F5F5F5F5F5F5F5F5F5F5F5F5F5F5F5F5F5F5F5F5F5F5F5F5F5F5F5F5F5E2EFEFE2F5F5F5F5F5F5F5F5F5F5F5F5F5F5F5F5F5F5F5F5F5F5F5F5F5F5F5F5F5F5F5F5F5F5F5F5F5F5F5F5F5F5F5F5F5F5F5F5F5F5F5F5F5F5F5F5
310
F5F5F5F5F5F5F5F5F5F5F5F5F5F5F5F5F5F5F5F5F5F5F5F5F5F5F5F5F5F5F5F5F5F5F5F5F5F5F5F5F5F5F5F5F5F5F5F5F5F5F5F5F5F5F5F5F5F5F5F5F5F5F5F5F5F5F5F5F5F5F5F5F5F5F5F5F5F5F5F5F5F5F5F5F5F5F5F5F5F5F5F5F5F5F5F5F5F5F5F5F5F5F5F5F5F5F5F5F5F5F5F5F5F5F5F5F5F5F5F5E2EFEFE2E2E2E2
310
E2E2E2E2E2E2E2E2E2E2E2E2E2E2E2E2E2E2E2E2E2E2E2E2E2E2E2E2E2E2E2E2E2E2E2E2E2E2E2E2E2E2E2E2E2E2E2E2E2E2E2E2E2E2E2E2E2E2E2E2E2E2E2E2E2E2E2E2E2E2E2E2E2E2E2E2E2E2E2E2E2E2E2E2E2E2E2E2E2E2E2E2E2E2E2E2E2E2E2E2E2E2E2E2E2E2E2E2E2E2E2E2E2E2E2E2E2E2E2E2E2E2E2E2E2E2E2
310
E2E2E2E2E2E2E2E2E2E2E2E2E2E2E2E2E2E2E2E2E2E2E2E2E2E2E2E2E2E2E2E2E2E2E2E2E2E2E2E2E2E2E2E2E2E2E2EFEF
  0
ENDSEC
  0
EOF
